  0
SECTION
  2
HEADER
  9
$ACADVER
  1
AC1027
  9
$ACADMAINTVER
 70
   125
  9
$DWGCODEPAGE
  3
ANSI_1252
  9
$LASTSAVEDBY
  1
ufficio.tecnico
  9
$REQUIREDVERSIONS
160
                 0
  9
$INSBASE
 10
0.0
 20
0.0
 30
0.0
  9
$EXTMIN
 10
7.398317382847877
 20
-19.73443711529208
 30
0.0
  9
$EXTMAX
 10
24.81715873945543
 20
-5.134056137605369
 30
0.0
  9
$LIMMIN
 10
0.0
 20
0.0
  9
$LIMMAX
 10
12.0
 20
9.0
  9
$ORTHOMODE
 70
     0
  9
$REGENMODE
 70
     1
  9
$FILLMODE
 70
     1
  9
$QTEXTMODE
 70
     0
  9
$MIRRTEXT
 70
     1
  9
$LTSCALE
 40
1.0
  9
$ATTMODE
 70
     1
  9
$TEXTSIZE
 40
0.2
  9
$TRACEWID
 40
0.05
  9
$TEXTSTYLE
  7
Standard
  9
$CLAYER
  8
0
  9
$CELTYPE
  6
ByLayer
  9
$CECOLOR
 62
   256
  9
$CELTSCALE
 40
1.0
  9
$DISPSILH
 70
     0
  9
$DIMSCALE
 40
1.0
  9
$DIMASZ
 40
0.18
  9
$DIMEXO
 40
0.0625
  9
$DIMDLI
 40
0.38
  9
$DIMRND
 40
0.0
  9
$DIMDLE
 40
0.0
  9
$DIMEXE
 40
0.18
  9
$DIMTP
 40
0.0
  9
$DIMTM
 40
0.0
  9
$DIMTXT
 40
0.18
  9
$DIMCEN
 40
0.09
  9
$DIMTSZ
 40
0.0
  9
$DIMTOL
 70
     0
  9
$DIMLIM
 70
     0
  9
$DIMTIH
 70
     1
  9
$DIMTOH
 70
     1
  9
$DIMSE1
 70
     0
  9
$DIMSE2
 70
     0
  9
$DIMTAD
 70
     0
  9
$DIMZIN
 70
     0
  9
$DIMBLK
  1

  9
$DIMASO
 70
     1
  9
$DIMSHO
 70
     1
  9
$DIMPOST
  1

  9
$DIMAPOST
  1

  9
$DIMALT
 70
     0
  9
$DIMALTD
 70
     2
  9
$DIMALTF
 40
25.4
  9
$DIMLFAC
 40
1.0
  9
$DIMTOFL
 70
     0
  9
$DIMTVP
 40
0.0
  9
$DIMTIX
 70
     0
  9
$DIMSOXD
 70
     0
  9
$DIMSAH
 70
     0
  9
$DIMBLK1
  1

  9
$DIMBLK2
  1

  9
$DIMSTYLE
  2
Standard
  9
$DIMCLRD
 70
     0
  9
$DIMCLRE
 70
     0
  9
$DIMCLRT
 70
     0
  9
$DIMTFAC
 40
1.0
  9
$DIMGAP
 40
0.09
  9
$DIMJUST
 70
     0
  9
$DIMSD1
 70
     0
  9
$DIMSD2
 70
     0
  9
$DIMTOLJ
 70
     1
  9
$DIMTZIN
 70
     0
  9
$DIMALTZ
 70
     0
  9
$DIMALTTZ
 70
     0
  9
$DIMUPT
 70
     0
  9
$DIMDEC
 70
     4
  9
$DIMTDEC
 70
     4
  9
$DIMALTU
 70
     2
  9
$DIMALTTD
 70
     2
  9
$DIMTXSTY
  7
Standard
  9
$DIMAUNIT
 70
     0
  9
$DIMADEC
 70
     0
  9
$DIMALTRND
 40
0.0
  9
$DIMAZIN
 70
     0
  9
$DIMDSEP
 70
    46
  9
$DIMATFIT
 70
     3
  9
$DIMFRAC
 70
     0
  9
$DIMLDRBLK
  1

  9
$DIMLUNIT
 70
     2
  9
$DIMLWD
 70
    -2
  9
$DIMLWE
 70
    -2
  9
$DIMTMOVE
 70
     0
  9
$DIMFXL
 40
1.0
  9
$DIMFXLON
 70
     0
  9
$DIMJOGANG
 40
0.7853981633974483
  9
$DIMTFILL
 70
     0
  9
$DIMTFILLCLR
 70
     0
  9
$DIMARCSYM
 70
     0
  9
$DIMLTYPE
  6

  9
$DIMLTEX1
  6

  9
$DIMLTEX2
  6

  9
$DIMTXTDIRECTION
 70
     0
  9
$LUNITS
 70
     2
  9
$LUPREC
 70
     4
  9
$SKETCHINC
 40
0.1
  9
$FILLETRAD
 40
0.5
  9
$AUNITS
 70
     0
  9
$AUPREC
 70
     0
  9
$MENU
  1
.
  9
$ELEVATION
 40
0.0
  9
$PELEVATION
 40
0.0
  9
$THICKNESS
 40
0.0
  9
$LIMCHECK
 70
     0
  9
$CHAMFERA
 40
0.5
  9
$CHAMFERB
 40
0.5
  9
$CHAMFERC
 40
1.0
  9
$CHAMFERD
 40
0.0
  9
$SKPOLY
 70
     0
  9
$TDCREATE
 40
2459325.484780093
  9
$TDUCREATE
 40
2459325.401449942
  9
$TDUPDATE
 40
2459328.458298611
  9
$TDUUPDATE
 40
2459328.374965278
  9
$TDINDWG
 40
0.0010995486
  9
$TDUSRTIMER
 40
0.0010995486
  9
$USRTIMER
 70
     1
  9
$ANGBASE
 50
0.0
  9
$ANGDIR
 70
     0
  9
$PDMODE
 70
     0
  9
$PDSIZE
 40
0.0
  9
$PLINEWID
 40
0.0
  9
$SPLFRAME
 70
     0
  9
$SPLINETYPE
 70
     6
  9
$SPLINESEGS
 70
     8
  9
$HANDSEED
  5
227
  9
$SURFTAB1
 70
     6
  9
$SURFTAB2
 70
     6
  9
$SURFTYPE
 70
     6
  9
$SURFU
 70
     6
  9
$SURFV
 70
     6
  9
$UCSBASE
  2

  9
$UCSNAME
  2

  9
$UCSORG
 10
0.0
 20
0.0
 30
0.0
  9
$UCSXDIR
 10
1.0
 20
0.0
 30
0.0
  9
$UCSYDIR
 10
0.0
 20
1.0
 30
0.0
  9
$UCSORTHOREF
  2

  9
$UCSORTHOVIEW
 70
     0
  9
$UCSORGTOP
 10
0.0
 20
0.0
 30
0.0
  9
$UCSORGBOTTOM
 10
0.0
 20
0.0
 30
0.0
  9
$UCSORGLEFT
 10
0.0
 20
0.0
 30
0.0
  9
$UCSORGRIGHT
 10
0.0
 20
0.0
 30
0.0
  9
$UCSORGFRONT
 10
0.0
 20
0.0
 30
0.0
  9
$UCSORGBACK
 10
0.0
 20
0.0
 30
0.0
  9
$PUCSBASE
  2

  9
$PUCSNAME
  2

  9
$PUCSORG
 10
0.0
 20
0.0
 30
0.0
  9
$PUCSXDIR
 10
1.0
 20
0.0
 30
0.0
  9
$PUCSYDIR
 10
0.0
 20
1.0
 30
0.0
  9
$PUCSORTHOREF
  2

  9
$PUCSORTHOVIEW
 70
     0
  9
$PUCSORGTOP
 10
0.0
 20
0.0
 30
0.0
  9
$PUCSORGBOTTOM
 10
0.0
 20
0.0
 30
0.0
  9
$PUCSORGLEFT
 10
0.0
 20
0.0
 30
0.0
  9
$PUCSORGRIGHT
 10
0.0
 20
0.0
 30
0.0
  9
$PUCSORGFRONT
 10
0.0
 20
0.0
 30
0.0
  9
$PUCSORGBACK
 10
0.0
 20
0.0
 30
0.0
  9
$USERI1
 70
     0
  9
$USERI2
 70
     0
  9
$USERI3
 70
     0
  9
$USERI4
 70
     0
  9
$USERI5
 70
     0
  9
$USERR1
 40
0.0
  9
$USERR2
 40
0.0
  9
$USERR3
 40
0.0
  9
$USERR4
 40
0.0
  9
$USERR5
 40
0.0
  9
$WORLDVIEW
 70
     1
  9
$SHADEDGE
 70
     3
  9
$SHADEDIF
 70
    70
  9
$TILEMODE
 70
     1
  9
$MAXACTVP
 70
    64
  9
$PINSBASE
 10
0.0
 20
0.0
 30
0.0
  9
$PLIMCHECK
 70
     0
  9
$PEXTMIN
 10
1.000000000000000E+20
 20
1.000000000000000E+20
 30
1.000000000000000E+20
  9
$PEXTMAX
 10
-1.000000000000000E+20
 20
-1.000000000000000E+20
 30
-1.000000000000000E+20
  9
$PLIMMIN
 10
0.0
 20
0.0
  9
$PLIMMAX
 10
12.0
 20
9.0
  9
$UNITMODE
 70
     0
  9
$VISRETAIN
 70
     1
  9
$PLINEGEN
 70
     0
  9
$PSLTSCALE
 70
     1
  9
$TREEDEPTH
 70
  3020
  9
$CMLSTYLE
  2
Standard
  9
$CMLJUST
 70
     0
  9
$CMLSCALE
 40
1.0
  9
$PROXYGRAPHICS
 70
     1
  9
$MEASUREMENT
 70
     0
  9
$CELWEIGHT
370
    -1
  9
$ENDCAPS
280
     0
  9
$JOINSTYLE
280
     0
  9
$LWDISPLAY
290
     1
  9
$INSUNITS
 70
     5
  9
$HYPERLINKBASE
  1

  9
$STYLESHEET
  1

  9
$XEDIT
290
     1
  9
$CEPSNTYPE
380
     0
  9
$PSTYLEMODE
290
     1
  9
$FINGERPRINTGUID
  2
{6038CBE1-7F69-4098-9A19-3CE7FA79E7B5}
  9
$VERSIONGUID
  2
{76C33F6B-CE16-EA4C-81D1-B0B60E721A82}
  9
$EXTNAMES
290
     1
  9
$PSVPSCALE
 40
0.0
  9
$OLESTARTUP
290
     0
  9
$SORTENTS
280
   127
  9
$INDEXCTL
280
     0
  9
$HIDETEXT
280
     1
  9
$XCLIPFRAME
280
     2
  9
$HALOGAP
280
     0
  9
$OBSCOLOR
 70
   257
  9
$OBSLTYPE
280
     0
  9
$INTERSECTIONDISPLAY
280
     0
  9
$INTERSECTIONCOLOR
 70
   257
  9
$DIMASSOC
280
     2
  9
$PROJECTNAME
  1

  9
$CAMERADISPLAY
290
     0
  9
$LENSLENGTH
 40
50.0
  9
$CAMERAHEIGHT
 40
0.0
  9
$STEPSPERSEC
 40
2.0
  9
$STEPSIZE
 40
6.0
  9
$3DDWFPREC
 40
2.0
  9
$PSOLWIDTH
 40
0.25
  9
$PSOLHEIGHT
 40
4.0
  9
$LOFTANG1
 40
1.570796326794897
  9
$LOFTANG2
 40
1.570796326794897
  9
$LOFTMAG1
 40
0.0
  9
$LOFTMAG2
 40
0.0
  9
$LOFTPARAM
 70
     7
  9
$LOFTNORMALS
280
     1
  9
$LATITUDE
 40
37.795
  9
$LONGITUDE
 40
-122.394
  9
$NORTHDIRECTION
 40
0.0
  9
$TIMEZONE
 70
 -8000
  9
$LIGHTGLYPHDISPLAY
280
     1
  9
$TILEMODELIGHTSYNCH
280
     1
  9
$CMATERIAL
347
3C
  9
$SOLIDHIST
280
     1
  9
$SHOWHIST
280
     1
  9
$DWFFRAME
280
     2
  9
$DGNFRAME
280
     2
  9
$REALWORLDSCALE
290
     1
  9
$INTERFERECOLOR
 62
   256
  9
$INTERFEREOBJVS
345
33
  9
$INTERFEREVPVS
346
10D
  9
$CSHADOW
280
     0
  9
$SHADOWPLANELOCATION
 40
0.0
  0
ENDSEC
  0
SECTION
  2
CLASSES
  0
CLASS
  1
ACDBDICTIONARYWDFLT
  2
AcDbDictionaryWithDefault
  3
ObjectDBX Classes
 90
        0
 91
        1
280
     0
281
     0
  0
CLASS
  1
VISUALSTYLE
  2
AcDbVisualStyle
  3
ObjectDBX Classes
 90
     4095
 91
       26
280
     0
281
     0
  0
CLASS
  1
MATERIAL
  2
AcDbMaterial
  3
ObjectDBX Classes
 90
     1153
 91
        3
280
     0
281
     0
  0
CLASS
  1
SUN
  2
AcDbSun
  3
SCENEOE
 90
     1153
 91
        1
280
     0
281
     0
  0
CLASS
  1
TABLESTYLE
  2
AcDbTableStyle
  3
ObjectDBX Classes
 90
     4095
 91
        1
280
     0
281
     0
  0
CLASS
  1
SCALE
  2
AcDbScale
  3
ObjectDBX Classes
 90
     1153
 91
       21
280
     0
281
     0
  0
CLASS
  1
MLEADERSTYLE
  2
AcDbMLeaderStyle
  3
ACDB_MLEADERSTYLE_CLASS
 90
     4095
 91
        1
280
     0
281
     0
  0
CLASS
  1
ACDBSECTIONVIEWSTYLE
  2
AcDbSectionViewStyle
  3
ObjectDBX Classes
 90
     1025
 91
        1
280
     0
281
     0
  0
CLASS
  1
ACDBDETAILVIEWSTYLE
  2
AcDbDetailViewStyle
  3
ObjectDBX Classes
 90
     1025
 91
        1
280
     0
281
     0
  0
CLASS
  1
SORTENTSTABLE
  2
AcDbSortentsTable
  3
ObjectDBX Classes
 90
        0
 91
        1
280
     0
281
     0
  0
CLASS
  1
DICTIONARYVAR
  2
AcDbDictionaryVar
  3
ObjectDBX Classes
 90
        0
 91
        5
280
     0
281
     0
  0
CLASS
  1
CELLSTYLEMAP
  2
AcDbCellStyleMap
  3
ObjectDBX Classes
 90
     1152
 91
        1
280
     0
281
     0
  0
ENDSEC
  0
SECTION
  2
TABLES
  0
TABLE
  2
VPORT
  5
8
330
0
100
AcDbSymbolTable
 70
     1
1001
ACAD
1000
DbSaveVer
1071
      105
  0
VPORT
  5
29
330
8
100
AcDbSymbolTableRecord
100
AcDbViewportTableRecord
  2
*Active
 70
     0
 10
0.0
 20
0.0
 11
1.0
 21
1.0
 12
-1.790904142445782
 22
-3.26550019687054
 13
0.0
 23
0.0
 14
0.5
 24
0.5
 15
0.5
 25
0.5
 16
0.0
 26
0.0
 36
1.0
 17
14.84999673225613
 27
-10.50008306681943
 37
0.0
 40
33.50551754926828
 41
1.932867132867133
 42
50.0
 43
0.0
 44
0.0
 50
0.0
 51
0.0
 71
     0
 72
   100
 73
     1
 74
     3
 75
     0
 76
     0
 77
     0
 78
     0
281
     0
 65
     1
110
0.0
120
0.0
130
0.0
111
1.0
121
0.0
131
0.0
112
0.0
122
1.0
132
0.0
 79
     0
146
0.0
348
2F
 60
     3
 61
     5
292
     1
282
     1
141
0.0
142
0.0
 63
   250
361
3F
1001
ACAD_NAV_VCDISPLAY
1070
     3
  0
ENDTAB
  0
TABLE
  2
LTYPE
  5
5
330
0
100
AcDbSymbolTable
 70
     1
  0
LTYPE
  5
14
330
5
100
AcDbSymbolTableRecord
100
AcDbLinetypeTableRecord
  2
ByBlock
 70
     0
  3

 72
    65
 73
     0
 40
0.0
  0
LTYPE
  5
15
330
5
100
AcDbSymbolTableRecord
100
AcDbLinetypeTableRecord
  2
ByLayer
 70
     0
  3

 72
    65
 73
     0
 40
0.0
  0
LTYPE
  5
16
330
5
100
AcDbSymbolTableRecord
100
AcDbLinetypeTableRecord
  2
Continuous
 70
     0
  3
Solid line
 72
    65
 73
     0
 40
0.0
  0
ENDTAB
  0
TABLE
  2
LAYER
  5
2
330
0
100
AcDbSymbolTable
 70
     2
  0
LAYER
  5
10
330
2
100
AcDbSymbolTableRecord
100
AcDbLayerTableRecord
  2
0
 70
     0
 62
     7
  6
Continuous
370
    -3
390
F
347
3E
348
0
  0
LAYER
  5
40
330
2
100
AcDbSymbolTableRecord
100
AcDbLayerTableRecord
  2
Livello 3
 70
     0
 62
     7
  6
Continuous
370
    -3
390
F
347
3E
348
0
  0
ENDTAB
  0
TABLE
  2
STYLE
  5
3
330
0
100
AcDbSymbolTable
 70
     1
  0
STYLE
  5
11
330
3
100
AcDbSymbolTableRecord
100
AcDbTextStyleTableRecord
  2
Standard
 70
     0
 40
0.0
 41
1.0
 50
0.0
 71
     0
 42
0.2
  3
txt
  4

  0
ENDTAB
  0
TABLE
  2
VIEW
  5
6
330
0
100
AcDbSymbolTable
 70
     0
  0
ENDTAB
  0
TABLE
  2
UCS
  5
7
330
0
100
AcDbSymbolTable
 70
     0
  0
ENDTAB
  0
TABLE
  2
APPID
  5
9
330
0
100
AcDbSymbolTable
 70
     2
  0
APPID
  5
12
330
9
100
AcDbSymbolTableRecord
100
AcDbRegAppTableRecord
  2
ACAD
 70
     0
  0
APPID
  5
1C0
330
9
100
AcDbSymbolTableRecord
100
AcDbRegAppTableRecord
  2
ACAD_NAV_VCDISPLAY
 70
     0
  0
ENDTAB
  0
TABLE
  2
DIMSTYLE
  5
A
330
0
100
AcDbSymbolTable
 70
     1
100
AcDbDimStyleTable
 71
     0
  0
DIMSTYLE
105
27
330
A
100
AcDbSymbolTableRecord
100
AcDbDimStyleTableRecord
  2
Standard
 70
     0
340
11
  0
ENDTAB
  0
TABLE
  2
BLOCK_RECORD
  5
1
330
0
100
AcDbSymbolTable
 70
     9
  0
BLOCK_RECORD
  5
1F
102
{ACAD_XDICTIONARY
360
137
102
}
330
1
100
AcDbSymbolTableRecord
100
AcDbBlockTableRecord
  2
*Model_Space
340
22
 70
     0
280
     1
281
     0
  0
BLOCK_RECORD
  5
1B
330
1
100
AcDbSymbolTableRecord
100
AcDbBlockTableRecord
  2
*Paper_Space
340
1E
 70
     0
280
     1
281
     0
  0
BLOCK_RECORD
  5
23
330
1
100
AcDbSymbolTableRecord
100
AcDbBlockTableRecord
  2
*Paper_Space0
340
26
 70
     0
280
     1
281
     0
  0
BLOCK_RECORD
  5
41
330
1
100
AcDbSymbolTableRecord
100
AcDbBlockTableRecord
  2
block 2
340
0
 70
     0
280
     1
281
     0
  0
BLOCK_RECORD
  5
69
330
1
100
AcDbSymbolTableRecord
100
AcDbBlockTableRecord
  2
block 3
340
0
 70
     0
280
     1
281
     0
  0
BLOCK_RECORD
  5
AE
330
1
100
AcDbSymbolTableRecord
100
AcDbBlockTableRecord
  2
block 4
340
0
 70
     0
280
     1
281
     0
  0
BLOCK_RECORD
  5
B9
330
1
100
AcDbSymbolTableRecord
100
AcDbBlockTableRecord
  2
block 5
340
0
 70
     0
280
     1
281
     0
  0
BLOCK_RECORD
  5
CB
330
1
100
AcDbSymbolTableRecord
100
AcDbBlockTableRecord
  2
block 6
340
0
 70
     0
280
     1
281
     0
  0
BLOCK_RECORD
  5
DE
330
1
100
AcDbSymbolTableRecord
100
AcDbBlockTableRecord
  2
block 7
340
0
 70
     0
280
     1
281
     0
  0
BLOCK_RECORD
  5
E9
330
1
100
AcDbSymbolTableRecord
100
AcDbBlockTableRecord
  2
block 8
340
0
 70
     0
280
     1
281
     0
  0
BLOCK_RECORD
  5
FF
330
1
100
AcDbSymbolTableRecord
100
AcDbBlockTableRecord
  2
block 9
340
0
 70
     0
280
     1
281
     0
  0
ENDTAB
  0
ENDSEC
  0
SECTION
  2
BLOCKS
  0
BLOCK
  5
20
330
1F
100
AcDbEntity
  8
0
100
AcDbBlockBegin
  2
*Model_Space
 70
     0
 10
0.0
 20
0.0
 30
0.0
  3
*Model_Space
  1

  0
ENDBLK
  5
21
330
1F
100
AcDbEntity
  8
0
100
AcDbBlockEnd
  0
BLOCK
  5
1C
330
1B
100
AcDbEntity
 67
     1
  8
0
100
AcDbBlockBegin
  2
*Paper_Space
 70
     0
 10
0.0
 20
0.0
 30
0.0
  3
*Paper_Space
  1

  0
ENDBLK
  5
1D
330
1B
100
AcDbEntity
 67
     1
  8
0
100
AcDbBlockEnd
  0
BLOCK
  5
24
330
23
100
AcDbEntity
 67
     1
  8
0
100
AcDbBlockBegin
  2
*Paper_Space0
 70
     0
 10
0.0
 20
0.0
 30
0.0
  3
*Paper_Space0
  1

  0
ENDBLK
  5
25
330
23
100
AcDbEntity
 67
     1
  8
0
100
AcDbBlockEnd
  0
BLOCK
  5
43
330
41
100
AcDbEntity
  8
0
100
AcDbBlockBegin
  2
block 2
 70
     0
 10
0.0
 20
0.0
 30
0.0
  3
block 2
  1

  0
POLYLINE
  5
45
330
41
100
AcDbEntity
  8
Livello 3
 62
   178
420
        1
370
    70
100
AcDb2dPolyline
 66
     1
 10
0.0
 20
0.0
 30
0.0
  0
VERTEX
  5
46
330
45
100
AcDbEntity
  8
Livello 3
 62
   178
420
        1
370
    70
100
AcDbVertex
100
AcDb2dVertex
 10
19.50942905782855
 20
-18.26110068987919
 30
0.0
  0
VERTEX
  5
47
330
45
100
AcDbEntity
  8
Livello 3
 62
   178
420
        1
370
    70
100
AcDbVertex
100
AcDb2dVertex
 10
18.67433352357806
 20
-18.26110068987919
 30
0.0
  0
VERTEX
  5
48
330
45
100
AcDbEntity
  8
Livello 3
 62
   178
420
        1
370
    70
100
AcDbVertex
100
AcDb2dVertex
 10
18.67433352357806
 20
-17.53151038450603
 30
0.0
  0
VERTEX
  5
49
330
45
100
AcDbEntity
  8
Livello 3
 62
   178
420
        1
370
    70
100
AcDbVertex
100
AcDb2dVertex
 10
19.50942905782855
 20
-17.53151038450603
 30
0.0
  0
VERTEX
  5
4A
330
45
100
AcDbEntity
  8
Livello 3
 62
   178
420
        1
370
    70
100
AcDbVertex
100
AcDb2dVertex
 10
19.50942905782855
 20
-18.26110068987919
 30
0.0
  0
SEQEND
  5
4B
330
45
100
AcDbEntity
  8
Livello 3
 62
   178
420
        1
370
    70
  0
POLYLINE
  5
4C
330
41
100
AcDbEntity
  8
Livello 3
 62
   178
420
        1
370
    70
100
AcDb2dPolyline
 66
     1
 10
0.0
 20
0.0
 30
0.0
  0
VERTEX
  5
4D
330
4C
100
AcDbEntity
  8
Livello 3
 62
   178
420
        1
370
    70
100
AcDbVertex
100
AcDb2dVertex
 10
19.90058552007154
 20
-18.32442782875223
 30
0.0
  0
VERTEX
  5
4E
330
4C
100
AcDbEntity
  8
Livello 3
 62
   178
420
        1
370
    70
100
AcDbVertex
100
AcDb2dVertex
 10
18.23922800690075
 20
-18.32442782875223
 30
0.0
  0
VERTEX
  5
4F
330
4C
100
AcDbEntity
  8
Livello 3
 62
   178
420
        1
370
    70
100
AcDbVertex
100
AcDb2dVertex
 10
18.23922800690075
 20
-18.26289280098982
 30
0.0
  0
VERTEX
  5
50
330
4C
100
AcDbEntity
  8
Livello 3
 62
   178
420
        1
370
    70
100
AcDbVertex
100
AcDb2dVertex
 10
19.90058552007154
 20
-18.26289280098982
 30
0.0
  0
VERTEX
  5
51
330
4C
100
AcDbEntity
  8
Livello 3
 62
   178
420
        1
370
    70
100
AcDbVertex
100
AcDb2dVertex
 10
19.90058552007154
 20
-18.32442782875223
 30
0.0
  0
SEQEND
  5
52
330
4C
100
AcDbEntity
  8
Livello 3
 62
   178
420
        1
370
    70
  0
POLYLINE
  5
53
330
41
100
AcDbEntity
  8
Livello 3
 62
   178
420
        1
370
    70
100
AcDb2dPolyline
 66
     1
 10
0.0
 20
0.0
 30
0.0
  0
VERTEX
  5
54
330
53
100
AcDbEntity
  8
Livello 3
 62
   178
420
        1
370
    70
100
AcDbVertex
100
AcDb2dVertex
 10
18.67433352357806
 20
-9.233517358802737
 30
0.0
  0
VERTEX
  5
55
330
53
100
AcDbEntity
  8
Livello 3
 62
   178
420
        1
370
    70
100
AcDbVertex
100
AcDb2dVertex
 10
19.50942905782855
 20
-9.233517358802737
 30
0.0
  0
VERTEX
  5
56
330
53
100
AcDbEntity
  8
Livello 3
 62
   178
420
        1
370
    70
100
AcDbVertex
100
AcDb2dVertex
 10
19.50942905782855
 20
-17.53151038450603
 30
0.0
  0
VERTEX
  5
57
330
53
100
AcDbEntity
  8
Livello 3
 62
   178
420
        1
370
    70
100
AcDbVertex
100
AcDb2dVertex
 10
18.67433352357806
 20
-17.53151038450603
 30
0.0
  0
VERTEX
  5
58
330
53
100
AcDbEntity
  8
Livello 3
 62
   178
420
        1
370
    70
100
AcDbVertex
100
AcDb2dVertex
 10
18.67433352357806
 20
-9.233517358802737
 30
0.0
  0
SEQEND
  5
59
330
53
100
AcDbEntity
  8
Livello 3
 62
   178
420
        1
370
    70
  0
POLYLINE
  5
5A
330
41
100
AcDbEntity
  8
Livello 3
 62
   178
420
        1
370
    70
100
AcDb2dPolyline
 66
     1
 10
0.0
 20
0.0
 30
0.0
  0
VERTEX
  5
5B
330
5A
100
AcDbEntity
  8
Livello 3
 62
   178
420
        1
370
    70
100
AcDbVertex
100
AcDb2dVertex
 10
18.67434410691112
 20
-7.265123192628152
 30
0.0
  0
VERTEX
  5
5C
330
5A
100
AcDbEntity
  8
Livello 3
 62
   178
420
        1
370
    70
100
AcDbVertex
100
AcDb2dVertex
 10
19.50941847449549
 20
-7.265123192628152
 30
0.0
  0
VERTEX
  5
5D
330
5A
100
AcDbEntity
  8
Livello 3
 62
   178
420
        1
370
    70
100
AcDbVertex
100
AcDb2dVertex
 10
19.50941847449549
 20
-9.233517358802737
 30
0.0
  0
VERTEX
  5
5E
330
5A
100
AcDbEntity
  8
Livello 3
 62
   178
420
        1
370
    70
100
AcDbVertex
100
AcDb2dVertex
 10
18.67434410691112
 20
-9.233517358802737
 30
0.0
  0
VERTEX
  5
5F
330
5A
100
AcDbEntity
  8
Livello 3
 62
   178
420
        1
370
    70
100
AcDbVertex
100
AcDb2dVertex
 10
18.67434410691112
 20
-7.265123192628152
 30
0.0
  0
SEQEND
  5
60
330
5A
100
AcDbEntity
  8
Livello 3
 62
   178
420
        1
370
    70
  0
SPLINE
  5
61
330
41
100
AcDbEntity
  8
Livello 3
 62
   178
420
        1
370
    70
100
AcDbSpline
210
0.0
220
0.0
230
1.0
 70
     9
 71
     3
 72
    29
 73
    25
 74
     0
 42
0.000000001
 43
0.0000000001
 40
0.0
 40
0.0
 40
0.0
 40
0.0
 40
1.0
 40
1.0
 40
1.0
 40
2.0
 40
2.0
 40
2.0
 40
3.0
 40
3.0
 40
3.0
 40
4.0
 40
4.0
 40
4.0
 40
5.0
 40
5.0
 40
5.0
 40
6.0
 40
6.0
 40
6.0
 40
7.0
 40
7.0
 40
7.0
 40
8.0
 40
8.0
 40
8.0
 40
8.0
 10
19.25446999518639
 20
-9.068547886621754
 30
0.0
 10
19.25446999518639
 20
-9.068547886621754
 30
0.0
 10
18.90254193442264
 20
-9.068547886621754
 30
0.0
 10
18.90254193442264
 20
-9.068547886621754
 30
0.0
 10
18.8473145747205
 20
-9.068547886621754
 30
0.0
 10
18.80254354808493
 20
-9.023776858855153
 30
0.0
 10
18.80254354808493
 20
-8.968549497757861
 30
0.0
 10
18.80254354808493
 20
-8.968549497757861
 30
0.0
 10
18.80254354808493
 20
-7.584224803659486
 30
0.0
 10
18.80254354808493
 20
-7.584224803659486
 30
0.0
 10
18.80254354808493
 20
-7.528993914784409
 30
0.0
 10
18.8473145747205
 20
-7.484222887017841
 30
0.0
 10
18.90254193442264
 20
-7.484222887017841
 30
0.0
 10
18.90254193442264
 20
-7.484222887017841
 30
0.0
 10
19.25446999518639
 20
-7.484222887017841
 30
0.0
 10
19.25446999518639
 20
-7.484222887017841
 30
0.0
 10
19.3096968684797
 20
-7.484222887017841
 30
0.0
 10
19.35446789511527
 20
-7.528993914784409
 30
0.0
 10
19.35446789511527
 20
-7.584224803659486
 30
0.0
 10
19.35446789511527
 20
-7.584224803659486
 30
0.0
 10
19.35446789511527
 20
-8.968549497757861
 30
0.0
 10
19.35446789511527
 20
-8.968549497757861
 30
0.0
 10
19.35446789511527
 20
-9.023776858855153
 30
0.0
 10
19.3096968684797
 20
-9.068547886621754
 30
0.0
 10
19.25446999518639
 20
-9.068547886621754
 30
0.0
  0
ENDBLK
  5
44
330
41
100
AcDbEntity
  8
0
100
AcDbBlockEnd
  0
BLOCK
  5
6B
330
69
100
AcDbEntity
  8
0
100
AcDbBlockBegin
  2
block 3
 70
     0
 10
0.0
 20
0.0
 30
0.0
  3
block 3
  1

  0
SPLINE
  5
6D
330
69
100
AcDbEntity
  8
Livello 3
 62
   178
420
        1
370
    70
100
AcDbSpline
210
0.0
220
0.0
230
1.0
 70
     8
 71
     3
 72
    14
 73
    10
 74
     0
 42
0.000000001
 43
0.0000000001
 40
0.0
 40
0.0
 40
0.0
 40
0.0
 40
1.0
 40
1.0
 40
1.0
 40
2.0
 40
2.0
 40
2.0
 40
3.0
 40
3.0
 40
3.0
 40
3.0
 10
23.42948504115293
 20
-7.284843470401008
 30
0.0
 10
23.42948504115293
 20
-7.284843470401008
 30
0.0
 10
20.93532504922869
 20
-8.95213474776197
 30
0.0
 10
20.93532504922869
 20
-8.95213474776197
 30
0.0
 10
20.93532504922869
 20
-8.95213474776197
 30
0.0
 10
20.71194263826099
 20
-9.107328747723165
 30
0.0
 10
20.72075555037539
 20
-9.302224358785544
 30
0.0
 10
20.72075555037539
 20
-9.324809192113256
 30
0.0
 10
20.72075555037539
 20
-18.2758256343199
 30
0.0
 10
20.72075555037539
 20
-18.2758256343199
 30
0.0
  0
SPLINE
  5
6E
330
69
100
AcDbEntity
  8
Livello 3
 62
   178
420
        1
370
    70
100
AcDbSpline
210
0.0
220
0.0
230
1.0
 70
    11
 71
     3
 72
    29
 73
    25
 74
     0
 42
0.000000001
 43
0.0000000001
 40
0.0
 40
0.0
 40
0.0
 40
0.0
 40
1.0
 40
1.0
 40
1.0
 40
2.0
 40
2.0
 40
2.0
 40
3.0
 40
3.0
 40
3.0
 40
4.0
 40
4.0
 40
4.0
 40
5.0
 40
5.0
 40
5.0
 40
6.0
 40
6.0
 40
6.0
 40
7.0
 40
7.0
 40
7.0
 40
8.0
 40
8.0
 40
8.0
 40
8.0
 10
20.7429341652481
 20
-18.2758185787644
 30
0.0
 10
20.7429341652481
 20
-18.2758185787644
 30
0.0
 10
20.69858294415738
 20
-18.2758185787644
 30
0.0
 10
20.69858294415738
 20
-18.2758185787644
 30
0.0
 10
20.69858294415738
 20
-18.2758185787644
 30
0.0
 10
20.69858294415738
 20
-9.302220831007788
 30
0.0
 10
20.69858294415738
 20
-9.302220831007788
 30
0.0
 10
20.68934722217078
 20
-9.098459914392046
 30
0.0
 10
20.91313885535027
 20
-8.94054599776485
 30
0.0
 10
20.92267796621801
 20
-8.93392083109985
 30
0.0
 10
20.92267796621801
 20
-8.93392083109985
 30
0.0
 10
23.41716604146721
 20
-7.266403775961188
 30
0.0
 10
23.41716604146721
 20
-7.266403775961188
 30
0.0
 10
23.41716604146721
 20
-7.266403775961188
 30
0.0
 10
23.44181109639402
 20
-7.303286692618611
 30
0.0
 10
23.44181109639402
 20
-7.303286692618611
 30
0.0
 10
23.44181109639402
 20
-7.303286692618611
 30
0.0
 10
20.94764757669209
 20
-8.970570914424037
 30
0.0
 10
20.94764757669209
 20
-8.970570914424037
 30
0.0
 10
20.94585899340439
 20
-8.971816219979263
 30
0.0
 10
20.73476082814963
 20
-9.121027108830872
 30
0.0
 10
20.74291299858198
 20
-9.301215414341362
 30
0.0
 10
20.74291299858198
 20
-9.301215414341362
 30
0.0
 10
20.7429341652481
 20
-18.2758185787644
 30
0.0
 10
20.7429341652481
 20
-18.2758185787644
 30
0.0
  0
ENDBLK
  5
6C
330
69
100
AcDbEntity
  8
0
100
AcDbBlockEnd
  0
BLOCK
  5
B0
330
AE
100
AcDbEntity
  8
0
100
AcDbBlockBegin
  2
block 4
 70
     0
 10
0.0
 20
0.0
 30
0.0
  3
block 4
  1

  0
SPLINE
  5
B2
330
AE
100
AcDbEntity
  8
Livello 3
370
     0
100
AcDbSpline
210
0.0
220
0.0
230
1.0
 70
     9
 71
     3
 72
    41
 73
    37
 74
     0
 42
0.000000001
 43
0.0000000001
 40
0.0
 40
0.0
 40
0.0
 40
0.0
 40
1.0
 40
1.0
 40
1.0
 40
2.0
 40
2.0
 40
2.0
 40
3.0
 40
3.0
 40
3.0
 40
4.0
 40
4.0
 40
4.0
 40
5.0
 40
5.0
 40
5.0
 40
6.0
 40
6.0
 40
6.0
 40
7.0
 40
7.0
 40
7.0
 40
8.0
 40
8.0
 40
8.0
 40
9.0
 40
9.0
 40
9.0
 40
10.0
 40
10.0
 40
10.0
 40
11.0
 40
11.0
 40
11.0
 40
12.0
 40
12.0
 40
12.0
 40
12.0
 10
7.691589082278491
 20
-19.57778862357777
 30
0.0
 10
7.707677678194607
 20
-19.57947672036554
 30
0.0
 10
7.726298419292382
 20
-19.57778862357777
 30
0.0
 10
7.751705998496099
 20
-19.57523925291869
 30
0.0
 10
7.794890270403707
 20
-19.56931368868406
 30
0.0
 10
7.835542397129656
 20
-19.55153699598017
 30
0.0
 10
7.866858315090576
 20
-19.52190917480702
 30
0.0
 10
7.903272974369667
 20
-19.48887070910348
 30
0.0
 10
7.929524601967271
 20
-19.44063937230998
 30
0.0
 10
7.939687633648759
 20
-19.3754237147742
 30
0.0
 10
7.939687633648759
 20
-19.3754237147742
 30
0.0
 10
7.937138262989673
 20
-19.3754237147742
 30
0.0
 10
7.937138262989673
 20
-19.3754237147742
 30
0.0
 10
7.906666393422637
 20
-19.41266519696975
 30
0.0
 10
7.862638073121145
 20
-19.43467935712049
 30
0.0
 10
7.807585447266852
 20
-19.43467935712049
 30
0.0
 10
7.708521726588493
 20
-19.43467935712049
 30
0.0
 10
7.645011391317912
 20
-19.36019639272939
 30
0.0
 10
7.645011391317912
 20
-19.26617973693693
 30
0.0
 10
7.645011391317912
 20
-19.16203450041782
 30
0.0
 10
7.720372855057753
 20
-19.07060166623929
 30
0.0
 10
7.832993026470571
 20
-19.07060166623929
 30
0.0
 10
7.945613197883387
 20
-19.07060166623929
 30
0.0
 10
8.015049097388597
 20
-19.16203450041782
 30
0.0
 10
8.015049097388597
 20
-19.30259439621602
 30
0.0
 10
8.015049097388597
 20
-19.42368950252255
 30
0.0
 10
7.97439697066265
 20
-19.50836994954999
 30
0.0
 10
7.92020561867967
 20
-19.5608732047452
 30
0.0
 10
7.877865395165949
 20
-19.60235215438761
 30
0.0
 10
7.819453801213537
 20
-19.6277425081139
 30
0.0
 10
7.760180933389815
 20
-19.63452934621984
 30
0.0
 10
7.733085257398326
 20
-19.6387668136667
 30
0.0
 10
7.70936577498238
 20
-19.63959363658316
 30
0.0
 10
7.691589082278491
 20
-19.6387668136667
 30
0.0
 10
7.691589082278491
 20
-19.6387668136667
 30
0.0
 10
7.691589082278491
 20
-19.57778862357777
 30
0.0
 10
7.691589082278491
 20
-19.57778862357777
 30
0.0
  0
SPLINE
  5
B3
330
AE
100
AcDbEntity
  8
Livello 3
370
     0
100
AcDbSpline
210
0.0
220
0.0
230
1.0
 70
     9
 71
     3
 72
    20
 73
    16
 74
     0
 42
0.000000001
 43
0.0000000001
 40
0.0
 40
0.0
 40
0.0
 40
0.0
 40
1.0
 40
1.0
 40
1.0
 40
2.0
 40
2.0
 40
2.0
 40
3.0
 40
3.0
 40
3.0
 40
4.0
 40
4.0
 40
4.0
 40
5.0
 40
5.0
 40
5.0
 40
5.0
 10
7.718684758269981
 20
-19.26111544657361
 30
0.0
 10
7.718684758269981
 20
-19.32970729768493
 30
0.0
 10
7.760180933389815
 20
-19.37797308543328
 30
0.0
 10
7.824535317054282
 20
-19.37797308543328
 30
0.0
 10
7.874489201590405
 20
-19.37797308543328
 30
0.0
 10
7.913436006051153
 20
-19.35340955462345
 30
0.0
 10
7.932918021020242
 20
-19.32037108891991
 30
0.0
 10
7.937138262989673
 20
-19.31361870176882
 30
0.0
 10
7.939687633648759
 20
-19.3051437668751
 30
0.0
 10
7.939687633648759
 20
-19.29329263840584
 30
0.0
 10
7.939687633648759
 20
-19.19931043356823
 30
0.0
 10
7.90496107115744
 20
-19.12734238888136
 30
0.0
 10
7.827067462235941
 20
-19.12734238888136
 30
0.0
 10
7.76355712696536
 20
-19.12734238888136
 30
0.0
 10
7.718684758269981
 20
-19.18322183765211
 30
0.0
 10
7.718684758269981
 20
-19.26111544657361
 30
0.0
  0
HATCH
  5
B4
330
AE
100
AcDbEntity
  8
Livello 3
 62
   250
420
  1842203
100
AcDbHatch
 10
0.0
 20
0.0
 30
0.0
210
0.0
220
0.0
230
1.0
  2
SOLID
 70
     1
 71
     0
 91
        2
 92
        1
 93
        1
 72
     4
 94
        3
 73
     0
 74
     0
 95
       41
 96
       37
 40
0.0
 40
0.0
 40
0.0
 40
0.0
 40
1.0
 40
1.0
 40
1.0
 40
2.0
 40
2.0
 40
2.0
 40
3.0
 40
3.0
 40
3.0
 40
4.0
 40
4.0
 40
4.0
 40
5.0
 40
5.0
 40
5.0
 40
6.0
 40
6.0
 40
6.0
 40
7.0
 40
7.0
 40
7.0
 40
8.0
 40
8.0
 40
8.0
 40
9.0
 40
9.0
 40
9.0
 40
10.0
 40
10.0
 40
10.0
 40
11.0
 40
11.0
 40
11.0
 40
12.0
 40
12.0
 40
12.0
 40
12.0
 10
7.691589082278491
 20
-19.57778862357777
 10
7.707677678194607
 20
-19.57947672036554
 10
7.726298419292382
 20
-19.57778862357777
 10
7.751705998496099
 20
-19.57523925291869
 10
7.794890270403707
 20
-19.56931368868406
 10
7.835542397129656
 20
-19.55153699598017
 10
7.866858315090576
 20
-19.52190917480702
 10
7.903272974369667
 20
-19.48887070910348
 10
7.929524601967271
 20
-19.44063937230998
 10
7.939687633648759
 20
-19.3754237147742
 10
7.939687633648759
 20
-19.3754237147742
 10
7.937138262989673
 20
-19.3754237147742
 10
7.937138262989673
 20
-19.3754237147742
 10
7.906666393422637
 20
-19.41266519696975
 10
7.862638073121145
 20
-19.43467935712049
 10
7.807585447266852
 20
-19.43467935712049
 10
7.708521726588493
 20
-19.43467935712049
 10
7.645011391317912
 20
-19.36019639272939
 10
7.645011391317912
 20
-19.26617973693693
 10
7.645011391317912
 20
-19.16203450041782
 10
7.720372855057753
 20
-19.07060166623929
 10
7.832993026470571
 20
-19.07060166623929
 10
7.945613197883387
 20
-19.07060166623929
 10
8.015049097388597
 20
-19.16203450041782
 10
8.015049097388597
 20
-19.30259439621602
 10
8.015049097388597
 20
-19.42368950252255
 10
7.97439697066265
 20
-19.50836994954999
 10
7.92020561867967
 20
-19.5608732047452
 10
7.877865395165949
 20
-19.60235215438761
 10
7.819453801213537
 20
-19.6277425081139
 10
7.760180933389815
 20
-19.63452934621984
 10
7.733085257398326
 20
-19.6387668136667
 10
7.70936577498238
 20
-19.63959363658316
 10
7.691589082278491
 20
-19.6387668136667
 10
7.691589082278491
 20
-19.6387668136667
 10
7.691589082278491
 20
-19.57778862357777
 10
7.691589082278491
 20
-19.57778862357777
 97
        0
 97
        0
 92
        1
 93
        1
 72
     4
 94
        3
 73
     0
 74
     0
 95
       20
 96
       16
 40
0.0
 40
0.0
 40
0.0
 40
0.0
 40
1.0
 40
1.0
 40
1.0
 40
2.0
 40
2.0
 40
2.0
 40
3.0
 40
3.0
 40
3.0
 40
4.0
 40
4.0
 40
4.0
 40
5.0
 40
5.0
 40
5.0
 40
5.0
 10
7.718684758269981
 20
-19.26111544657361
 10
7.718684758269981
 20
-19.32970729768493
 10
7.760180933389815
 20
-19.37797308543328
 10
7.824535317054282
 20
-19.37797308543328
 10
7.874489201590405
 20
-19.37797308543328
 10
7.913436006051153
 20
-19.35340955462345
 10
7.932918021020242
 20
-19.32037108891991
 10
7.937138262989673
 20
-19.31361870176882
 10
7.939687633648759
 20
-19.3051437668751
 10
7.939687633648759
 20
-19.29329263840584
 10
7.939687633648759
 20
-19.19931043356823
 10
7.90496107115744
 20
-19.12734238888136
 10
7.827067462235941
 20
-19.12734238888136
 10
7.76355712696536
 20
-19.12734238888136
 10
7.718684758269981
 20
-19.18322183765211
 10
7.718684758269981
 20
-19.26111544657361
 97
        0
 97
        0
 75
     2
 76
     1
 98
        0
450
        0
451
        0
460
0.0
461
0.0
452
        0
462
0.0
453
        0
470

  0
SPLINE
  5
B5
330
AE
100
AcDbEntity
  8
Livello 3
370
     0
100
AcDbSpline
210
0.0
220
0.0
230
1.0
 70
     9
 71
     3
 72
    17
 73
    13
 74
     0
 42
0.000000001
 43
0.0000000001
 40
0.0
 40
0.0
 40
0.0
 40
0.0
 40
1.0
 40
1.0
 40
1.0
 40
2.0
 40
2.0
 40
2.0
 40
3.0
 40
3.0
 40
3.0
 40
4.0
 40
4.0
 40
4.0
 40
4.0
 10
8.058164467386498
 20
-19.73443711529208
 30
0.0
 10
8.076802433961701
 20
-19.68448323075596
 30
0.0
 10
8.099660642506334
 20
-19.59387721949389
 30
0.0
 10
8.108979625793935
 20
-19.53207220648851
 30
0.0
 10
8.108979625793935
 20
-19.53207220648851
 30
0.0
 10
8.191954750556178
 20
-19.5235972715948
 30
0.0
 10
8.191954750556178
 20
-19.5235972715948
 30
0.0
 10
8.172489961064515
 20
-19.59556531628166
 30
0.0
 10
8.135231253391538
 20
-19.68954752111928
 30
0.0
 10
8.111511770975592
 20
-19.72937282492877
 30
0.0
 10
8.111511770975592
 20
-19.72937282492877
 30
0.0
 10
8.058164467386498
 20
-19.73443711529208
 30
0.0
 10
8.058164467386498
 20
-19.73443711529208
 30
0.0
  0
HATCH
  5
B6
330
AE
100
AcDbEntity
  8
Livello 3
 62
   250
420
  1842203
100
AcDbHatch
 10
0.0
 20
0.0
 30
0.0
210
0.0
220
0.0
230
1.0
  2
SOLID
 70
     1
 71
     0
 91
        1
 92
        1
 93
        1
 72
     4
 94
        3
 73
     0
 74
     0
 95
       17
 96
       13
 40
0.0
 40
0.0
 40
0.0
 40
0.0
 40
1.0
 40
1.0
 40
1.0
 40
2.0
 40
2.0
 40
2.0
 40
3.0
 40
3.0
 40
3.0
 40
4.0
 40
4.0
 40
4.0
 40
4.0
 10
8.058164467386498
 20
-19.73443711529208
 10
8.076802433961701
 20
-19.68448323075596
 10
8.099660642506334
 20
-19.59387721949389
 10
8.108979625793935
 20
-19.53207220648851
 10
8.108979625793935
 20
-19.53207220648851
 10
8.191954750556178
 20
-19.5235972715948
 10
8.191954750556178
 20
-19.5235972715948
 10
8.172489961064515
 20
-19.59556531628166
 10
8.135231253391538
 20
-19.68954752111928
 10
8.111511770975592
 20
-19.72937282492877
 10
8.111511770975592
 20
-19.72937282492877
 10
8.058164467386498
 20
-19.73443711529208
 10
8.058164467386498
 20
-19.73443711529208
 97
        0
 97
        0
 75
     2
 76
     1
 98
        0
450
        0
451
        0
460
0.0
461
0.0
452
        0
462
0.0
453
        0
470

  0
SPLINE
  5
B7
330
AE
100
AcDbEntity
  8
Livello 3
370
     0
100
AcDbSpline
210
0.0
220
0.0
230
1.0
 70
    11
 71
     3
 72
    50
 73
    46
 74
     0
 42
0.000000001
 43
0.0000000001
 40
0.0
 40
0.0
 40
0.0
 40
0.0
 40
1.0
 40
1.0
 40
1.0
 40
2.0
 40
2.0
 40
2.0
 40
3.0
 40
3.0
 40
3.0
 40
4.0
 40
4.0
 40
4.0
 40
5.0
 40
5.0
 40
5.0
 40
6.0
 40
6.0
 40
6.0
 40
7.0
 40
7.0
 40
7.0
 40
8.0
 40
8.0
 40
8.0
 40
9.0
 40
9.0
 40
9.0
 40
10.0
 40
10.0
 40
10.0
 40
11.0
 40
11.0
 40
11.0
 40
12.0
 40
12.0
 40
12.0
 40
13.0
 40
13.0
 40
13.0
 40
14.0
 40
14.0
 40
14.0
 40
15.0
 40
15.0
 40
15.0
 40
15.0
 10
8.586521536481841
 20
-19.14256971092616
 30
0.0
 10
8.586521536481841
 20
-19.14256971092616
 30
0.0
 10
8.376525741178436
 20
-19.14256971092616
 30
0.0
 10
8.376525741178436
 20
-19.14256971092616
 30
0.0
 10
8.376525741178436
 20
-19.14256971092616
 30
0.0
 10
8.355355629421577
 20
-19.28399088059567
 30
0.0
 10
8.355355629421577
 20
-19.28399088059567
 30
0.0
 10
8.368050806284722
 20
-19.28226833285304
 30
0.0
 10
8.379919160231406
 20
-19.28058023606527
 30
0.0
 10
8.400227998116955
 20
-19.28058023606527
 30
0.0
 10
8.442568221630676
 20
-19.28058023606527
 30
0.0
 10
8.484908445144396
 20
-19.2899164448303
 30
0.0
 10
8.518773733764403
 20
-19.31020805723842
 30
0.0
 10
8.561958005672011
 20
-19.33477158804825
 30
0.0
 10
8.597528616557214
 20
-19.38221055288014
 30
0.0
 10
8.597528616557214
 20
-19.45162922690793
 30
0.0
 10
8.597528616557214
 20
-19.55915065700257
 30
0.0
 10
8.512004121135888
 20
-19.63959363658316
 30
0.0
 10
8.392614337094554
 20
-19.63959363658316
 30
0.0
 10
8.332497420876942
 20
-19.63959363658316
 30
0.0
 10
8.281682262469509
 20
-19.62267821775058
 30
0.0
 10
8.255447860349331
 20
-19.60572834796315
 30
0.0
 10
8.255447860349331
 20
-19.60572834796315
 30
0.0
 10
8.274068601447106
 20
-19.54902207627594
 30
0.0
 10
8.274068601447106
 20
-19.54902207627594
 30
0.0
 10
8.29692680999174
 20
-19.56256130153297
 30
0.0
 10
8.341799178687116
 20
-19.57947672036554
 30
0.0
 10
8.391770288700667
 20
-19.57947672036554
 30
0.0
 10
8.462050236599765
 20
-19.57947672036554
 30
0.0
 10
8.522167152817374
 20
-19.53376030327628
 30
0.0
 10
8.522167152817374
 20
-19.46010416180164
 30
0.0
 10
8.521323104423487
 20
-19.38896294003123
 30
0.0
 10
8.473901365069023
 20
-19.33818223257865
 30
0.0
 10
8.363830564315289
 20
-19.33818223257865
 30
0.0
 10
8.332497420876942
 20
-19.33818223257865
 30
0.0
 10
8.307933890067113
 20
-19.34155842615419
 30
0.0
 10
8.287607826704139
 20
-19.34410779681328
 30
0.0
 10
8.287607826704139
 20
-19.34410779681328
 30
0.0
 10
8.323178437589342
 20
-19.07990342404947
 30
0.0
 10
8.323178437589342
 20
-19.07990342404947
 30
0.0
 10
8.323178437589342
 20
-19.07990342404947
 30
0.0
 10
8.586521536481841
 20
-19.07990342404947
 30
0.0
 10
8.586521536481841
 20
-19.07990342404947
 30
0.0
 10
8.586521536481841
 20
-19.07990342404947
 30
0.0
 10
8.586521536481841
 20
-19.14256971092616
 30
0.0
 10
8.586521536481841
 20
-19.14256971092616
 30
0.0
  0
HATCH
  5
B8
330
AE
100
AcDbEntity
  8
Livello 3
 62
   250
420
  1842203
100
AcDbHatch
 10
0.0
 20
0.0
 30
0.0
210
0.0
220
0.0
230
1.0
  2
SOLID
 70
     1
 71
     0
 91
        1
 92
        1
 93
        1
 72
     4
 94
        3
 73
     0
 74
     0
 95
       50
 96
       46
 40
0.0
 40
0.0
 40
0.0
 40
0.0
 40
1.0
 40
1.0
 40
1.0
 40
2.0
 40
2.0
 40
2.0
 40
3.0
 40
3.0
 40
3.0
 40
4.0
 40
4.0
 40
4.0
 40
5.0
 40
5.0
 40
5.0
 40
6.0
 40
6.0
 40
6.0
 40
7.0
 40
7.0
 40
7.0
 40
8.0
 40
8.0
 40
8.0
 40
9.0
 40
9.0
 40
9.0
 40
10.0
 40
10.0
 40
10.0
 40
11.0
 40
11.0
 40
11.0
 40
12.0
 40
12.0
 40
12.0
 40
13.0
 40
13.0
 40
13.0
 40
14.0
 40
14.0
 40
14.0
 40
15.0
 40
15.0
 40
15.0
 40
15.0
 10
8.586521536481841
 20
-19.14256971092616
 10
8.586521536481841
 20
-19.14256971092616
 10
8.376525741178436
 20
-19.14256971092616
 10
8.376525741178436
 20
-19.14256971092616
 10
8.376525741178436
 20
-19.14256971092616
 10
8.355355629421577
 20
-19.28399088059567
 10
8.355355629421577
 20
-19.28399088059567
 10
8.368050806284722
 20
-19.28226833285304
 10
8.379919160231406
 20
-19.28058023606527
 10
8.400227998116955
 20
-19.28058023606527
 10
8.442568221630676
 20
-19.28058023606527
 10
8.484908445144396
 20
-19.2899164448303
 10
8.518773733764403
 20
-19.31020805723842
 10
8.561958005672011
 20
-19.33477158804825
 10
8.597528616557214
 20
-19.38221055288014
 10
8.597528616557214
 20
-19.45162922690793
 10
8.597528616557214
 20
-19.55915065700257
 10
8.512004121135888
 20
-19.63959363658316
 10
8.392614337094554
 20
-19.63959363658316
 10
8.332497420876942
 20
-19.63959363658316
 10
8.281682262469509
 20
-19.62267821775058
 10
8.255447860349331
 20
-19.60572834796315
 10
8.255447860349331
 20
-19.60572834796315
 10
8.274068601447106
 20
-19.54902207627594
 10
8.274068601447106
 20
-19.54902207627594
 10
8.29692680999174
 20
-19.56256130153297
 10
8.341799178687116
 20
-19.57947672036554
 10
8.391770288700667
 20
-19.57947672036554
 10
8.462050236599765
 20
-19.57947672036554
 10
8.522167152817374
 20
-19.53376030327628
 10
8.522167152817374
 20
-19.46010416180164
 10
8.521323104423487
 20
-19.38896294003123
 10
8.473901365069023
 20
-19.33818223257865
 10
8.363830564315289
 20
-19.33818223257865
 10
8.332497420876942
 20
-19.33818223257865
 10
8.307933890067113
 20
-19.34155842615419
 10
8.287607826704139
 20
-19.34410779681328
 10
8.287607826704139
 20
-19.34410779681328
 10
8.323178437589342
 20
-19.07990342404947
 10
8.323178437589342
 20
-19.07990342404947
 10
8.323178437589342
 20
-19.07990342404947
 10
8.586521536481841
 20
-19.07990342404947
 10
8.586521536481841
 20
-19.07990342404947
 10
8.586521536481841
 20
-19.07990342404947
 10
8.586521536481841
 20
-19.14256971092616
 10
8.586521536481841
 20
-19.14256971092616
 97
        0
 97
        0
 75
     2
 76
     1
 98
        0
450
        0
451
        0
460
0.0
461
0.0
452
        0
462
0.0
453
        0
470

  0
ENDBLK
  5
B1
330
AE
100
AcDbEntity
  8
0
100
AcDbBlockEnd
  0
BLOCK
  5
BB
330
B9
100
AcDbEntity
  8
0
100
AcDbBlockBegin
  2
block 5
 70
     0
 10
0.0
 20
0.0
 30
0.0
  3
block 5
  1

  0
POLYLINE
  5
BD
330
B9
100
AcDbEntity
  8
Livello 3
370
     0
100
AcDb2dPolyline
 66
     1
 10
0.0
 20
0.0
 30
0.0
  0
VERTEX
  5
BE
330
BD
100
AcDbEntity
  8
Livello 3
370
     0
100
AcDbVertex
100
AcDb2dVertex
 10
10.10184678566898
 20
-19.1493565490321
 30
0.0
  0
VERTEX
  5
BF
330
BD
100
AcDbEntity
  8
Livello 3
370
     0
100
AcDbVertex
100
AcDb2dVertex
 10
10.10015868888121
 20
-19.1493565490321
 30
0.0
  0
VERTEX
  5
C0
330
BD
100
AcDbEntity
  8
Livello 3
370
     0
100
AcDbVertex
100
AcDb2dVertex
 10
10.0044711617784
 20
-19.200998530356
 30
0.0
  0
VERTEX
  5
C1
330
BD
100
AcDbEntity
  8
Livello 3
370
     0
100
AcDbVertex
100
AcDb2dVertex
 10
9.990070662650051
 20
-19.14425780771393
 30
0.0
  0
VERTEX
  5
C2
330
BD
100
AcDbEntity
  8
Livello 3
370
     0
100
AcDbVertex
100
AcDb2dVertex
 10
10.11030449508527
 20
-19.07990342404947
 30
0.0
  0
VERTEX
  5
C3
330
BD
100
AcDbEntity
  8
Livello 3
370
     0
100
AcDbVertex
100
AcDb2dVertex
 10
10.17381483035585
 20
-19.07990342404947
 30
0.0
  0
VERTEX
  5
C4
330
BD
100
AcDbEntity
  8
Livello 3
370
     0
100
AcDbVertex
100
AcDb2dVertex
 10
10.17381483035585
 20
-19.63029187877298
 30
0.0
  0
VERTEX
  5
C5
330
BD
100
AcDbEntity
  8
Livello 3
370
     0
100
AcDbVertex
100
AcDb2dVertex
 10
10.10184678566898
 20
-19.63029187877298
 30
0.0
  0
VERTEX
  5
C6
330
BD
100
AcDbEntity
  8
Livello 3
370
     0
100
AcDbVertex
100
AcDb2dVertex
 10
10.10184678566898
 20
-19.1493565490321
 30
0.0
  0
SEQEND
  5
C7
330
BD
100
AcDbEntity
  8
Livello 3
370
     0
  0
HATCH
  5
C8
330
B9
100
AcDbEntity
  8
Livello 3
 62
   250
420
  1842203
100
AcDbHatch
 10
0.0
 20
0.0
 30
0.0
210
0.0
220
0.0
230
1.0
  2
SOLID
 70
     1
 71
     0
 91
        1
 92
        1
 93
        8
 72
     1
 10
10.10184678566898
 20
-19.1493565490321
 11
10.10015868888121
 21
-19.1493565490321
 72
     1
 10
10.10015868888121
 20
-19.1493565490321
 11
10.0044711617784
 21
-19.200998530356
 72
     1
 10
10.0044711617784
 20
-19.200998530356
 11
9.990070662650051
 21
-19.14425780771393
 72
     1
 10
9.990070662650051
 20
-19.14425780771393
 11
10.11030449508527
 21
-19.07990342404947
 72
     1
 10
10.11030449508527
 20
-19.07990342404947
 11
10.17381483035585
 21
-19.07990342404947
 72
     1
 10
10.17381483035585
 20
-19.07990342404947
 11
10.17381483035585
 21
-19.63029187877298
 72
     1
 10
10.17381483035585
 20
-19.63029187877298
 11
10.10184678566898
 21
-19.63029187877298
 72
     1
 10
10.10184678566898
 20
-19.63029187877298
 11
10.10184678566898
 21
-19.1493565490321
 97
        0
 75
     2
 76
     1
 98
        0
450
        0
451
        0
460
0.0
461
0.0
452
        0
462
0.0
453
        0
470

  0
SPLINE
  5
C9
330
B9
100
AcDbEntity
  8
Livello 3
370
     0
100
AcDbSpline
210
0.0
220
0.0
230
1.0
 70
    11
 71
     3
 72
    50
 73
    46
 74
     0
 42
0.000000001
 43
0.0000000001
 40
0.0
 40
0.0
 40
0.0
 40
0.0
 40
1.0
 40
1.0
 40
1.0
 40
2.0
 40
2.0
 40
2.0
 40
3.0
 40
3.0
 40
3.0
 40
4.0
 40
4.0
 40
4.0
 40
5.0
 40
5.0
 40
5.0
 40
6.0
 40
6.0
 40
6.0
 40
7.0
 40
7.0
 40
7.0
 40
8.0
 40
8.0
 40
8.0
 40
9.0
 40
9.0
 40
9.0
 40
10.0
 40
10.0
 40
10.0
 40
11.0
 40
11.0
 40
11.0
 40
12.0
 40
12.0
 40
12.0
 40
13.0
 40
13.0
 40
13.0
 40
14.0
 40
14.0
 40
14.0
 40
15.0
 40
15.0
 40
15.0
 40
15.0
 10
10.70298149689023
 20
-19.14256971092616
 30
0.0
 10
10.70298149689023
 20
-19.14256971092616
 30
0.0
 10
10.49298570158682
 20
-19.14256971092616
 30
0.0
 10
10.49298570158682
 20
-19.14256971092616
 30
0.0
 10
10.49298570158682
 20
-19.14256971092616
 30
0.0
 10
10.47181558982996
 20
-19.28399088059567
 30
0.0
 10
10.47181558982996
 20
-19.28399088059567
 30
0.0
 10
10.48451076669311
 20
-19.28226833285304
 30
0.0
 10
10.49637912063979
 20
-19.28058023606527
 30
0.0
 10
10.51668795852534
 20
-19.28058023606527
 30
0.0
 10
10.55902818203906
 20
-19.28058023606527
 30
0.0
 10
10.60136840555278
 20
-19.2899164448303
 30
0.0
 10
10.63523369417278
 20
-19.31020805723842
 30
0.0
 10
10.67841796608039
 20
-19.33477158804825
 30
0.0
 10
10.7139885769656
 20
-19.38221055288014
 30
0.0
 10
10.7139885769656
 20
-19.45162922690793
 30
0.0
 10
10.7139885769656
 20
-19.55915065700257
 30
0.0
 10
10.62846408154427
 20
-19.63959363658316
 30
0.0
 10
10.50907429750294
 20
-19.63959363658316
 30
0.0
 10
10.44895738128533
 20
-19.63959363658316
 30
0.0
 10
10.39814222287789
 20
-19.62267821775058
 30
0.0
 10
10.37190782075772
 20
-19.60572834796315
 30
0.0
 10
10.37190782075772
 20
-19.60572834796315
 30
0.0
 10
10.39052856185549
 20
-19.54902207627594
 30
0.0
 10
10.39052856185549
 20
-19.54902207627594
 30
0.0
 10
10.41338677040013
 20
-19.56256130153297
 30
0.0
 10
10.4582591390955
 20
-19.57947672036554
 30
0.0
 10
10.50823024910905
 20
-19.57947672036554
 30
0.0
 10
10.57851019700815
 20
-19.57947672036554
 30
0.0
 10
10.63862711322576
 20
-19.53376030327628
 30
0.0
 10
10.63862711322576
 20
-19.46010416180164
 30
0.0
 10
10.63778306483187
 20
-19.38896294003123
 30
0.0
 10
10.59036132547741
 20
-19.33818223257865
 30
0.0
 10
10.48029052472368
 20
-19.33818223257865
 30
0.0
 10
10.44895738128533
 20
-19.33818223257865
 30
0.0
 10
10.4243938504755
 20
-19.34155842615419
 30
0.0
 10
10.40406778711252
 20
-19.34410779681328
 30
0.0
 10
10.40406778711252
 20
-19.34410779681328
 30
0.0
 10
10.43963839799773
 20
-19.07990342404947
 30
0.0
 10
10.43963839799773
 20
-19.07990342404947
 30
0.0
 10
10.43963839799773
 20
-19.07990342404947
 30
0.0
 10
10.70298149689023
 20
-19.07990342404947
 30
0.0
 10
10.70298149689023
 20
-19.07990342404947
 30
0.0
 10
10.70298149689023
 20
-19.07990342404947
 30
0.0
 10
10.70298149689023
 20
-19.14256971092616
 30
0.0
 10
10.70298149689023
 20
-19.14256971092616
 30
0.0
  0
HATCH
  5
CA
330
B9
100
AcDbEntity
  8
Livello 3
 62
   250
420
  1842203
100
AcDbHatch
 10
0.0
 20
0.0
 30
0.0
210
0.0
220
0.0
230
1.0
  2
SOLID
 70
     1
 71
     0
 91
        1
 92
        1
 93
        1
 72
     4
 94
        3
 73
     0
 74
     0
 95
       50
 96
       46
 40
0.0
 40
0.0
 40
0.0
 40
0.0
 40
1.0
 40
1.0
 40
1.0
 40
2.0
 40
2.0
 40
2.0
 40
3.0
 40
3.0
 40
3.0
 40
4.0
 40
4.0
 40
4.0
 40
5.0
 40
5.0
 40
5.0
 40
6.0
 40
6.0
 40
6.0
 40
7.0
 40
7.0
 40
7.0
 40
8.0
 40
8.0
 40
8.0
 40
9.0
 40
9.0
 40
9.0
 40
10.0
 40
10.0
 40
10.0
 40
11.0
 40
11.0
 40
11.0
 40
12.0
 40
12.0
 40
12.0
 40
13.0
 40
13.0
 40
13.0
 40
14.0
 40
14.0
 40
14.0
 40
15.0
 40
15.0
 40
15.0
 40
15.0
 10
10.70298149689023
 20
-19.14256971092616
 10
10.70298149689023
 20
-19.14256971092616
 10
10.49298570158682
 20
-19.14256971092616
 10
10.49298570158682
 20
-19.14256971092616
 10
10.49298570158682
 20
-19.14256971092616
 10
10.47181558982996
 20
-19.28399088059567
 10
10.47181558982996
 20
-19.28399088059567
 10
10.48451076669311
 20
-19.28226833285304
 10
10.49637912063979
 20
-19.28058023606527
 10
10.51668795852534
 20
-19.28058023606527
 10
10.55902818203906
 20
-19.28058023606527
 10
10.60136840555278
 20
-19.2899164448303
 10
10.63523369417278
 20
-19.31020805723842
 10
10.67841796608039
 20
-19.33477158804825
 10
10.7139885769656
 20
-19.38221055288014
 10
10.7139885769656
 20
-19.45162922690793
 10
10.7139885769656
 20
-19.55915065700257
 10
10.62846408154427
 20
-19.63959363658316
 10
10.50907429750294
 20
-19.63959363658316
 10
10.44895738128533
 20
-19.63959363658316
 10
10.39814222287789
 20
-19.62267821775058
 10
10.37190782075772
 20
-19.60572834796315
 10
10.37190782075772
 20
-19.60572834796315
 10
10.39052856185549
 20
-19.54902207627594
 10
10.39052856185549
 20
-19.54902207627594
 10
10.41338677040013
 20
-19.56256130153297
 10
10.4582591390955
 20
-19.57947672036554
 10
10.50823024910905
 20
-19.57947672036554
 10
10.57851019700815
 20
-19.57947672036554
 10
10.63862711322576
 20
-19.53376030327628
 10
10.63862711322576
 20
-19.46010416180164
 10
10.63778306483187
 20
-19.38896294003123
 10
10.59036132547741
 20
-19.33818223257865
 10
10.48029052472368
 20
-19.33818223257865
 10
10.44895738128533
 20
-19.33818223257865
 10
10.4243938504755
 20
-19.34155842615419
 10
10.40406778711252
 20
-19.34410779681328
 10
10.40406778711252
 20
-19.34410779681328
 10
10.43963839799773
 20
-19.07990342404947
 10
10.43963839799773
 20
-19.07990342404947
 10
10.43963839799773
 20
-19.07990342404947
 10
10.70298149689023
 20
-19.07990342404947
 10
10.70298149689023
 20
-19.07990342404947
 10
10.70298149689023
 20
-19.07990342404947
 10
10.70298149689023
 20
-19.14256971092616
 10
10.70298149689023
 20
-19.14256971092616
 97
        0
 97
        0
 75
     2
 76
     1
 98
        0
450
        0
451
        0
460
0.0
461
0.0
452
        0
462
0.0
453
        0
470

  0
ENDBLK
  5
BC
330
B9
100
AcDbEntity
  8
0
100
AcDbBlockEnd
  0
BLOCK
  5
CD
330
CB
100
AcDbEntity
  8
0
100
AcDbBlockBegin
  2
block 6
 70
     0
 10
0.0
 20
0.0
 30
0.0
  3
block 6
  1

  0
SPLINE
  5
CF
330
CB
100
AcDbEntity
  8
Livello 3
370
     0
100
AcDbSpline
210
0.0
220
0.0
230
1.0
 70
     9
 71
     3
 72
    35
 73
    31
 74
     0
 42
0.000000001
 43
0.0000000001
 40
0.0
 40
0.0
 40
0.0
 40
0.0
 40
1.0
 40
1.0
 40
1.0
 40
2.0
 40
2.0
 40
2.0
 40
3.0
 40
3.0
 40
3.0
 40
4.0
 40
4.0
 40
4.0
 40
5.0
 40
5.0
 40
5.0
 40
6.0
 40
6.0
 40
6.0
 40
7.0
 40
7.0
 40
7.0
 40
8.0
 40
8.0
 40
8.0
 40
9.0
 40
9.0
 40
9.0
 40
10.0
 40
10.0
 40
10.0
 40
10.0
 10
14.41605373446022
 20
-12.67760687617088
 30
0.0
 10
14.34660060947759
 20
-12.67760687617088
 30
0.0
 10
14.29750799881277
 20
-12.63612792652847
 30
0.0
 10
14.26870700055609
 20
-12.56839734928846
 30
0.0
 10
14.26870700055609
 20
-12.56839734928846
 30
0.0
 10
14.266157629897
 20
-12.56922417220492
 30
0.0
 10
14.266157629897
 20
-12.56922417220492
 30
0.0
 10
14.23739108259517
 20
-12.63020236229384
 30
0.0
 10
14.18995211776327
 20
-12.65645398989144
 30
0.0
 10
14.14254760388624
 20
-12.65645398989144
 30
0.0
 10
14.05531778619971
 20
-12.65645398989144
 30
0.0
 10
13.99606214385341
 20
-12.5827978484168
 30
0.0
 10
13.99606214385341
 20
-12.4862662729201
 30
0.0
 10
13.99606214385341
 20
-12.37957166574191
 30
0.0
 10
14.06296589817697
 20
-12.32620713667539
 30
0.0
 10
14.13152329833344
 20
-12.32620713667539
 30
0.0
 10
14.17810098929401
 20
-12.32620713667539
 30
0.0
 10
14.22805487383014
 20
-12.34908257069745
 30
0.0
 10
14.26023206566237
 20
-12.41681314793746
 30
0.0
 10
14.26023206566237
 20
-12.41681314793746
 30
0.0
 10
14.26278143632146
 20
-12.41681314793746
 30
0.0
 10
14.26278143632146
 20
-12.41681314793746
 30
0.0
 10
14.28985988683552
 20
-12.34825574778099
 30
0.0
 10
14.33812567458387
 20
-12.30591552426727
 30
0.0
 10
14.40502942890742
 20
-12.30591552426727
 30
0.0
 10
14.50069973053281
 20
-12.30591552426727
 30
0.0
 10
14.56505411419728
 20
-12.38804660063563
 30
0.0
 10
14.56505411419728
 20
-12.49301866007119
 30
0.0
 10
14.56505411419728
 20
-12.60818820214309
 30
0.0
 10
14.49649671404081
 20
-12.67760687617088
 30
0.0
 10
14.41605373446022
 20
-12.67760687617088
 30
0.0
  0
SPLINE
  5
D0
330
CB
100
AcDbEntity
  8
Livello 3
370
     0
100
AcDbSpline
210
0.0
220
0.0
230
1.0
 70
     9
 71
     3
 72
    17
 73
    13
 74
     0
 42
0.000000001
 43
0.0000000001
 40
0.0
 40
0.0
 40
0.0
 40
0.0
 40
1.0
 40
1.0
 40
1.0
 40
2.0
 40
2.0
 40
2.0
 40
3.0
 40
3.0
 40
3.0
 40
4.0
 40
4.0
 40
4.0
 40
4.0
 10
14.13744886256807
 20
-12.58617404199235
 30
0.0
 10
14.19250148842236
 20
-12.58617404199235
 30
0.0
 10
14.22212930959551
 20
-12.54469509234994
 30
0.0
 10
14.23907917938294
 20
-12.48116753160193
 30
0.0
 10
14.22299058346682
 20
-12.43376301772489
 30
0.0
 10
14.18912529484681
 20
-12.3973483584458
 30
0.0
 10
14.13917141031069
 20
-12.3973483584458
 30
0.0
 10
14.09510863905435
 20
-12.3973483584458
 30
0.0
 10
14.04939222196508
 20
-12.4235999860434
 30
0.0
 10
14.04939222196508
 20
-12.49050374036696
 30
0.0
 10
14.04939222196508
 20
-12.55230875337234
 30
0.0
 10
14.09004434869103
 20
-12.58617404199235
 30
0.0
 10
14.13744886256807
 20
-12.58617404199235
 30
0.0
  0
SPLINE
  5
D1
330
CB
100
AcDbEntity
  8
Livello 3
370
     0
100
AcDbSpline
210
0.0
220
0.0
230
1.0
 70
     9
 71
     3
 72
    17
 73
    13
 74
     0
 42
0.000000001
 43
0.0000000001
 40
0.0
 40
0.0
 40
0.0
 40
0.0
 40
1.0
 40
1.0
 40
1.0
 40
2.0
 40
2.0
 40
2.0
 40
3.0
 40
3.0
 40
3.0
 40
4.0
 40
4.0
 40
4.0
 40
4.0
 10
14.41264308992982
 20
-12.38125976252968
 30
0.0
 10
14.34577378656113
 20
-12.38125976252968
 30
0.0
 10
14.31359659472889
 20
-12.42783745349026
 30
0.0
 10
14.2924092574946
 20
-12.50235486883622
 30
0.0
 10
14.31104722406981
 20
-12.56670925250068
 30
0.0
 10
14.35338744758353
 20
-12.60140136403715
 30
0.0
 10
14.40589070277873
 20
-12.60140136403715
 30
0.0
 10
14.46177015154949
 20
-12.60395073469623
 30
0.0
 10
14.5108627622143
 20
-12.56164496213737
 30
0.0
 10
14.5108627622143
 20
-12.49136501423827
 30
0.0
 10
14.5108627622143
 20
-12.42446125991472
 30
0.0
 10
14.46938381257189
 20
-12.38125976252968
 30
0.0
 10
14.41264308992982
 20
-12.38125976252968
 30
0.0
  0
HATCH
  5
D2
330
CB
100
AcDbEntity
  8
Livello 3
 62
   250
420
  1842203
100
AcDbHatch
 10
0.0
 20
0.0
 30
0.0
210
0.0
220
0.0
230
1.0
  2
SOLID
 70
     1
 71
     0
 91
        3
 92
        1
 93
        1
 72
     4
 94
        3
 73
     0
 74
     0
 95
       35
 96
       31
 40
0.0
 40
0.0
 40
0.0
 40
0.0
 40
1.0
 40
1.0
 40
1.0
 40
2.0
 40
2.0
 40
2.0
 40
3.0
 40
3.0
 40
3.0
 40
4.0
 40
4.0
 40
4.0
 40
5.0
 40
5.0
 40
5.0
 40
6.0
 40
6.0
 40
6.0
 40
7.0
 40
7.0
 40
7.0
 40
8.0
 40
8.0
 40
8.0
 40
9.0
 40
9.0
 40
9.0
 40
10.0
 40
10.0
 40
10.0
 40
10.0
 10
14.41605373446022
 20
-12.67760687617088
 10
14.34660060947759
 20
-12.67760687617088
 10
14.29750799881277
 20
-12.63612792652847
 10
14.26870700055609
 20
-12.56839734928846
 10
14.26870700055609
 20
-12.56839734928846
 10
14.266157629897
 20
-12.56922417220492
 10
14.266157629897
 20
-12.56922417220492
 10
14.23739108259517
 20
-12.63020236229384
 10
14.18995211776327
 20
-12.65645398989144
 10
14.14254760388624
 20
-12.65645398989144
 10
14.05531778619971
 20
-12.65645398989144
 10
13.99606214385341
 20
-12.5827978484168
 10
13.99606214385341
 20
-12.4862662729201
 10
13.99606214385341
 20
-12.37957166574191
 10
14.06296589817697
 20
-12.32620713667539
 10
14.13152329833344
 20
-12.32620713667539
 10
14.17810098929401
 20
-12.32620713667539
 10
14.22805487383014
 20
-12.34908257069745
 10
14.26023206566237
 20
-12.41681314793746
 10
14.26023206566237
 20
-12.41681314793746
 10
14.26278143632146
 20
-12.41681314793746
 10
14.26278143632146
 20
-12.41681314793746
 10
14.28985988683552
 20
-12.34825574778099
 10
14.33812567458387
 20
-12.30591552426727
 10
14.40502942890742
 20
-12.30591552426727
 10
14.50069973053281
 20
-12.30591552426727
 10
14.56505411419728
 20
-12.38804660063563
 10
14.56505411419728
 20
-12.49301866007119
 10
14.56505411419728
 20
-12.60818820214309
 10
14.49649671404081
 20
-12.67760687617088
 10
14.41605373446022
 20
-12.67760687617088
 97
        0
 97
        0
 92
        1
 93
        1
 72
     4
 94
        3
 73
     0
 74
     0
 95
       17
 96
       13
 40
0.0
 40
0.0
 40
0.0
 40
0.0
 40
1.0
 40
1.0
 40
1.0
 40
2.0
 40
2.0
 40
2.0
 40
3.0
 40
3.0
 40
3.0
 40
4.0
 40
4.0
 40
4.0
 40
4.0
 10
14.13744886256807
 20
-12.58617404199235
 10
14.19250148842236
 20
-12.58617404199235
 10
14.22212930959551
 20
-12.54469509234994
 10
14.23907917938294
 20
-12.48116753160193
 10
14.22299058346682
 20
-12.43376301772489
 10
14.18912529484681
 20
-12.3973483584458
 10
14.13917141031069
 20
-12.3973483584458
 10
14.09510863905435
 20
-12.3973483584458
 10
14.04939222196508
 20
-12.4235999860434
 10
14.04939222196508
 20
-12.49050374036696
 10
14.04939222196508
 20
-12.55230875337234
 10
14.09004434869103
 20
-12.58617404199235
 10
14.13744886256807
 20
-12.58617404199235
 97
        0
 97
        0
 92
        1
 93
        1
 72
     4
 94
        3
 73
     0
 74
     0
 95
       17
 96
       13
 40
0.0
 40
0.0
 40
0.0
 40
0.0
 40
1.0
 40
1.0
 40
1.0
 40
2.0
 40
2.0
 40
2.0
 40
3.0
 40
3.0
 40
3.0
 40
4.0
 40
4.0
 40
4.0
 40
4.0
 10
14.41264308992982
 20
-12.38125976252968
 10
14.34577378656113
 20
-12.38125976252968
 10
14.31359659472889
 20
-12.42783745349026
 10
14.2924092574946
 20
-12.50235486883622
 10
14.31104722406981
 20
-12.56670925250068
 10
14.35338744758353
 20
-12.60140136403715
 10
14.40589070277873
 20
-12.60140136403715
 10
14.46177015154949
 20
-12.60395073469623
 10
14.5108627622143
 20
-12.56164496213737
 10
14.5108627622143
 20
-12.49136501423827
 10
14.5108627622143
 20
-12.42446125991472
 10
14.46938381257189
 20
-12.38125976252968
 10
14.41264308992982
 20
-12.38125976252968
 97
        0
 97
        0
 75
     2
 76
     1
 98
        0
450
        0
451
        0
460
0.0
461
0.0
452
        0
462
0.0
453
        0
470

  0
SPLINE
  5
D3
330
CB
100
AcDbEntity
  8
Livello 3
370
     0
100
AcDbSpline
210
0.0
220
0.0
230
1.0
 70
     9
 71
     3
 72
    17
 73
    13
 74
     0
 42
0.000000001
 43
0.0000000001
 40
0.0
 40
0.0
 40
0.0
 40
0.0
 40
1.0
 40
1.0
 40
1.0
 40
2.0
 40
2.0
 40
2.0
 40
3.0
 40
3.0
 40
3.0
 40
4.0
 40
4.0
 40
4.0
 40
4.0
 10
14.27463256479072
 20
-11.87073106257051
 30
0.0
 10
14.46177015154949
 20
-11.87073106257051
 30
0.0
 10
14.56505411419728
 20
-11.9401497365983
 30
0.0
 10
14.56505411419728
 20
-12.06210611677614
 30
0.0
 10
14.56505411419728
 20
-12.16966199782564
 30
0.0
 10
14.46431952220857
 20
-12.24245686542897
 30
0.0
 10
14.28224622581312
 20
-12.24414496221674
 30
0.0
 10
14.09765800971343
 20
-12.24414496221674
 30
0.0
 10
13.99606214385341
 20
-12.16456325650747
 30
0.0
 10
13.99606214385341
 20
-12.05280435896596
 30
0.0
 10
13.99606214385341
 20
-11.93677354302275
 30
0.0
 10
14.0993461065012
 20
-11.87073106257051
 30
0.0
 10
14.27463256479072
 20
-11.87073106257051
 30
0.0
  0
SPLINE
  5
D4
330
CB
100
AcDbEntity
  8
Livello 3
370
     0
100
AcDbSpline
210
0.0
220
0.0
230
1.0
 70
     9
 71
     3
 72
    17
 73
    13
 74
     0
 42
0.000000001
 43
0.0000000001
 40
0.0
 40
0.0
 40
0.0
 40
0.0
 40
1.0
 40
1.0
 40
1.0
 40
2.0
 40
2.0
 40
2.0
 40
3.0
 40
3.0
 40
3.0
 40
4.0
 40
4.0
 40
4.0
 40
4.0
 10
14.28310749968443
 20
-12.16966199782564
 30
0.0
 10
14.42621676614171
 20
-12.16966199782564
 30
0.0
 10
14.50748656863875
 20
-12.12559922656929
 30
0.0
 10
14.50748656863875
 20
-12.05786864932928
 30
0.0
 10
14.50748656863875
 20
-11.98166313719556
 30
0.0
 10
14.41856865416445
 20
-11.94524847791646
 30
0.0
 10
14.27800875836626
 20
-11.94524847791646
 30
0.0
 10
14.14254760388624
 20
-11.94524847791646
 30
0.0
 10
14.05362968941194
 20
-11.97997504040778
 30
0.0
 10
14.05362968941194
 20
-12.05700737545797
 30
0.0
 10
14.05362968941194
 20
-12.12222303299375
 30
0.0
 10
14.13324584607606
 20
-12.16966199782564
 30
0.0
 10
14.28310749968443
 20
-12.16966199782564
 30
0.0
  0
HATCH
  5
D5
330
CB
100
AcDbEntity
  8
Livello 3
 62
   250
420
  1842203
100
AcDbHatch
 10
0.0
 20
0.0
 30
0.0
210
0.0
220
0.0
230
1.0
  2
SOLID
 70
     1
 71
     0
 91
        2
 92
        1
 93
        1
 72
     4
 94
        3
 73
     0
 74
     0
 95
       17
 96
       13
 40
0.0
 40
0.0
 40
0.0
 40
0.0
 40
1.0
 40
1.0
 40
1.0
 40
2.0
 40
2.0
 40
2.0
 40
3.0
 40
3.0
 40
3.0
 40
4.0
 40
4.0
 40
4.0
 40
4.0
 10
14.27463256479072
 20
-11.87073106257051
 10
14.46177015154949
 20
-11.87073106257051
 10
14.56505411419728
 20
-11.9401497365983
 10
14.56505411419728
 20
-12.06210611677614
 10
14.56505411419728
 20
-12.16966199782564
 10
14.46431952220857
 20
-12.24245686542897
 10
14.28224622581312
 20
-12.24414496221674
 10
14.09765800971343
 20
-12.24414496221674
 10
13.99606214385341
 20
-12.16456325650747
 10
13.99606214385341
 20
-12.05280435896596
 10
13.99606214385341
 20
-11.93677354302275
 10
14.0993461065012
 20
-11.87073106257051
 10
14.27463256479072
 20
-11.87073106257051
 97
        0
 97
        0
 92
        1
 93
        1
 72
     4
 94
        3
 73
     0
 74
     0
 95
       17
 96
       13
 40
0.0
 40
0.0
 40
0.0
 40
0.0
 40
1.0
 40
1.0
 40
1.0
 40
2.0
 40
2.0
 40
2.0
 40
3.0
 40
3.0
 40
3.0
 40
4.0
 40
4.0
 40
4.0
 40
4.0
 10
14.28310749968443
 20
-12.16966199782564
 10
14.42621676614171
 20
-12.16966199782564
 10
14.50748656863875
 20
-12.12559922656929
 10
14.50748656863875
 20
-12.05786864932928
 10
14.50748656863875
 20
-11.98166313719556
 10
14.41856865416445
 20
-11.94524847791646
 10
14.27800875836626
 20
-11.94524847791646
 10
14.14254760388624
 20
-11.94524847791646
 10
14.05362968941194
 20
-11.97997504040778
 10
14.05362968941194
 20
-12.05700737545797
 10
14.05362968941194
 20
-12.12222303299375
 10
14.13324584607606
 20
-12.16966199782564
 10
14.28310749968443
 20
-12.16966199782564
 97
        0
 97
        0
 75
     2
 76
     1
 98
        0
450
        0
451
        0
460
0.0
461
0.0
452
        0
462
0.0
453
        0
470

  0
ENDBLK
  5
CE
330
CB
100
AcDbEntity
  8
0
100
AcDbBlockEnd
  0
BLOCK
  5
E0
330
DE
100
AcDbEntity
  8
0
100
AcDbBlockBegin
  2
block 7
 70
     0
 10
0.0
 20
0.0
 30
0.0
  3
block 7
  1

  0
SPLINE
  5
E2
330
DE
100
AcDbEntity
  8
Livello 3
370
     0
100
AcDbSpline
210
0.0
220
0.0
230
1.0
 70
     9
 71
     3
 72
    41
 73
    37
 74
     0
 42
0.000000001
 43
0.0000000001
 40
0.0
 40
0.0
 40
0.0
 40
0.0
 40
1.0
 40
1.0
 40
1.0
 40
2.0
 40
2.0
 40
2.0
 40
3.0
 40
3.0
 40
3.0
 40
4.0
 40
4.0
 40
4.0
 40
5.0
 40
5.0
 40
5.0
 40
6.0
 40
6.0
 40
6.0
 40
7.0
 40
7.0
 40
7.0
 40
8.0
 40
8.0
 40
8.0
 40
9.0
 40
9.0
 40
9.0
 40
10.0
 40
10.0
 40
10.0
 40
11.0
 40
11.0
 40
11.0
 40
12.0
 40
12.0
 40
12.0
 40
12.0
 10
18.54239962644079
 20
-19.11462998654078
 30
0.0
 10
18.5584882223569
 20
-19.11631808332856
 30
0.0
 10
18.57712618893211
 20
-19.11462998654078
 30
0.0
 10
18.6025165426584
 20
-19.1120806158817
 30
0.0
 10
18.64571804004343
 20
-19.10615505164707
 30
0.0
 10
18.68637016676938
 20
-19.08837835894318
 30
0.0
 10
18.7176860847303
 20
-19.05875053777003
 30
0.0
 10
18.75410074400939
 20
-19.02571207206649
 30
0.0
 10
18.78035237160698
 20
-18.97748073527299
 30
0.0
 10
18.79051540328848
 20
-18.91226507773721
 30
0.0
 10
18.79051540328848
 20
-18.91226507773721
 30
0.0
 10
18.7879660326294
 20
-18.91226507773721
 30
0.0
 10
18.7879660326294
 20
-18.91226507773721
 30
0.0
 10
18.75747693758494
 20
-18.94950655993276
 30
0.0
 10
18.71344861728344
 20
-18.97152072008351
 30
0.0
 10
18.65839599142915
 20
-18.97152072008351
 30
0.0
 10
18.55934949622822
 20
-18.97152072008351
 30
0.0
 10
18.49582193548021
 20
-18.89703775569241
 30
0.0
 10
18.49582193548021
 20
-18.80302109989994
 30
0.0
 10
18.49582193548021
 20
-18.69887586338083
 30
0.0
 10
18.57120062469748
 20
-18.6074430292023
 30
0.0
 10
18.68382079611029
 20
-18.6074430292023
 30
0.0
 10
18.79644096752311
 20
-18.6074430292023
 30
0.0
 10
18.86585964155089
 20
-18.69887586338083
 30
0.0
 10
18.86585964155089
 20
-18.83943575917903
 30
0.0
 10
18.86585964155089
 20
-18.96053086548556
 30
0.0
 10
18.82520751482495
 20
-19.045211312513
 30
0.0
 10
18.77101616284196
 20
-19.09771456770821
 30
0.0
 10
18.72867593932825
 20
-19.13919351735062
 30
0.0
 10
18.67028157085326
 20
-19.16458387107691
 30
0.0
 10
18.61099147755211
 20
-19.17137070918285
 30
0.0
 10
18.58391302703805
 20
-19.17560817662971
 30
0.0
 10
18.56017631914468
 20
-19.17643499954617
 30
0.0
 10
18.54239962644079
 20
-19.17560817662971
 30
0.0
 10
18.54239962644079
 20
-19.17560817662971
 30
0.0
 10
18.54239962644079
 20
-19.11462998654078
 30
0.0
 10
18.54239962644079
 20
-19.11462998654078
 30
0.0
  0
SPLINE
  5
E3
330
DE
100
AcDbEntity
  8
Livello 3
370
     0
100
AcDbSpline
210
0.0
220
0.0
230
1.0
 70
     9
 71
     3
 72
    20
 73
    16
 74
     0
 42
0.000000001
 43
0.0000000001
 40
0.0
 40
0.0
 40
0.0
 40
0.0
 40
1.0
 40
1.0
 40
1.0
 40
2.0
 40
2.0
 40
2.0
 40
3.0
 40
3.0
 40
3.0
 40
4.0
 40
4.0
 40
4.0
 40
5.0
 40
5.0
 40
5.0
 40
5.0
 10
18.5695125279097
 20
-18.79795680953662
 30
0.0
 10
18.5695125279097
 20
-18.86654866064794
 30
0.0
 10
18.61099147755211
 20
-18.9148144483963
 30
0.0
 10
18.67534586121658
 20
-18.9148144483963
 30
0.0
 10
18.7252997457527
 20
-18.9148144483963
 30
0.0
 10
18.76426377569088
 20
-18.89025091758646
 30
0.0
 10
18.78372856518254
 20
-18.85721245188292
 30
0.0
 10
18.7879660326294
 20
-18.85046006473183
 30
0.0
 10
18.79051540328848
 20
-18.84198512983811
 30
0.0
 10
18.79051540328848
 20
-18.83013400136885
 30
0.0
 10
18.79051540328848
 20
-18.73615179653124
 30
0.0
 10
18.75578884079716
 20
-18.66418375184437
 30
0.0
 10
18.67789523187566
 20
-18.66418375184437
 30
0.0
 10
18.61436767112766
 20
-18.66418375184437
 30
0.0
 10
18.5695125279097
 20
-18.72006320061512
 30
0.0
 10
18.5695125279097
 20
-18.79795680953662
 30
0.0
  0
HATCH
  5
E4
330
DE
100
AcDbEntity
  8
Livello 3
 62
   250
420
  1842203
100
AcDbHatch
 10
0.0
 20
0.0
 30
0.0
210
0.0
220
0.0
230
1.0
  2
SOLID
 70
     1
 71
     0
 91
        2
 92
        1
 93
        1
 72
     4
 94
        3
 73
     0
 74
     0
 95
       41
 96
       37
 40
0.0
 40
0.0
 40
0.0
 40
0.0
 40
1.0
 40
1.0
 40
1.0
 40
2.0
 40
2.0
 40
2.0
 40
3.0
 40
3.0
 40
3.0
 40
4.0
 40
4.0
 40
4.0
 40
5.0
 40
5.0
 40
5.0
 40
6.0
 40
6.0
 40
6.0
 40
7.0
 40
7.0
 40
7.0
 40
8.0
 40
8.0
 40
8.0
 40
9.0
 40
9.0
 40
9.0
 40
10.0
 40
10.0
 40
10.0
 40
11.0
 40
11.0
 40
11.0
 40
12.0
 40
12.0
 40
12.0
 40
12.0
 10
18.54239962644079
 20
-19.11462998654078
 10
18.5584882223569
 20
-19.11631808332856
 10
18.57712618893211
 20
-19.11462998654078
 10
18.6025165426584
 20
-19.1120806158817
 10
18.64571804004343
 20
-19.10615505164707
 10
18.68637016676938
 20
-19.08837835894318
 10
18.7176860847303
 20
-19.05875053777003
 10
18.75410074400939
 20
-19.02571207206649
 10
18.78035237160698
 20
-18.97748073527299
 10
18.79051540328848
 20
-18.91226507773721
 10
18.79051540328848
 20
-18.91226507773721
 10
18.7879660326294
 20
-18.91226507773721
 10
18.7879660326294
 20
-18.91226507773721
 10
18.75747693758494
 20
-18.94950655993276
 10
18.71344861728344
 20
-18.97152072008351
 10
18.65839599142915
 20
-18.97152072008351
 10
18.55934949622822
 20
-18.97152072008351
 10
18.49582193548021
 20
-18.89703775569241
 10
18.49582193548021
 20
-18.80302109989994
 10
18.49582193548021
 20
-18.69887586338083
 10
18.57120062469748
 20
-18.6074430292023
 10
18.68382079611029
 20
-18.6074430292023
 10
18.79644096752311
 20
-18.6074430292023
 10
18.86585964155089
 20
-18.69887586338083
 10
18.86585964155089
 20
-18.83943575917903
 10
18.86585964155089
 20
-18.96053086548556
 10
18.82520751482495
 20
-19.045211312513
 10
18.77101616284196
 20
-19.09771456770821
 10
18.72867593932825
 20
-19.13919351735062
 10
18.67028157085326
 20
-19.16458387107691
 10
18.61099147755211
 20
-19.17137070918285
 10
18.58391302703805
 20
-19.17560817662971
 10
18.56017631914468
 20
-19.17643499954617
 10
18.54239962644079
 20
-19.17560817662971
 10
18.54239962644079
 20
-19.17560817662971
 10
18.54239962644079
 20
-19.11462998654078
 10
18.54239962644079
 20
-19.11462998654078
 97
        0
 97
        0
 92
        1
 93
        1
 72
     4
 94
        3
 73
     0
 74
     0
 95
       20
 96
       16
 40
0.0
 40
0.0
 40
0.0
 40
0.0
 40
1.0
 40
1.0
 40
1.0
 40
2.0
 40
2.0
 40
2.0
 40
3.0
 40
3.0
 40
3.0
 40
4.0
 40
4.0
 40
4.0
 40
5.0
 40
5.0
 40
5.0
 40
5.0
 10
18.5695125279097
 20
-18.79795680953662
 10
18.5695125279097
 20
-18.86654866064794
 10
18.61099147755211
 20
-18.9148144483963
 10
18.67534586121658
 20
-18.9148144483963
 10
18.7252997457527
 20
-18.9148144483963
 10
18.76426377569088
 20
-18.89025091758646
 10
18.78372856518254
 20
-18.85721245188292
 10
18.7879660326294
 20
-18.85046006473183
 10
18.79051540328848
 20
-18.84198512983811
 10
18.79051540328848
 20
-18.83013400136885
 10
18.79051540328848
 20
-18.73615179653124
 10
18.75578884079716
 20
-18.66418375184437
 10
18.67789523187566
 20
-18.66418375184437
 10
18.61436767112766
 20
-18.66418375184437
 10
18.5695125279097
 20
-18.72006320061512
 10
18.5695125279097
 20
-18.79795680953662
 97
        0
 97
        0
 75
     2
 76
     1
 98
        0
450
        0
451
        0
460
0.0
461
0.0
452
        0
462
0.0
453
        0
470

  0
SPLINE
  5
E5
330
DE
100
AcDbEntity
  8
Livello 3
370
     0
100
AcDbSpline
210
0.0
220
0.0
230
1.0
 70
     9
 71
     3
 72
    17
 73
    13
 74
     0
 42
0.000000001
 43
0.0000000001
 40
0.0
 40
0.0
 40
0.0
 40
0.0
 40
1.0
 40
1.0
 40
1.0
 40
2.0
 40
2.0
 40
2.0
 40
3.0
 40
3.0
 40
3.0
 40
4.0
 40
4.0
 40
4.0
 40
4.0
 10
18.90899223702622
 20
-19.27127847825509
 30
0.0
 10
18.92763020360142
 20
-19.22132459371897
 30
0.0
 10
18.95047118666863
 20
-19.1307185824569
 30
0.0
 10
18.95980739543366
 20
-19.06891356945152
 30
0.0
 10
18.95980739543366
 20
-19.06891356945152
 30
0.0
 10
19.04276529471847
 20
-19.0604386345578
 30
0.0
 10
19.04276529471847
 20
-19.0604386345578
 30
0.0
 10
19.02330050522681
 20
-19.13240667924467
 30
0.0
 10
18.98605902303126
 20
-19.22638888408229
 30
0.0
 10
18.96232231513789
 20
-19.26621418789178
 30
0.0
 10
18.96232231513789
 20
-19.26621418789178
 30
0.0
 10
18.90899223702622
 20
-19.27127847825509
 30
0.0
 10
18.90899223702622
 20
-19.27127847825509
 30
0.0
  0
HATCH
  5
E6
330
DE
100
AcDbEntity
  8
Livello 3
 62
   250
420
  1842203
100
AcDbHatch
 10
0.0
 20
0.0
 30
0.0
210
0.0
220
0.0
230
1.0
  2
SOLID
 70
     1
 71
     0
 91
        1
 92
        1
 93
        1
 72
     4
 94
        3
 73
     0
 74
     0
 95
       17
 96
       13
 40
0.0
 40
0.0
 40
0.0
 40
0.0
 40
1.0
 40
1.0
 40
1.0
 40
2.0
 40
2.0
 40
2.0
 40
3.0
 40
3.0
 40
3.0
 40
4.0
 40
4.0
 40
4.0
 40
4.0
 10
18.90899223702622
 20
-19.27127847825509
 10
18.92763020360142
 20
-19.22132459371897
 10
18.95047118666863
 20
-19.1307185824569
 10
18.95980739543366
 20
-19.06891356945152
 10
18.95980739543366
 20
-19.06891356945152
 10
19.04276529471847
 20
-19.0604386345578
 10
19.04276529471847
 20
-19.0604386345578
 10
19.02330050522681
 20
-19.13240667924467
 10
18.98605902303126
 20
-19.22638888408229
 10
18.96232231513789
 20
-19.26621418789178
 10
18.96232231513789
 20
-19.26621418789178
 10
18.90899223702622
 20
-19.27127847825509
 10
18.90899223702622
 20
-19.27127847825509
 97
        0
 97
        0
 75
     2
 76
     1
 98
        0
450
        0
451
        0
460
0.0
461
0.0
452
        0
462
0.0
453
        0
470

  0
SPLINE
  5
E7
330
DE
100
AcDbEntity
  8
Livello 3
370
     0
100
AcDbSpline
210
0.0
220
0.0
230
1.0
 70
    11
 71
     3
 72
    50
 73
    46
 74
     0
 42
0.000000001
 43
0.0000000001
 40
0.0
 40
0.0
 40
0.0
 40
0.0
 40
1.0
 40
1.0
 40
1.0
 40
2.0
 40
2.0
 40
2.0
 40
3.0
 40
3.0
 40
3.0
 40
4.0
 40
4.0
 40
4.0
 40
5.0
 40
5.0
 40
5.0
 40
6.0
 40
6.0
 40
6.0
 40
7.0
 40
7.0
 40
7.0
 40
8.0
 40
8.0
 40
8.0
 40
9.0
 40
9.0
 40
9.0
 40
10.0
 40
10.0
 40
10.0
 40
11.0
 40
11.0
 40
11.0
 40
12.0
 40
12.0
 40
12.0
 40
13.0
 40
13.0
 40
13.0
 40
14.0
 40
14.0
 40
14.0
 40
15.0
 40
15.0
 40
15.0
 40
15.0
 10
19.43733208064414
 20
-18.67941107388917
 30
0.0
 10
19.43733208064414
 20
-18.67941107388917
 30
0.0
 10
19.22735351081816
 20
-18.67941107388917
 30
0.0
 10
19.22735351081816
 20
-18.67941107388917
 30
0.0
 10
19.22735351081816
 20
-18.67941107388917
 30
0.0
 10
19.20616617358387
 20
-18.82083224355868
 30
0.0
 10
19.20616617358387
 20
-18.82083224355868
 30
0.0
 10
19.21887857592445
 20
-18.81910969581605
 30
0.0
 10
19.23072970439371
 20
-18.81742159902828
 30
0.0
 10
19.25105576775668
 20
-18.81742159902828
 30
0.0
 10
19.2933959912704
 20
-18.81742159902828
 30
0.0
 10
19.33573621478412
 20
-18.82675780779331
 30
0.0
 10
19.36960150340413
 20
-18.84704942020143
 30
0.0
 10
19.41276854983431
 20
-18.87161295101126
 30
0.0
 10
19.44835638619694
 20
-18.91905191584315
 30
0.0
 10
19.44835638619694
 20
-18.98847058987094
 30
0.0
 10
19.44835638619694
 20
-19.09599201996559
 30
0.0
 10
19.36281466529818
 20
-19.17643499954617
 30
0.0
 10
19.24344210673428
 20
-19.17643499954617
 30
0.0
 10
19.18332519051667
 20
-19.17643499954617
 30
0.0
 10
19.13251003210923
 20
-19.15951958071359
 30
0.0
 10
19.10625840451163
 20
-19.14256971092616
 30
0.0
 10
19.10625840451163
 20
-19.14256971092616
 30
0.0
 10
19.12489637108683
 20
-19.08586343923895
 30
0.0
 10
19.12489637108683
 20
-19.08586343923895
 30
0.0
 10
19.14773735415404
 20
-19.09940266449598
 30
0.0
 10
19.19262694832684
 20
-19.11631808332856
 30
0.0
 10
19.24258083286296
 20
-19.11631808332856
 30
0.0
 10
19.31286078076206
 20
-19.11631808332856
 30
0.0
 10
19.37297769697967
 20
-19.07060166623929
 30
0.0
 10
19.37297769697967
 20
-18.99694552476464
 30
0.0
 10
19.37215087406321
 20
-18.92580430299424
 30
0.0
 10
19.32471190923132
 20
-18.87502359554166
 30
0.0
 10
19.21464110847759
 20
-18.87502359554166
 30
0.0
 10
19.18332519051667
 20
-18.87502359554166
 30
0.0
 10
19.15876165970684
 20
-18.8783997891172
 30
0.0
 10
19.13843559634386
 20
-18.88094915977629
 30
0.0
 10
19.13843559634386
 20
-18.88094915977629
 30
0.0
 10
19.17398898175164
 20
-18.61674478701248
 30
0.0
 10
19.17398898175164
 20
-18.61674478701248
 30
0.0
 10
19.17398898175164
 20
-18.61674478701248
 30
0.0
 10
19.43733208064414
 20
-18.61674478701248
 30
0.0
 10
19.43733208064414
 20
-18.61674478701248
 30
0.0
 10
19.43733208064414
 20
-18.61674478701248
 30
0.0
 10
19.43733208064414
 20
-18.67941107388917
 30
0.0
 10
19.43733208064414
 20
-18.67941107388917
 30
0.0
  0
HATCH
  5
E8
330
DE
100
AcDbEntity
  8
Livello 3
 62
   250
420
  1842203
100
AcDbHatch
 10
0.0
 20
0.0
 30
0.0
210
0.0
220
0.0
230
1.0
  2
SOLID
 70
     1
 71
     0
 91
        1
 92
        1
 93
        1
 72
     4
 94
        3
 73
     0
 74
     0
 95
       50
 96
       46
 40
0.0
 40
0.0
 40
0.0
 40
0.0
 40
1.0
 40
1.0
 40
1.0
 40
2.0
 40
2.0
 40
2.0
 40
3.0
 40
3.0
 40
3.0
 40
4.0
 40
4.0
 40
4.0
 40
5.0
 40
5.0
 40
5.0
 40
6.0
 40
6.0
 40
6.0
 40
7.0
 40
7.0
 40
7.0
 40
8.0
 40
8.0
 40
8.0
 40
9.0
 40
9.0
 40
9.0
 40
10.0
 40
10.0
 40
10.0
 40
11.0
 40
11.0
 40
11.0
 40
12.0
 40
12.0
 40
12.0
 40
13.0
 40
13.0
 40
13.0
 40
14.0
 40
14.0
 40
14.0
 40
15.0
 40
15.0
 40
15.0
 40
15.0
 10
19.43733208064414
 20
-18.67941107388917
 10
19.43733208064414
 20
-18.67941107388917
 10
19.22735351081816
 20
-18.67941107388917
 10
19.22735351081816
 20
-18.67941107388917
 10
19.22735351081816
 20
-18.67941107388917
 10
19.20616617358387
 20
-18.82083224355868
 10
19.20616617358387
 20
-18.82083224355868
 10
19.21887857592445
 20
-18.81910969581605
 10
19.23072970439371
 20
-18.81742159902828
 10
19.25105576775668
 20
-18.81742159902828
 10
19.2933959912704
 20
-18.81742159902828
 10
19.33573621478412
 20
-18.82675780779331
 10
19.36960150340413
 20
-18.84704942020143
 10
19.41276854983431
 20
-18.87161295101126
 10
19.44835638619694
 20
-18.91905191584315
 10
19.44835638619694
 20
-18.98847058987094
 10
19.44835638619694
 20
-19.09599201996559
 10
19.36281466529818
 20
-19.17643499954617
 10
19.24344210673428
 20
-19.17643499954617
 10
19.18332519051667
 20
-19.17643499954617
 10
19.13251003210923
 20
-19.15951958071359
 10
19.10625840451163
 20
-19.14256971092616
 10
19.10625840451163
 20
-19.14256971092616
 10
19.12489637108683
 20
-19.08586343923895
 10
19.12489637108683
 20
-19.08586343923895
 10
19.14773735415404
 20
-19.09940266449598
 10
19.19262694832684
 20
-19.11631808332856
 10
19.24258083286296
 20
-19.11631808332856
 10
19.31286078076206
 20
-19.11631808332856
 10
19.37297769697967
 20
-19.07060166623929
 10
19.37297769697967
 20
-18.99694552476464
 10
19.37215087406321
 20
-18.92580430299424
 10
19.32471190923132
 20
-18.87502359554166
 10
19.21464110847759
 20
-18.87502359554166
 10
19.18332519051667
 20
-18.87502359554166
 10
19.15876165970684
 20
-18.8783997891172
 10
19.13843559634386
 20
-18.88094915977629
 10
19.13843559634386
 20
-18.88094915977629
 10
19.17398898175164
 20
-18.61674478701248
 10
19.17398898175164
 20
-18.61674478701248
 10
19.17398898175164
 20
-18.61674478701248
 10
19.43733208064414
 20
-18.61674478701248
 10
19.43733208064414
 20
-18.61674478701248
 10
19.43733208064414
 20
-18.61674478701248
 10
19.43733208064414
 20
-18.67941107388917
 10
19.43733208064414
 20
-18.67941107388917
 97
        0
 97
        0
 75
     2
 76
     1
 98
        0
450
        0
451
        0
460
0.0
461
0.0
452
        0
462
0.0
453
        0
470

  0
ENDBLK
  5
E1
330
DE
100
AcDbEntity
  8
0
100
AcDbBlockEnd
  0
BLOCK
  5
EB
330
E9
100
AcDbEntity
  8
0
100
AcDbBlockBegin
  2
block 8
 70
     0
 10
0.0
 20
0.0
 30
0.0
  3
block 8
  1

  0
POLYLINE
  5
ED
330
E9
100
AcDbEntity
  8
Livello 3
370
     0
100
AcDb2dPolyline
 66
     1
 10
0.0
 20
0.0
 30
0.0
  0
VERTEX
  5
EE
330
ED
100
AcDbEntity
  8
Livello 3
370
     0
100
AcDbVertex
100
AcDb2dVertex
 10
20.95265732983128
 20
-18.68619791199512
 30
0.0
  0
VERTEX
  5
EF
330
ED
100
AcDbEntity
  8
Livello 3
370
     0
100
AcDbVertex
100
AcDb2dVertex
 10
20.95096923304351
 20
-18.68619791199512
 30
0.0
  0
VERTEX
  5
F0
330
ED
100
AcDbEntity
  8
Livello 3
370
     0
100
AcDbVertex
100
AcDb2dVertex
 10
20.85529893141812
 20
-18.73783989331901
 30
0.0
  0
VERTEX
  5
F1
330
ED
100
AcDbEntity
  8
Livello 3
370
     0
100
AcDbVertex
100
AcDb2dVertex
 10
20.84089843228977
 20
-18.68109917067695
 30
0.0
  0
VERTEX
  5
F2
330
ED
100
AcDbEntity
  8
Livello 3
370
     0
100
AcDbVertex
100
AcDb2dVertex
 10
20.96113226472499
 20
-18.61674478701248
 30
0.0
  0
VERTEX
  5
F3
330
ED
100
AcDbEntity
  8
Livello 3
370
     0
100
AcDbVertex
100
AcDb2dVertex
 10
21.02462537451815
 20
-18.61674478701248
 30
0.0
  0
VERTEX
  5
F4
330
ED
100
AcDbEntity
  8
Livello 3
370
     0
100
AcDbVertex
100
AcDb2dVertex
 10
21.02462537451815
 20
-19.16713324173599
 30
0.0
  0
VERTEX
  5
F5
330
ED
100
AcDbEntity
  8
Livello 3
370
     0
100
AcDbVertex
100
AcDb2dVertex
 10
20.95265732983128
 20
-19.16713324173599
 30
0.0
  0
VERTEX
  5
F6
330
ED
100
AcDbEntity
  8
Livello 3
370
     0
100
AcDbVertex
100
AcDb2dVertex
 10
20.95265732983128
 20
-18.68619791199512
 30
0.0
  0
SEQEND
  5
F7
330
ED
100
AcDbEntity
  8
Livello 3
370
     0
  0
HATCH
  5
F8
330
E9
100
AcDbEntity
  8
Livello 3
 62
   250
420
  1842203
100
AcDbHatch
 10
0.0
 20
0.0
 30
0.0
210
0.0
220
0.0
230
1.0
  2
SOLID
 70
     1
 71
     0
 91
        1
 92
        1
 93
        8
 72
     1
 10
20.95265732983128
 20
-18.68619791199512
 11
20.95096923304351
 21
-18.68619791199512
 72
     1
 10
20.95096923304351
 20
-18.68619791199512
 11
20.85529893141812
 21
-18.73783989331901
 72
     1
 10
20.85529893141812
 20
-18.73783989331901
 11
20.84089843228977
 21
-18.68109917067695
 72
     1
 10
20.84089843228977
 20
-18.68109917067695
 11
20.96113226472499
 21
-18.61674478701248
 72
     1
 10
20.96113226472499
 20
-18.61674478701248
 11
21.02462537451815
 21
-18.61674478701248
 72
     1
 10
21.02462537451815
 20
-18.61674478701248
 11
21.02462537451815
 21
-19.16713324173599
 72
     1
 10
21.02462537451815
 20
-19.16713324173599
 11
20.95265732983128
 21
-19.16713324173599
 72
     1
 10
20.95265732983128
 20
-19.16713324173599
 11
20.95265732983128
 21
-18.68619791199512
 97
        0
 75
     2
 76
     1
 98
        0
450
        0
451
        0
460
0.0
461
0.0
452
        0
462
0.0
453
        0
470

  0
SPLINE
  5
F9
330
E9
100
AcDbEntity
  8
Livello 3
370
     0
100
AcDbSpline
210
0.0
220
0.0
230
1.0
 70
    11
 71
     3
 72
    50
 73
    46
 74
     0
 42
0.000000001
 43
0.0000000001
 40
0.0
 40
0.0
 40
0.0
 40
0.0
 40
1.0
 40
1.0
 40
1.0
 40
2.0
 40
2.0
 40
2.0
 40
3.0
 40
3.0
 40
3.0
 40
4.0
 40
4.0
 40
4.0
 40
5.0
 40
5.0
 40
5.0
 40
6.0
 40
6.0
 40
6.0
 40
7.0
 40
7.0
 40
7.0
 40
8.0
 40
8.0
 40
8.0
 40
9.0
 40
9.0
 40
9.0
 40
10.0
 40
10.0
 40
10.0
 40
11.0
 40
11.0
 40
11.0
 40
12.0
 40
12.0
 40
12.0
 40
13.0
 40
13.0
 40
13.0
 40
14.0
 40
14.0
 40
14.0
 40
15.0
 40
15.0
 40
15.0
 40
15.0
 10
21.55379204105252
 20
-18.67941107388917
 30
0.0
 10
21.55379204105252
 20
-18.67941107388917
 30
0.0
 10
21.34381347122655
 20
-18.67941107388917
 30
0.0
 10
21.34381347122655
 20
-18.67941107388917
 30
0.0
 10
21.34381347122655
 20
-18.67941107388917
 30
0.0
 10
21.32262613399226
 20
-18.82083224355868
 30
0.0
 10
21.32262613399226
 20
-18.82083224355868
 30
0.0
 10
21.33533853633283
 20
-18.81910969581605
 30
0.0
 10
21.34718966480209
 20
-18.81742159902828
 30
0.0
 10
21.36751572816506
 20
-18.81742159902828
 30
0.0
 10
21.40985595167879
 20
-18.81742159902828
 30
0.0
 10
21.4521961751925
 20
-18.82675780779331
 30
0.0
 10
21.48606146381252
 20
-18.84704942020143
 30
0.0
 10
21.52922851024269
 20
-18.87161295101126
 30
0.0
 10
21.56481634660532
 20
-18.91905191584315
 30
0.0
 10
21.56481634660532
 20
-18.98847058987094
 30
0.0
 10
21.56481634660532
 20
-19.09599201996559
 30
0.0
 10
21.47927462570657
 20
-19.17643499954617
 30
0.0
 10
21.35990206714266
 20
-19.17643499954617
 30
0.0
 10
21.29978515092505
 20
-19.17643499954617
 30
0.0
 10
21.24896999251762
 20
-19.15951958071359
 30
0.0
 10
21.22271836492001
 20
-19.14256971092616
 30
0.0
 10
21.22271836492001
 20
-19.14256971092616
 30
0.0
 10
21.24135633149521
 20
-19.08586343923895
 30
0.0
 10
21.24135633149521
 20
-19.08586343923895
 30
0.0
 10
21.26419731456242
 20
-19.09940266449598
 30
0.0
 10
21.30908690873523
 20
-19.11631808332856
 30
0.0
 10
21.35904079327135
 20
-19.11631808332856
 30
0.0
 10
21.42932074117045
 20
-19.11631808332856
 30
0.0
 10
21.48943765738806
 20
-19.07060166623929
 30
0.0
 10
21.48943765738806
 20
-18.99694552476464
 30
0.0
 10
21.4886108344716
 20
-18.92580430299424
 30
0.0
 10
21.44117186963971
 20
-18.87502359554166
 30
0.0
 10
21.33110106888597
 20
-18.87502359554166
 30
0.0
 10
21.29978515092505
 20
-18.87502359554166
 30
0.0
 10
21.27522162011522
 20
-18.8783997891172
 30
0.0
 10
21.25489555675225
 20
-18.88094915977629
 30
0.0
 10
21.25489555675225
 20
-18.88094915977629
 30
0.0
 10
21.29044894216003
 20
-18.61674478701248
 30
0.0
 10
21.29044894216003
 20
-18.61674478701248
 30
0.0
 10
21.29044894216003
 20
-18.61674478701248
 30
0.0
 10
21.55379204105252
 20
-18.61674478701248
 30
0.0
 10
21.55379204105252
 20
-18.61674478701248
 30
0.0
 10
21.55379204105252
 20
-18.61674478701248
 30
0.0
 10
21.55379204105252
 20
-18.67941107388917
 30
0.0
 10
21.55379204105252
 20
-18.67941107388917
 30
0.0
  0
HATCH
  5
FA
330
E9
100
AcDbEntity
  8
Livello 3
 62
   250
420
  1842203
100
AcDbHatch
 10
0.0
 20
0.0
 30
0.0
210
0.0
220
0.0
230
1.0
  2
SOLID
 70
     1
 71
     0
 91
        1
 92
        1
 93
        1
 72
     4
 94
        3
 73
     0
 74
     0
 95
       50
 96
       46
 40
0.0
 40
0.0
 40
0.0
 40
0.0
 40
1.0
 40
1.0
 40
1.0
 40
2.0
 40
2.0
 40
2.0
 40
3.0
 40
3.0
 40
3.0
 40
4.0
 40
4.0
 40
4.0
 40
5.0
 40
5.0
 40
5.0
 40
6.0
 40
6.0
 40
6.0
 40
7.0
 40
7.0
 40
7.0
 40
8.0
 40
8.0
 40
8.0
 40
9.0
 40
9.0
 40
9.0
 40
10.0
 40
10.0
 40
10.0
 40
11.0
 40
11.0
 40
11.0
 40
12.0
 40
12.0
 40
12.0
 40
13.0
 40
13.0
 40
13.0
 40
14.0
 40
14.0
 40
14.0
 40
15.0
 40
15.0
 40
15.0
 40
15.0
 10
21.55379204105252
 20
-18.67941107388917
 10
21.55379204105252
 20
-18.67941107388917
 10
21.34381347122655
 20
-18.67941107388917
 10
21.34381347122655
 20
-18.67941107388917
 10
21.34381347122655
 20
-18.67941107388917
 10
21.32262613399226
 20
-18.82083224355868
 10
21.32262613399226
 20
-18.82083224355868
 10
21.33533853633283
 20
-18.81910969581605
 10
21.34718966480209
 20
-18.81742159902828
 10
21.36751572816506
 20
-18.81742159902828
 10
21.40985595167879
 20
-18.81742159902828
 10
21.4521961751925
 20
-18.82675780779331
 10
21.48606146381252
 20
-18.84704942020143
 10
21.52922851024269
 20
-18.87161295101126
 10
21.56481634660532
 20
-18.91905191584315
 10
21.56481634660532
 20
-18.98847058987094
 10
21.56481634660532
 20
-19.09599201996559
 10
21.47927462570657
 20
-19.17643499954617
 10
21.35990206714266
 20
-19.17643499954617
 10
21.29978515092505
 20
-19.17643499954617
 10
21.24896999251762
 20
-19.15951958071359
 10
21.22271836492001
 20
-19.14256971092616
 10
21.22271836492001
 20
-19.14256971092616
 10
21.24135633149521
 20
-19.08586343923895
 10
21.24135633149521
 20
-19.08586343923895
 10
21.26419731456242
 20
-19.09940266449598
 10
21.30908690873523
 20
-19.11631808332856
 10
21.35904079327135
 20
-19.11631808332856
 10
21.42932074117045
 20
-19.11631808332856
 10
21.48943765738806
 20
-19.07060166623929
 10
21.48943765738806
 20
-18.99694552476464
 10
21.4886108344716
 20
-18.92580430299424
 10
21.44117186963971
 20
-18.87502359554166
 10
21.33110106888597
 20
-18.87502359554166
 10
21.29978515092505
 20
-18.87502359554166
 10
21.27522162011522
 20
-18.8783997891172
 10
21.25489555675225
 20
-18.88094915977629
 10
21.25489555675225
 20
-18.88094915977629
 10
21.29044894216003
 20
-18.61674478701248
 10
21.29044894216003
 20
-18.61674478701248
 10
21.29044894216003
 20
-18.61674478701248
 10
21.55379204105252
 20
-18.61674478701248
 10
21.55379204105252
 20
-18.61674478701248
 10
21.55379204105252
 20
-18.61674478701248
 10
21.55379204105252
 20
-18.67941107388917
 10
21.55379204105252
 20
-18.67941107388917
 97
        0
 97
        0
 75
     2
 76
     1
 98
        0
450
        0
451
        0
460
0.0
461
0.0
452
        0
462
0.0
453
        0
470

  0
ENDBLK
  5
EC
330
E9
100
AcDbEntity
  8
0
100
AcDbBlockEnd
  0
BLOCK
  5
101
330
FF
100
AcDbEntity
  8
0
100
AcDbBlockBegin
  2
block 9
 70
     0
 10
0.0
 20
0.0
 30
0.0
  3
block 9
  1

  0
SPLINE
  5
103
330
FF
100
AcDbEntity
  8
Livello 3
370
     0
100
AcDbSpline
210
0.0
220
0.0
230
1.0
 70
     9
 71
     3
 72
    38
 73
    34
 74
     0
 42
0.000000001
 43
0.0000000001
 40
0.0
 40
0.0
 40
0.0
 40
0.0
 40
1.0
 40
1.0
 40
1.0
 40
2.0
 40
2.0
 40
2.0
 40
3.0
 40
3.0
 40
3.0
 40
4.0
 40
4.0
 40
4.0
 40
5.0
 40
5.0
 40
5.0
 40
6.0
 40
6.0
 40
6.0
 40
7.0
 40
7.0
 40
7.0
 40
8.0
 40
8.0
 40
8.0
 40
9.0
 40
9.0
 40
9.0
 40
10.0
 40
10.0
 40
10.0
 40
11.0
 40
11.0
 40
11.0
 40
11.0
 10
24.30997178211695
 20
-13.33761826923504
 30
0.0
 10
24.30911050824564
 20
-13.35284559127984
 30
0.0
 10
24.30997178211695
 20
-13.37231038077151
 30
0.0
 10
24.31334797569249
 20
-13.39349771800579
 30
0.0
 10
24.33284721613901
 20
-13.51035535686547
 30
0.0
 10
24.41835448608291
 20
-13.57216036987085
 30
0.0
 10
24.50896049734498
 20
-13.58483832125657
 30
0.0
 10
24.50896049734498
 20
-13.58483832125657
 30
0.0
 10
24.50896049734498
 20
-13.58228895059748
 30
0.0
 10
24.50896049734498
 20
-13.58228895059748
 30
0.0
 10
24.47423393485366
 20
-13.55603732299988
 30
0.0
 10
24.44546738755183
 20
-13.51035535686547
 30
0.0
 10
24.44546738755183
 20
-13.44937716677654
 30
0.0
 10
24.44546738755183
 20
-13.35201876836338
 30
0.0
 10
24.51574733545092
 20
-13.28339246629721
 30
0.0
 10
24.62326876554557
 20
-13.28339246629721
 30
0.0
 10
24.72403780848912
 20
-13.28339246629721
 30
0.0
 10
24.81715873945543
 20
-13.35201876836338
 30
0.0
 10
24.81715873945543
 20
-13.46632703656397
 30
0.0
 10
24.81715873945543
 20
-13.58401149834011
 30
0.0
 10
24.7257259052769
 20
-13.66104383339029
 30
0.0
 10
24.58261663881962
 20
-13.66104383339029
 30
0.0
 10
24.47423393485366
 20
-13.66104383339029
 30
0.0
 10
24.38872666490977
 20
-13.62211425440697
 30
0.0
 10
24.33453531292678
 20
-13.56792290242399
 30
0.0
 10
24.28964571875398
 20
-13.52220648533473
 30
0.0
 10
24.2617059943686
 20
-13.4612282952458
 30
0.0
 10
24.2532310594749
 20
-13.39177517026317
 30
0.0
 10
24.24985486589934
 20
-13.36979546106727
 30
0.0
 10
24.24899359202803
 20
-13.35115749449207
 30
0.0
 10
24.24899359202803
 20
-13.33761826923504
 30
0.0
 10
24.24899359202803
 20
-13.33761826923504
 30
0.0
 10
24.30997178211695
 20
-13.33761826923504
 30
0.0
 10
24.30997178211695
 20
-13.33761826923504
 30
0.0
  0
SPLINE
  5
104
330
FF
100
AcDbEntity
  8
Livello 3
370
     0
100
AcDbSpline
210
0.0
220
0.0
230
1.0
 70
    11
 71
     3
 72
    20
 73
    16
 74
     0
 42
0.000000001
 43
0.0000000001
 40
0.0
 40
0.0
 40
0.0
 40
0.0
 40
1.0
 40
1.0
 40
1.0
 40
2.0
 40
2.0
 40
2.0
 40
3.0
 40
3.0
 40
3.0
 40
4.0
 40
4.0
 40
4.0
 40
5.0
 40
5.0
 40
5.0
 40
5.0
 10
24.62750623299243
 20
-13.35877115551447
 30
0.0
 10
24.54875135019963
 20
-13.35877115551447
 30
0.0
 10
24.50134683632258
 20
-13.40362629873243
 30
0.0
 10
24.50134683632258
 20
-13.4722526007986
 30
0.0
 10
24.50134683632258
 20
-13.51710774401656
 30
0.0
 10
24.52928656070796
 20
-13.55858669365896
 30
0.0
 10
24.56907741356259
 20
-13.57891275702194
 30
0.0
 10
24.5775523484563
 20
-13.58401149834011
 30
0.0
 10
24.58854220305425
 20
-13.58738769191565
 30
0.0
 10
24.60211587926615
 20
-13.58738769191565
 30
0.0
 10
24.69268743957335
 20
-13.58569959512788
 30
0.0
 10
24.75959119389691
 20
-13.54418619453062
 30
0.0
 10
24.75959119389691
 20
-13.46632703656397
 30
0.0
 10
24.75959119389691
 20
-13.40197265289951
 30
0.0
 10
24.70626111578523
 20
-13.35877115551447
 30
0.0
 10
24.62750623299243
 20
-13.35877115551447
 30
0.0
  0
HATCH
  5
105
330
FF
100
AcDbEntity
  8
Livello 3
 62
   250
420
  1842203
100
AcDbHatch
 10
0.0
 20
0.0
 30
0.0
210
0.0
220
0.0
230
1.0
  2
SOLID
 70
     1
 71
     0
 91
        2
 92
        1
 93
        1
 72
     4
 94
        3
 73
     0
 74
     0
 95
       38
 96
       34
 40
0.0
 40
0.0
 40
0.0
 40
0.0
 40
1.0
 40
1.0
 40
1.0
 40
2.0
 40
2.0
 40
2.0
 40
3.0
 40
3.0
 40
3.0
 40
4.0
 40
4.0
 40
4.0
 40
5.0
 40
5.0
 40
5.0
 40
6.0
 40
6.0
 40
6.0
 40
7.0
 40
7.0
 40
7.0
 40
8.0
 40
8.0
 40
8.0
 40
9.0
 40
9.0
 40
9.0
 40
10.0
 40
10.0
 40
10.0
 40
11.0
 40
11.0
 40
11.0
 40
11.0
 10
24.30997178211695
 20
-13.33761826923504
 10
24.30911050824564
 20
-13.35284559127984
 10
24.30997178211695
 20
-13.37231038077151
 10
24.31334797569249
 20
-13.39349771800579
 10
24.33284721613901
 20
-13.51035535686547
 10
24.41835448608291
 20
-13.57216036987085
 10
24.50896049734498
 20
-13.58483832125657
 10
24.50896049734498
 20
-13.58483832125657
 10
24.50896049734498
 20
-13.58228895059748
 10
24.50896049734498
 20
-13.58228895059748
 10
24.47423393485366
 20
-13.55603732299988
 10
24.44546738755183
 20
-13.51035535686547
 10
24.44546738755183
 20
-13.44937716677654
 10
24.44546738755183
 20
-13.35201876836338
 10
24.51574733545092
 20
-13.28339246629721
 10
24.62326876554557
 20
-13.28339246629721
 10
24.72403780848912
 20
-13.28339246629721
 10
24.81715873945543
 20
-13.35201876836338
 10
24.81715873945543
 20
-13.46632703656397
 10
24.81715873945543
 20
-13.58401149834011
 10
24.7257259052769
 20
-13.66104383339029
 10
24.58261663881962
 20
-13.66104383339029
 10
24.47423393485366
 20
-13.66104383339029
 10
24.38872666490977
 20
-13.62211425440697
 10
24.33453531292678
 20
-13.56792290242399
 10
24.28964571875398
 20
-13.52220648533473
 10
24.2617059943686
 20
-13.4612282952458
 10
24.2532310594749
 20
-13.39177517026317
 10
24.24985486589934
 20
-13.36979546106727
 10
24.24899359202803
 20
-13.35115749449207
 10
24.24899359202803
 20
-13.33761826923504
 10
24.24899359202803
 20
-13.33761826923504
 10
24.30997178211695
 20
-13.33761826923504
 10
24.30997178211695
 20
-13.33761826923504
 97
        0
 97
        0
 92
        1
 93
        1
 72
     4
 94
        3
 73
     0
 74
     0
 95
       20
 96
       16
 40
0.0
 40
0.0
 40
0.0
 40
0.0
 40
1.0
 40
1.0
 40
1.0
 40
2.0
 40
2.0
 40
2.0
 40
3.0
 40
3.0
 40
3.0
 40
4.0
 40
4.0
 40
4.0
 40
5.0
 40
5.0
 40
5.0
 40
5.0
 10
24.62750623299243
 20
-13.35877115551447
 10
24.54875135019963
 20
-13.35877115551447
 10
24.50134683632258
 20
-13.40362629873243
 10
24.50134683632258
 20
-13.4722526007986
 10
24.50134683632258
 20
-13.51710774401656
 10
24.52928656070796
 20
-13.55858669365896
 10
24.56907741356259
 20
-13.57891275702194
 10
24.5775523484563
 20
-13.58401149834011
 10
24.58854220305425
 20
-13.58738769191565
 10
24.60211587926615
 20
-13.58738769191565
 10
24.69268743957335
 20
-13.58569959512788
 10
24.75959119389691
 20
-13.54418619453062
 10
24.75959119389691
 20
-13.46632703656397
 10
24.75959119389691
 20
-13.40197265289951
 10
24.70626111578523
 20
-13.35877115551447
 10
24.62750623299243
 20
-13.35877115551447
 97
        0
 97
        0
 75
     2
 76
     1
 98
        0
450
        0
451
        0
460
0.0
461
0.0
452
        0
462
0.0
453
        0
470

  0
SPLINE
  5
106
330
FF
100
AcDbEntity
  8
Livello 3
370
     0
100
AcDbSpline
210
0.0
220
0.0
230
1.0
 70
     9
 71
     3
 72
    17
 73
    13
 74
     0
 42
0.000000001
 43
0.0000000001
 40
0.0
 40
0.0
 40
0.0
 40
0.0
 40
1.0
 40
1.0
 40
1.0
 40
2.0
 40
2.0
 40
2.0
 40
3.0
 40
3.0
 40
3.0
 40
4.0
 40
4.0
 40
4.0
 40
4.0
 10
24.52673719004887
 20
-12.85161864913085
 30
0.0
 10
24.71387477680764
 20
-12.85161864913085
 30
0.0
 10
24.81715873945543
 20
-12.92103732315863
 30
0.0
 10
24.81715873945543
 20
-13.04299370333647
 30
0.0
 10
24.81715873945543
 20
-13.15054958438597
 30
0.0
 10
24.71642414746674
 20
-13.2233444519893
 30
0.0
 10
24.53435085107127
 20
-13.22503254877707
 30
0.0
 10
24.34976263497159
 20
-13.22503254877707
 30
0.0
 10
24.24816676911157
 20
-13.1454508430678
 30
0.0
 10
24.24816676911157
 20
-13.0336919455263
 30
0.0
 10
24.24816676911157
 20
-12.91766112958308
 30
0.0
 10
24.35145073175936
 20
-12.85161864913085
 30
0.0
 10
24.52673719004887
 20
-12.85161864913085
 30
0.0
  0
SPLINE
  5
107
330
FF
100
AcDbEntity
  8
Livello 3
370
     0
100
AcDbSpline
210
0.0
220
0.0
230
1.0
 70
     9
 71
     3
 72
    17
 73
    13
 74
     0
 42
0.000000001
 43
0.0000000001
 40
0.0
 40
0.0
 40
0.0
 40
0.0
 40
1.0
 40
1.0
 40
1.0
 40
2.0
 40
2.0
 40
2.0
 40
3.0
 40
3.0
 40
3.0
 40
4.0
 40
4.0
 40
4.0
 40
4.0
 10
24.53521212494259
 20
-13.15054958438597
 30
0.0
 10
24.67832139139986
 20
-13.15054958438597
 30
0.0
 10
24.75959119389691
 20
-13.10648681312963
 30
0.0
 10
24.75959119389691
 20
-13.03875623588961
 30
0.0
 10
24.75959119389691
 20
-12.96255072375589
 30
0.0
 10
24.67067327942261
 20
-12.9261360644768
 30
0.0
 10
24.53011338362441
 20
-12.9261360644768
 30
0.0
 10
24.39465222914439
 20
-12.9261360644768
 30
0.0
 10
24.30573431467009
 20
-12.96086262696812
 30
0.0
 10
24.30573431467009
 20
-13.0378949620183
 30
0.0
 10
24.30573431467009
 20
-13.10311061955408
 30
0.0
 10
24.38535047133422
 20
-13.15054958438597
 30
0.0
 10
24.53521212494259
 20
-13.15054958438597
 30
0.0
  0
HATCH
  5
108
330
FF
100
AcDbEntity
  8
Livello 3
 62
   250
420
  1842203
100
AcDbHatch
 10
0.0
 20
0.0
 30
0.0
210
0.0
220
0.0
230
1.0
  2
SOLID
 70
     1
 71
     0
 91
        2
 92
        1
 93
        1
 72
     4
 94
        3
 73
     0
 74
     0
 95
       17
 96
       13
 40
0.0
 40
0.0
 40
0.0
 40
0.0
 40
1.0
 40
1.0
 40
1.0
 40
2.0
 40
2.0
 40
2.0
 40
3.0
 40
3.0
 40
3.0
 40
4.0
 40
4.0
 40
4.0
 40
4.0
 10
24.52673719004887
 20
-12.85161864913085
 10
24.71387477680764
 20
-12.85161864913085
 10
24.81715873945543
 20
-12.92103732315863
 10
24.81715873945543
 20
-13.04299370333647
 10
24.81715873945543
 20
-13.15054958438597
 10
24.71642414746674
 20
-13.2233444519893
 10
24.53435085107127
 20
-13.22503254877707
 10
24.34976263497159
 20
-13.22503254877707
 10
24.24816676911157
 20
-13.1454508430678
 10
24.24816676911157
 20
-13.0336919455263
 10
24.24816676911157
 20
-12.91766112958308
 10
24.35145073175936
 20
-12.85161864913085
 10
24.52673719004887
 20
-12.85161864913085
 97
        0
 97
        0
 92
        1
 93
        1
 72
     4
 94
        3
 73
     0
 74
     0
 95
       17
 96
       13
 40
0.0
 40
0.0
 40
0.0
 40
0.0
 40
1.0
 40
1.0
 40
1.0
 40
2.0
 40
2.0
 40
2.0
 40
3.0
 40
3.0
 40
3.0
 40
4.0
 40
4.0
 40
4.0
 40
4.0
 10
24.53521212494259
 20
-13.15054958438597
 10
24.67832139139986
 20
-13.15054958438597
 10
24.75959119389691
 20
-13.10648681312963
 10
24.75959119389691
 20
-13.03875623588961
 10
24.75959119389691
 20
-12.96255072375589
 10
24.67067327942261
 20
-12.9261360644768
 10
24.53011338362441
 20
-12.9261360644768
 10
24.39465222914439
 20
-12.9261360644768
 10
24.30573431467009
 20
-12.96086262696812
 10
24.30573431467009
 20
-13.0378949620183
 10
24.30573431467009
 20
-13.10311061955408
 10
24.38535047133422
 20
-13.15054958438597
 10
24.53521212494259
 20
-13.15054958438597
 97
        0
 97
        0
 75
     2
 76
     1
 98
        0
450
        0
451
        0
460
0.0
461
0.0
452
        0
462
0.0
453
        0
470

  0
ENDBLK
  5
102
330
FF
100
AcDbEntity
  8
0
100
AcDbBlockEnd
  0
ENDSEC
  0
SECTION
  2
ENTITIES
  0
LINE
  5
156
330
1F
100
AcDbEntity
  8
Livello 3
100
AcDbLine
 10
22.17907835083124
 20
-18.32915857875102
 30
0.0
 11
20.48185443932397
 21
-18.32915857875102
 31
0.0
  0
LINE
  5
157
330
1F
100
AcDbEntity
  8
Livello 3
100
AcDbLine
 10
20.48185443932397
 20
-18.32915857875102
 30
0.0
 11
20.48185443932397
 21
-18.26762002321086
 31
0.0
  0
LINE
  5
158
330
1F
100
AcDbEntity
  8
Livello 3
100
AcDbLine
 10
20.48185443932397
 20
-18.26762002321086
 30
0.0
 11
22.17907835083124
 21
-18.26762002321086
 31
0.0
  0
LINE
  5
159
330
1F
100
AcDbEntity
  8
Livello 3
100
AcDbLine
 10
22.17907835083124
 20
-18.26762002321086
 30
0.0
 11
22.17907835083124
 21
-18.32915857875102
 31
0.0
  0
LINE
  5
15C
330
1F
100
AcDbEntity
  8
Livello 3
100
AcDbLine
 10
21.97389277228429
 20
-18.2758256343199
 30
0.0
 11
20.74293063747042
 21
-18.2758256343199
 31
0.0
  0
LINE
  5
15D
330
1F
100
AcDbEntity
  8
Livello 3
100
AcDbLine
 10
20.74293063747042
 20
-18.2758256343199
 30
0.0
 11
20.74293063747042
 21
-17.51917727339795
 31
0.0
  0
LINE
  5
15E
330
1F
100
AcDbEntity
  8
Livello 3
100
AcDbLine
 10
20.74293063747042
 20
-17.51917727339795
 30
0.0
 11
21.97389277228429
 21
-17.51917727339795
 31
0.0
  0
LINE
  5
15F
330
1F
100
AcDbEntity
  8
Livello 3
100
AcDbLine
 10
21.97389277228429
 20
-17.51917727339795
 30
0.0
 11
21.97389277228429
 21
-18.2758256343199
 31
0.0
  0
LINE
  5
1A2
330
1F
100
AcDbEntity
  8
Livello 3
100
AcDbLine
 10
18.24913575568025
 20
-18.42613052625775
 30
0.0
 11
19.91049326885105
 21
-18.42613052625775
 31
0.0
  0
LINE
  5
1A3
330
1F
100
AcDbEntity
  8
Livello 3
100
AcDbLine
 10
20.42285540747636
 20
-18.42613052625775
 30
0.0
 11
22.18898652268882
 21
-18.42613052625775
 31
0.0
  0
HATCH
  5
1A6
330
1F
100
AcDbEntity
  8
Livello 3
100
AcDbHatch
 10
0.0
 20
0.0
 30
0.0
210
0.0
220
0.0
230
1.0
  2
SOLID
 70
     1
 71
     0
 91
        2
 92
        1
 93
        1
 72
     4
 94
        3
 73
     0
 74
     0
 95
       41
 96
       37
 40
0.0
 40
0.0
 40
0.0
 40
0.0
 40
1.0
 40
1.0
 40
1.0
 40
2.0
 40
2.0
 40
2.0
 40
3.0
 40
3.0
 40
3.0
 40
4.0
 40
4.0
 40
4.0
 40
5.0
 40
5.0
 40
5.0
 40
6.0
 40
6.0
 40
6.0
 40
7.0
 40
7.0
 40
7.0
 40
8.0
 40
8.0
 40
8.0
 40
9.0
 40
9.0
 40
9.0
 40
10.0
 40
10.0
 40
10.0
 40
11.0
 40
11.0
 40
11.0
 40
12.0
 40
12.0
 40
12.0
 40
12.0
 10
18.54239962644079
 20
-19.11462998654078
 10
18.5584882223569
 20
-19.11631808332856
 10
18.57712618893211
 20
-19.11462998654078
 10
18.6025165426584
 20
-19.1120806158817
 10
18.64571804004343
 20
-19.10615505164707
 10
18.68637016676938
 20
-19.08837835894318
 10
18.7176860847303
 20
-19.05875053777003
 10
18.75410074400939
 20
-19.02571207206649
 10
18.78035237160698
 20
-18.97748073527299
 10
18.79051540328848
 20
-18.91226507773721
 10
18.79051540328848
 20
-18.91226507773721
 10
18.7879660326294
 20
-18.91226507773721
 10
18.7879660326294
 20
-18.91226507773721
 10
18.75747693758494
 20
-18.94950655993276
 10
18.71344861728344
 20
-18.97152072008351
 10
18.65839599142915
 20
-18.97152072008351
 10
18.55934949622822
 20
-18.97152072008351
 10
18.49582193548021
 20
-18.89703775569241
 10
18.49582193548021
 20
-18.80302109989994
 10
18.49582193548021
 20
-18.69887586338083
 10
18.57120062469748
 20
-18.6074430292023
 10
18.68382079611029
 20
-18.6074430292023
 10
18.79644096752311
 20
-18.6074430292023
 10
18.86585964155089
 20
-18.69887586338083
 10
18.86585964155089
 20
-18.83943575917903
 10
18.86585964155089
 20
-18.96053086548556
 10
18.82520751482495
 20
-19.045211312513
 10
18.77101616284196
 20
-19.09771456770821
 10
18.72867593932825
 20
-19.13919351735062
 10
18.67028157085326
 20
-19.16458387107691
 10
18.61099147755211
 20
-19.17137070918285
 10
18.58391302703805
 20
-19.17560817662971
 10
18.56017631914468
 20
-19.17643499954617
 10
18.54239962644079
 20
-19.17560817662971
 10
18.54239962644079
 20
-19.17560817662971
 10
18.54239962644079
 20
-19.11462998654078
 10
18.54239962644079
 20
-19.11462998654078
 97
        0
 97
        0
 92
        1
 93
        1
 72
     4
 94
        3
 73
     0
 74
     0
 95
       20
 96
       16
 40
0.0
 40
0.0
 40
0.0
 40
0.0
 40
1.0
 40
1.0
 40
1.0
 40
2.0
 40
2.0
 40
2.0
 40
3.0
 40
3.0
 40
3.0
 40
4.0
 40
4.0
 40
4.0
 40
5.0
 40
5.0
 40
5.0
 40
5.0
 10
18.5695125279097
 20
-18.79795680953662
 10
18.5695125279097
 20
-18.86654866064794
 10
18.61099147755211
 20
-18.9148144483963
 10
18.67534586121658
 20
-18.9148144483963
 10
18.7252997457527
 20
-18.9148144483963
 10
18.76426377569088
 20
-18.89025091758646
 10
18.78372856518254
 20
-18.85721245188292
 10
18.7879660326294
 20
-18.85046006473183
 10
18.79051540328848
 20
-18.84198512983811
 10
18.79051540328848
 20
-18.83013400136885
 10
18.79051540328848
 20
-18.73615179653124
 10
18.75578884079716
 20
-18.66418375184437
 10
18.67789523187566
 20
-18.66418375184437
 10
18.61436767112766
 20
-18.66418375184437
 10
18.5695125279097
 20
-18.72006320061512
 10
18.5695125279097
 20
-18.79795680953662
 97
        0
 97
        0
 75
     2
 76
     1
 98
        0
450
        0
451
        0
460
0.0
461
0.0
452
        0
462
0.0
453
        0
470

  0
HATCH
  5
1A8
330
1F
100
AcDbEntity
  8
Livello 3
100
AcDbHatch
 10
0.0
 20
0.0
 30
0.0
210
0.0
220
0.0
230
1.0
  2
SOLID
 70
     1
 71
     0
 91
        1
 92
        1
 93
        1
 72
     4
 94
        3
 73
     0
 74
     0
 95
       17
 96
       13
 40
0.0
 40
0.0
 40
0.0
 40
0.0
 40
1.0
 40
1.0
 40
1.0
 40
2.0
 40
2.0
 40
2.0
 40
3.0
 40
3.0
 40
3.0
 40
4.0
 40
4.0
 40
4.0
 40
4.0
 10
18.90899223702622
 20
-19.27127847825509
 10
18.92763020360142
 20
-19.22132459371897
 10
18.95047118666863
 20
-19.1307185824569
 10
18.95980739543366
 20
-19.06891356945152
 10
18.95980739543366
 20
-19.06891356945152
 10
19.04276529471847
 20
-19.0604386345578
 10
19.04276529471847
 20
-19.0604386345578
 10
19.02330050522681
 20
-19.13240667924467
 10
18.98605902303126
 20
-19.22638888408229
 10
18.96232231513789
 20
-19.26621418789178
 10
18.96232231513789
 20
-19.26621418789178
 10
18.90899223702622
 20
-19.27127847825509
 10
18.90899223702622
 20
-19.27127847825509
 97
        0
 97
        0
 75
     2
 76
     1
 98
        0
450
        0
451
        0
460
0.0
461
0.0
452
        0
462
0.0
453
        0
470

  0
HATCH
  5
1AA
330
1F
100
AcDbEntity
  8
Livello 3
100
AcDbHatch
 10
0.0
 20
0.0
 30
0.0
210
0.0
220
0.0
230
1.0
  2
SOLID
 70
     1
 71
     0
 91
        1
 92
        1
 93
        1
 72
     4
 94
        3
 73
     0
 74
     0
 95
       50
 96
       46
 40
0.0
 40
0.0
 40
0.0
 40
0.0
 40
1.0
 40
1.0
 40
1.0
 40
2.0
 40
2.0
 40
2.0
 40
3.0
 40
3.0
 40
3.0
 40
4.0
 40
4.0
 40
4.0
 40
5.0
 40
5.0
 40
5.0
 40
6.0
 40
6.0
 40
6.0
 40
7.0
 40
7.0
 40
7.0
 40
8.0
 40
8.0
 40
8.0
 40
9.0
 40
9.0
 40
9.0
 40
10.0
 40
10.0
 40
10.0
 40
11.0
 40
11.0
 40
11.0
 40
12.0
 40
12.0
 40
12.0
 40
13.0
 40
13.0
 40
13.0
 40
14.0
 40
14.0
 40
14.0
 40
15.0
 40
15.0
 40
15.0
 40
15.0
 10
19.43733208064414
 20
-18.67941107388917
 10
19.43733208064414
 20
-18.67941107388917
 10
19.22735351081816
 20
-18.67941107388917
 10
19.22735351081816
 20
-18.67941107388917
 10
19.22735351081816
 20
-18.67941107388917
 10
19.20616617358387
 20
-18.82083224355868
 10
19.20616617358387
 20
-18.82083224355868
 10
19.21887857592445
 20
-18.81910969581605
 10
19.23072970439371
 20
-18.81742159902828
 10
19.25105576775668
 20
-18.81742159902828
 10
19.2933959912704
 20
-18.81742159902828
 10
19.33573621478412
 20
-18.82675780779331
 10
19.36960150340413
 20
-18.84704942020143
 10
19.41276854983431
 20
-18.87161295101126
 10
19.44835638619694
 20
-18.91905191584315
 10
19.44835638619694
 20
-18.98847058987094
 10
19.44835638619694
 20
-19.09599201996559
 10
19.36281466529818
 20
-19.17643499954617
 10
19.24344210673428
 20
-19.17643499954617
 10
19.18332519051667
 20
-19.17643499954617
 10
19.13251003210923
 20
-19.15951958071359
 10
19.10625840451163
 20
-19.14256971092616
 10
19.10625840451163
 20
-19.14256971092616
 10
19.12489637108683
 20
-19.08586343923895
 10
19.12489637108683
 20
-19.08586343923895
 10
19.14773735415404
 20
-19.09940266449598
 10
19.19262694832684
 20
-19.11631808332856
 10
19.24258083286296
 20
-19.11631808332856
 10
19.31286078076206
 20
-19.11631808332856
 10
19.37297769697967
 20
-19.07060166623929
 10
19.37297769697967
 20
-18.99694552476464
 10
19.37215087406321
 20
-18.92580430299424
 10
19.32471190923132
 20
-18.87502359554166
 10
19.21464110847759
 20
-18.87502359554166
 10
19.18332519051667
 20
-18.87502359554166
 10
19.15876165970684
 20
-18.8783997891172
 10
19.13843559634386
 20
-18.88094915977629
 10
19.13843559634386
 20
-18.88094915977629
 10
19.17398898175164
 20
-18.61674478701248
 10
19.17398898175164
 20
-18.61674478701248
 10
19.17398898175164
 20
-18.61674478701248
 10
19.43733208064414
 20
-18.61674478701248
 10
19.43733208064414
 20
-18.61674478701248
 10
19.43733208064414
 20
-18.61674478701248
 10
19.43733208064414
 20
-18.67941107388917
 10
19.43733208064414
 20
-18.67941107388917
 97
        0
 97
        0
 75
     2
 76
     1
 98
        0
450
        0
451
        0
460
0.0
461
0.0
452
        0
462
0.0
453
        0
470

  0
HATCH
  5
1B6
330
1F
100
AcDbEntity
  8
Livello 3
100
AcDbHatch
 10
0.0
 20
0.0
 30
0.0
210
0.0
220
0.0
230
1.0
  2
SOLID
 70
     1
 71
     0
 91
        1
 92
        1
 93
        8
 72
     1
 10
20.95265732983128
 20
-18.68619791199512
 11
20.95096923304351
 21
-18.68619791199512
 72
     1
 10
20.95096923304351
 20
-18.68619791199512
 11
20.85529893141812
 21
-18.73783989331901
 72
     1
 10
20.85529893141812
 20
-18.73783989331901
 11
20.84089843228977
 21
-18.68109917067695
 72
     1
 10
20.84089843228977
 20
-18.68109917067695
 11
20.96113226472499
 21
-18.61674478701248
 72
     1
 10
20.96113226472499
 20
-18.61674478701248
 11
21.02462537451815
 21
-18.61674478701248
 72
     1
 10
21.02462537451815
 20
-18.61674478701248
 11
21.02462537451815
 21
-19.16713324173599
 72
     1
 10
21.02462537451815
 20
-19.16713324173599
 11
20.95265732983128
 21
-19.16713324173599
 72
     1
 10
20.95265732983128
 20
-19.16713324173599
 11
20.95265732983128
 21
-18.68619791199512
 97
        0
 75
     2
 76
     1
 98
        0
450
        0
451
        0
460
0.0
461
0.0
452
        0
462
0.0
453
        0
470

  0
HATCH
  5
1B8
330
1F
100
AcDbEntity
  8
Livello 3
100
AcDbHatch
 10
0.0
 20
0.0
 30
0.0
210
0.0
220
0.0
230
1.0
  2
SOLID
 70
     1
 71
     0
 91
        1
 92
        1
 93
        1
 72
     4
 94
        3
 73
     0
 74
     0
 95
       50
 96
       46
 40
0.0
 40
0.0
 40
0.0
 40
0.0
 40
1.0
 40
1.0
 40
1.0
 40
2.0
 40
2.0
 40
2.0
 40
3.0
 40
3.0
 40
3.0
 40
4.0
 40
4.0
 40
4.0
 40
5.0
 40
5.0
 40
5.0
 40
6.0
 40
6.0
 40
6.0
 40
7.0
 40
7.0
 40
7.0
 40
8.0
 40
8.0
 40
8.0
 40
9.0
 40
9.0
 40
9.0
 40
10.0
 40
10.0
 40
10.0
 40
11.0
 40
11.0
 40
11.0
 40
12.0
 40
12.0
 40
12.0
 40
13.0
 40
13.0
 40
13.0
 40
14.0
 40
14.0
 40
14.0
 40
15.0
 40
15.0
 40
15.0
 40
15.0
 10
21.55379204105252
 20
-18.67941107388917
 10
21.55379204105252
 20
-18.67941107388917
 10
21.34381347122655
 20
-18.67941107388917
 10
21.34381347122655
 20
-18.67941107388917
 10
21.34381347122655
 20
-18.67941107388917
 10
21.32262613399226
 20
-18.82083224355868
 10
21.32262613399226
 20
-18.82083224355868
 10
21.33533853633283
 20
-18.81910969581605
 10
21.34718966480209
 20
-18.81742159902828
 10
21.36751572816506
 20
-18.81742159902828
 10
21.40985595167879
 20
-18.81742159902828
 10
21.4521961751925
 20
-18.82675780779331
 10
21.48606146381252
 20
-18.84704942020143
 10
21.52922851024269
 20
-18.87161295101126
 10
21.56481634660532
 20
-18.91905191584315
 10
21.56481634660532
 20
-18.98847058987094
 10
21.56481634660532
 20
-19.09599201996559
 10
21.47927462570657
 20
-19.17643499954617
 10
21.35990206714266
 20
-19.17643499954617
 10
21.29978515092505
 20
-19.17643499954617
 10
21.24896999251762
 20
-19.15951958071359
 10
21.22271836492001
 20
-19.14256971092616
 10
21.22271836492001
 20
-19.14256971092616
 10
21.24135633149521
 20
-19.08586343923895
 10
21.24135633149521
 20
-19.08586343923895
 10
21.26419731456242
 20
-19.09940266449598
 10
21.30908690873523
 20
-19.11631808332856
 10
21.35904079327135
 20
-19.11631808332856
 10
21.42932074117045
 20
-19.11631808332856
 10
21.48943765738806
 20
-19.07060166623929
 10
21.48943765738806
 20
-18.99694552476464
 10
21.4886108344716
 20
-18.92580430299424
 10
21.44117186963971
 20
-18.87502359554166
 10
21.33110106888597
 20
-18.87502359554166
 10
21.29978515092505
 20
-18.87502359554166
 10
21.27522162011522
 20
-18.8783997891172
 10
21.25489555675225
 20
-18.88094915977629
 10
21.25489555675225
 20
-18.88094915977629
 10
21.29044894216003
 20
-18.61674478701248
 10
21.29044894216003
 20
-18.61674478701248
 10
21.29044894216003
 20
-18.61674478701248
 10
21.55379204105252
 20
-18.61674478701248
 10
21.55379204105252
 20
-18.61674478701248
 10
21.55379204105252
 20
-18.61674478701248
 10
21.55379204105252
 20
-18.67941107388917
 10
21.55379204105252
 20
-18.67941107388917
 97
        0
 97
        0
 75
     2
 76
     1
 98
        0
450
        0
451
        0
460
0.0
461
0.0
452
        0
462
0.0
453
        0
470

  0
LINE
  5
1B9
330
1F
100
AcDbEntity
  8
Livello 3
100
AcDbLine
 10
23.82425925330322
 20
-18.42613052625775
 30
0.0
 11
23.82425925330322
 21
-7.265123192628152
 31
0.0
  0
HATCH
  5
1BC
330
1F
100
AcDbEntity
  8
Livello 3
100
AcDbHatch
 10
0.0
 20
0.0
 30
0.0
210
0.0
220
0.0
230
1.0
  2
SOLID
 70
     1
 71
     0
 91
        2
 92
        1
 93
        1
 72
     4
 94
        3
 73
     0
 74
     0
 95
       38
 96
       34
 40
0.0
 40
0.0
 40
0.0
 40
0.0
 40
1.0
 40
1.0
 40
1.0
 40
2.0
 40
2.0
 40
2.0
 40
3.0
 40
3.0
 40
3.0
 40
4.0
 40
4.0
 40
4.0
 40
5.0
 40
5.0
 40
5.0
 40
6.0
 40
6.0
 40
6.0
 40
7.0
 40
7.0
 40
7.0
 40
8.0
 40
8.0
 40
8.0
 40
9.0
 40
9.0
 40
9.0
 40
10.0
 40
10.0
 40
10.0
 40
11.0
 40
11.0
 40
11.0
 40
11.0
 10
24.30997178211695
 20
-13.33761826923504
 10
24.30911050824564
 20
-13.35284559127984
 10
24.30997178211695
 20
-13.37231038077151
 10
24.31334797569249
 20
-13.39349771800579
 10
24.33284721613901
 20
-13.51035535686547
 10
24.41835448608291
 20
-13.57216036987085
 10
24.50896049734498
 20
-13.58483832125657
 10
24.50896049734498
 20
-13.58483832125657
 10
24.50896049734498
 20
-13.58228895059748
 10
24.50896049734498
 20
-13.58228895059748
 10
24.47423393485366
 20
-13.55603732299988
 10
24.44546738755183
 20
-13.51035535686547
 10
24.44546738755183
 20
-13.44937716677654
 10
24.44546738755183
 20
-13.35201876836338
 10
24.51574733545092
 20
-13.28339246629721
 10
24.62326876554557
 20
-13.28339246629721
 10
24.72403780848912
 20
-13.28339246629721
 10
24.81715873945543
 20
-13.35201876836338
 10
24.81715873945543
 20
-13.46632703656397
 10
24.81715873945543
 20
-13.58401149834011
 10
24.7257259052769
 20
-13.66104383339029
 10
24.58261663881962
 20
-13.66104383339029
 10
24.47423393485366
 20
-13.66104383339029
 10
24.38872666490977
 20
-13.62211425440697
 10
24.33453531292678
 20
-13.56792290242399
 10
24.28964571875398
 20
-13.52220648533473
 10
24.2617059943686
 20
-13.4612282952458
 10
24.2532310594749
 20
-13.39177517026317
 10
24.24985486589934
 20
-13.36979546106727
 10
24.24899359202803
 20
-13.35115749449207
 10
24.24899359202803
 20
-13.33761826923504
 10
24.24899359202803
 20
-13.33761826923504
 10
24.30997178211695
 20
-13.33761826923504
 10
24.30997178211695
 20
-13.33761826923504
 97
        0
 97
        0
 92
        1
 93
        1
 72
     4
 94
        3
 73
     0
 74
     0
 95
       20
 96
       16
 40
0.0
 40
0.0
 40
0.0
 40
0.0
 40
1.0
 40
1.0
 40
1.0
 40
2.0
 40
2.0
 40
2.0
 40
3.0
 40
3.0
 40
3.0
 40
4.0
 40
4.0
 40
4.0
 40
5.0
 40
5.0
 40
5.0
 40
5.0
 10
24.62750623299243
 20
-13.35877115551447
 10
24.54875135019963
 20
-13.35877115551447
 10
24.50134683632258
 20
-13.40362629873243
 10
24.50134683632258
 20
-13.4722526007986
 10
24.50134683632258
 20
-13.51710774401656
 10
24.52928656070796
 20
-13.55858669365896
 10
24.56907741356259
 20
-13.57891275702194
 10
24.5775523484563
 20
-13.58401149834011
 10
24.58854220305425
 20
-13.58738769191565
 10
24.60211587926615
 20
-13.58738769191565
 10
24.69268743957335
 20
-13.58569959512788
 10
24.75959119389691
 20
-13.54418619453062
 10
24.75959119389691
 20
-13.46632703656397
 10
24.75959119389691
 20
-13.40197265289951
 10
24.70626111578523
 20
-13.35877115551447
 10
24.62750623299243
 20
-13.35877115551447
 97
        0
 97
        0
 75
     2
 76
     1
 98
        0
450
        0
451
        0
460
0.0
461
0.0
452
        0
462
0.0
453
        0
470

  0
SPLINE
  5
1BE
330
1F
100
AcDbEntity
  8
Livello 3
100
AcDbSpline
210
0.0
220
0.0
230
1.0
 70
     9
 71
     3
 72
    17
 73
    13
 74
     0
 42
0.000000001
 43
0.0000000001
 40
0.0
 40
0.0
 40
0.0
 40
0.0
 40
1.0
 40
1.0
 40
1.0
 40
2.0
 40
2.0
 40
2.0
 40
3.0
 40
3.0
 40
3.0
 40
4.0
 40
4.0
 40
4.0
 40
4.0
 10
24.53521212494259
 20
-13.15054958438597
 30
0.0
 10
24.67832139139986
 20
-13.15054958438597
 30
0.0
 10
24.75959119389691
 20
-13.10648681312963
 30
0.0
 10
24.75959119389691
 20
-13.03875623588961
 30
0.0
 10
24.75959119389691
 20
-12.96255072375589
 30
0.0
 10
24.67067327942261
 20
-12.9261360644768
 30
0.0
 10
24.53011338362441
 20
-12.9261360644768
 30
0.0
 10
24.39465222914439
 20
-12.9261360644768
 30
0.0
 10
24.30573431467009
 20
-12.96086262696812
 30
0.0
 10
24.30573431467009
 20
-13.0378949620183
 30
0.0
 10
24.30573431467009
 20
-13.10311061955408
 30
0.0
 10
24.38535047133422
 20
-13.15054958438597
 30
0.0
 10
24.53521212494259
 20
-13.15054958438597
 30
0.0
  0
HATCH
  5
1BF
330
1F
100
AcDbEntity
  8
Livello 3
100
AcDbHatch
 10
0.0
 20
0.0
 30
0.0
210
0.0
220
0.0
230
1.0
  2
SOLID
 70
     1
 71
     0
 91
        2
 92
        1
 93
        1
 72
     4
 94
        3
 73
     0
 74
     0
 95
       17
 96
       13
 40
0.0
 40
0.0
 40
0.0
 40
0.0
 40
1.0
 40
1.0
 40
1.0
 40
2.0
 40
2.0
 40
2.0
 40
3.0
 40
3.0
 40
3.0
 40
4.0
 40
4.0
 40
4.0
 40
4.0
 10
24.52673719004887
 20
-12.85161864913085
 10
24.71387477680764
 20
-12.85161864913085
 10
24.81715873945543
 20
-12.92103732315863
 10
24.81715873945543
 20
-13.04299370333647
 10
24.81715873945543
 20
-13.15054958438597
 10
24.71642414746674
 20
-13.2233444519893
 10
24.53435085107127
 20
-13.22503254877707
 10
24.34976263497159
 20
-13.22503254877707
 10
24.24816676911157
 20
-13.1454508430678
 10
24.24816676911157
 20
-13.0336919455263
 10
24.24816676911157
 20
-12.91766112958308
 10
24.35145073175936
 20
-12.85161864913085
 10
24.52673719004887
 20
-12.85161864913085
 97
        0
 97
        0
 92
        1
 93
        1
 72
     4
 94
        3
 73
     0
 74
     0
 95
       17
 96
       13
 40
0.0
 40
0.0
 40
0.0
 40
0.0
 40
1.0
 40
1.0
 40
1.0
 40
2.0
 40
2.0
 40
2.0
 40
3.0
 40
3.0
 40
3.0
 40
4.0
 40
4.0
 40
4.0
 40
4.0
 10
24.53521212494259
 20
-13.15054958438597
 10
24.67832139139986
 20
-13.15054958438597
 10
24.75959119389691
 20
-13.10648681312963
 10
24.75959119389691
 20
-13.03875623588961
 10
24.75959119389691
 20
-12.96255072375589
 10
24.67067327942261
 20
-12.9261360644768
 10
24.53011338362441
 20
-12.9261360644768
 10
24.39465222914439
 20
-12.9261360644768
 10
24.30573431467009
 20
-12.96086262696812
 10
24.30573431467009
 20
-13.0378949620183
 10
24.30573431467009
 20
-13.10311061955408
 10
24.38535047133422
 20
-13.15054958438597
 10
24.53521212494259
 20
-13.15054958438597
 97
        0
 97
        0
 75
     2
 76
     1
 98
        0
450
        0
451
        0
460
0.0
461
0.0
452
        0
462
0.0
453
        0
470

  0
LINE
  5
1C1
330
1F
100
AcDbEntity
  8
Livello 3
100
AcDbLine
 10
19.50942905782855
 20
-18.26110068987919
 30
0.0
 11
18.67433352357806
 21
-18.26110068987919
 31
0.0
  0
LINE
  5
1C2
330
1F
100
AcDbEntity
  8
Livello 3
100
AcDbLine
 10
18.67433352357806
 20
-18.26110068987919
 30
0.0
 11
18.67433352357806
 21
-17.53151038450603
 31
0.0
  0
LINE
  5
1C3
330
1F
100
AcDbEntity
  8
Livello 3
100
AcDbLine
 10
18.67433352357806
 20
-17.53151038450603
 30
0.0
 11
19.50942905782855
 21
-17.53151038450603
 31
0.0
  0
LINE
  5
1C4
330
1F
100
AcDbEntity
  8
Livello 3
100
AcDbLine
 10
19.50942905782855
 20
-17.53151038450603
 30
0.0
 11
19.50942905782855
 21
-18.26110068987919
 31
0.0
  0
LINE
  5
1C5
330
1F
100
AcDbEntity
  8
Livello 3
100
AcDbLine
 10
19.90058552007154
 20
-18.32442782875223
 30
0.0
 11
18.23922800690075
 21
-18.32442782875223
 31
0.0
  0
LINE
  5
1C6
330
1F
100
AcDbEntity
  8
Livello 3
100
AcDbLine
 10
18.23922800690075
 20
-18.32442782875223
 30
0.0
 11
18.23922800690075
 21
-18.26289280098982
 31
0.0
  0
LINE
  5
1C7
330
1F
100
AcDbEntity
  8
Livello 3
100
AcDbLine
 10
18.23922800690075
 20
-18.26289280098982
 30
0.0
 11
19.90058552007154
 21
-18.26289280098982
 31
0.0
  0
LINE
  5
1C8
330
1F
100
AcDbEntity
  8
Livello 3
100
AcDbLine
 10
19.90058552007154
 20
-18.26289280098982
 30
0.0
 11
19.90058552007154
 21
-18.32442782875223
 31
0.0
  0
LINE
  5
1C9
330
1F
100
AcDbEntity
  8
Livello 3
100
AcDbLine
 10
18.67433352357806
 20
-9.233517358802737
 30
0.0
 11
19.50942905782855
 21
-9.233517358802737
 31
0.0
  0
LINE
  5
1CA
330
1F
100
AcDbEntity
  8
Livello 3
100
AcDbLine
 10
19.50942905782855
 20
-9.233517358802737
 30
0.0
 11
19.50942905782855
 21
-17.53151038450603
 31
0.0
  0
LINE
  5
1CB
330
1F
100
AcDbEntity
  8
Livello 3
100
AcDbLine
 10
19.50942905782855
 20
-17.53151038450603
 30
0.0
 11
18.67433352357806
 21
-17.53151038450603
 31
0.0
  0
LINE
  5
1CC
330
1F
100
AcDbEntity
  8
Livello 3
100
AcDbLine
 10
18.67433352357806
 20
-17.53151038450603
 30
0.0
 11
18.67433352357806
 21
-9.233517358802737
 31
0.0
  0
LINE
  5
1CD
330
1F
100
AcDbEntity
  8
Livello 3
100
AcDbLine
 10
18.67434410691112
 20
-7.265123192628152
 30
0.0
 11
19.50941847449549
 21
-7.265123192628152
 31
0.0
  0
LINE
  5
1CE
330
1F
100
AcDbEntity
  8
Livello 3
100
AcDbLine
 10
19.50941847449549
 20
-7.265123192628152
 30
0.0
 11
19.50941847449549
 21
-9.233517358802737
 31
0.0
  0
LINE
  5
1CF
330
1F
100
AcDbEntity
  8
Livello 3
100
AcDbLine
 10
19.50941847449549
 20
-9.233517358802737
 30
0.0
 11
18.67434410691112
 21
-9.233517358802737
 31
0.0
  0
LINE
  5
1D0
330
1F
100
AcDbEntity
  8
Livello 3
100
AcDbLine
 10
18.67434410691112
 20
-9.233517358802737
 30
0.0
 11
18.67434410691112
 21
-7.265123192628152
 31
0.0
  0
SPLINE
  5
1D1
330
1F
100
AcDbEntity
  8
Livello 3
100
AcDbSpline
210
0.0
220
0.0
230
1.0
 70
    24
 71
     3
 72
     8
 73
     4
 74
     0
 42
0.000000001
 43
0.0000000001
 40
0.0
 40
0.0
 40
0.0
 40
0.0
 40
1.0
 40
1.0
 40
1.0
 40
1.0
 10
19.25446999518639
 20
-9.068547886621754
 30
0.0
 10
19.25446999518639
 20
-9.068547886621754
 30
0.0
 10
18.90254193442264
 20
-9.068547886621754
 30
0.0
 10
18.90254193442264
 20
-9.068547886621754
 30
0.0
  0
SPLINE
  5
1D2
330
1F
100
AcDbEntity
  8
Livello 3
100
AcDbSpline
210
0.0
220
0.0
230
1.0
 70
     8
 71
     3
 72
     8
 73
     4
 74
     0
 42
0.000000001
 43
0.0000000001
 40
1.0
 40
1.0
 40
1.0
 40
1.0
 40
2.0
 40
2.0
 40
2.0
 40
2.0
 10
18.90254193442264
 20
-9.068547886621754
 30
0.0
 10
18.8473145747205
 20
-9.068547886621754
 30
0.0
 10
18.80254354808493
 20
-9.023776858855153
 30
0.0
 10
18.80254354808493
 20
-8.968549497757861
 30
0.0
  0
SPLINE
  5
1D3
330
1F
100
AcDbEntity
  8
Livello 3
100
AcDbSpline
210
0.0
220
0.0
230
1.0
 70
    24
 71
     3
 72
     8
 73
     4
 74
     0
 42
0.000000001
 43
0.0000000001
 40
2.0
 40
2.0
 40
2.0
 40
2.0
 40
3.0
 40
3.0
 40
3.0
 40
3.0
 10
18.80254354808493
 20
-8.968549497757861
 30
0.0
 10
18.80254354808493
 20
-8.968549497757861
 30
0.0
 10
18.80254354808493
 20
-7.584224803659486
 30
0.0
 10
18.80254354808493
 20
-7.584224803659486
 30
0.0
  0
SPLINE
  5
1D4
330
1F
100
AcDbEntity
  8
Livello 3
100
AcDbSpline
210
0.0
220
0.0
230
1.0
 70
     8
 71
     3
 72
     8
 73
     4
 74
     0
 42
0.000000001
 43
0.0000000001
 40
3.0
 40
3.0
 40
3.0
 40
3.0
 40
4.0
 40
4.0
 40
4.0
 40
4.0
 10
18.80254354808493
 20
-7.584224803659486
 30
0.0
 10
18.80254354808493
 20
-7.528993914784409
 30
0.0
 10
18.8473145747205
 20
-7.484222887017841
 30
0.0
 10
18.90254193442264
 20
-7.484222887017841
 30
0.0
  0
SPLINE
  5
1D5
330
1F
100
AcDbEntity
  8
Livello 3
100
AcDbSpline
210
0.0
220
0.0
230
1.0
 70
    24
 71
     3
 72
     8
 73
     4
 74
     0
 42
0.000000001
 43
0.0000000001
 40
4.0
 40
4.0
 40
4.0
 40
4.0
 40
5.0
 40
5.0
 40
5.0
 40
5.0
 10
18.90254193442264
 20
-7.484222887017841
 30
0.0
 10
18.90254193442264
 20
-7.484222887017841
 30
0.0
 10
19.25446999518639
 20
-7.484222887017841
 30
0.0
 10
19.25446999518639
 20
-7.484222887017841
 30
0.0
  0
SPLINE
  5
1D6
330
1F
100
AcDbEntity
  8
Livello 3
100
AcDbSpline
210
0.0
220
0.0
230
1.0
 70
     8
 71
     3
 72
     8
 73
     4
 74
     0
 42
0.000000001
 43
0.0000000001
 40
5.0
 40
5.0
 40
5.0
 40
5.0
 40
6.0
 40
6.0
 40
6.0
 40
6.0
 10
19.25446999518639
 20
-7.484222887017841
 30
0.0
 10
19.3096968684797
 20
-7.484222887017841
 30
0.0
 10
19.35446789511527
 20
-7.528993914784409
 30
0.0
 10
19.35446789511527
 20
-7.584224803659486
 30
0.0
  0
SPLINE
  5
1D7
330
1F
100
AcDbEntity
  8
Livello 3
100
AcDbSpline
210
0.0
220
0.0
230
1.0
 70
    24
 71
     3
 72
     8
 73
     4
 74
     0
 42
0.000000001
 43
0.0000000001
 40
6.0
 40
6.0
 40
6.0
 40
6.0
 40
7.0
 40
7.0
 40
7.0
 40
7.0
 10
19.35446789511527
 20
-7.584224803659486
 30
0.0
 10
19.35446789511527
 20
-7.584224803659486
 30
0.0
 10
19.35446789511527
 20
-8.968549497757861
 30
0.0
 10
19.35446789511527
 20
-8.968549497757861
 30
0.0
  0
SPLINE
  5
1D8
330
1F
100
AcDbEntity
  8
Livello 3
100
AcDbSpline
210
0.0
220
0.0
230
1.0
 70
     8
 71
     3
 72
     8
 73
     4
 74
     0
 42
0.000000001
 43
0.0000000001
 40
7.0
 40
7.0
 40
7.0
 40
7.0
 40
8.0
 40
8.0
 40
8.0
 40
8.0
 10
19.35446789511527
 20
-8.968549497757861
 30
0.0
 10
19.35446789511527
 20
-9.023776858855153
 30
0.0
 10
19.3096968684797
 20
-9.068547886621754
 30
0.0
 10
19.25446999518639
 20
-9.068547886621754
 30
0.0
  0
SPLINE
  5
1D9
330
1F
100
AcDbEntity
  8
Livello 3
100
AcDbSpline
210
0.0
220
0.0
230
1.0
 70
    24
 71
     3
 72
     8
 73
     4
 74
     0
 42
0.000000001
 43
0.0000000001
 40
0.0
 40
0.0
 40
0.0
 40
0.0
 40
1.0
 40
1.0
 40
1.0
 40
1.0
 10
23.42948504115293
 20
-7.284843470401008
 30
0.0
 10
23.42948504115293
 20
-7.284843470401008
 30
0.0
 10
20.93532504922869
 20
-8.95213474776197
 30
0.0
 10
20.93532504922869
 20
-8.95213474776197
 30
0.0
  0
SPLINE
  5
1DA
330
1F
100
AcDbEntity
  8
Livello 3
100
AcDbSpline
210
0.0
220
0.0
230
1.0
 70
     8
 71
     3
 72
     8
 73
     4
 74
     0
 42
0.000000001
 43
0.0000000001
 40
1.0
 40
1.0
 40
1.0
 40
1.0
 40
2.0
 40
2.0
 40
2.0
 40
2.0
 10
20.93532504922869
 20
-8.95213474776197
 30
0.0
 10
20.93532504922869
 20
-8.95213474776197
 30
0.0
 10
20.71194263826099
 20
-9.107328747723165
 30
0.0
 10
20.72075555037539
 20
-9.302224358785544
 30
0.0
  0
SPLINE
  5
1DB
330
1F
100
AcDbEntity
  8
Livello 3
100
AcDbSpline
210
0.0
220
0.0
230
1.0
 70
    24
 71
     3
 72
     8
 73
     4
 74
     0
 42
0.000000001
 43
0.0000000001
 40
2.0
 40
2.0
 40
2.0
 40
2.0
 40
3.0
 40
3.0
 40
3.0
 40
3.0
 10
20.72075555037539
 20
-9.302224358785544
 30
0.0
 10
20.72075555037539
 20
-9.324809192113256
 30
0.0
 10
20.72075555037539
 20
-18.2758256343199
 30
0.0
 10
20.72075555037539
 20
-18.2758256343199
 30
0.0
  0
SPLINE
  5
1DC
330
1F
100
AcDbEntity
  8
Livello 3
100
AcDbSpline
210
0.0
220
0.0
230
1.0
 70
    24
 71
     3
 72
     8
 73
     4
 74
     0
 42
0.000000001
 43
0.0000000001
 40
0.0
 40
0.0
 40
0.0
 40
0.0
 40
1.0
 40
1.0
 40
1.0
 40
1.0
 10
20.7429341652481
 20
-18.2758185787644
 30
0.0
 10
20.7429341652481
 20
-18.2758185787644
 30
0.0
 10
20.69858294415738
 20
-18.2758185787644
 30
0.0
 10
20.69858294415738
 20
-18.2758185787644
 30
0.0
  0
SPLINE
  5
1DD
330
1F
100
AcDbEntity
  8
Livello 3
100
AcDbSpline
210
0.0
220
0.0
230
1.0
 70
    24
 71
     3
 72
     8
 73
     4
 74
     0
 42
0.000000001
 43
0.0000000001
 40
1.0
 40
1.0
 40
1.0
 40
1.0
 40
2.0
 40
2.0
 40
2.0
 40
2.0
 10
20.69858294415738
 20
-18.2758185787644
 30
0.0
 10
20.69858294415738
 20
-18.2758185787644
 30
0.0
 10
20.69858294415738
 20
-9.302220831007788
 30
0.0
 10
20.69858294415738
 20
-9.302220831007788
 30
0.0
  0
SPLINE
  5
1DE
330
1F
100
AcDbEntity
  8
Livello 3
100
AcDbSpline
210
0.0
220
0.0
230
1.0
 70
     8
 71
     3
 72
     8
 73
     4
 74
     0
 42
0.000000001
 43
0.0000000001
 40
2.0
 40
2.0
 40
2.0
 40
2.0
 40
3.0
 40
3.0
 40
3.0
 40
3.0
 10
20.69858294415738
 20
-9.302220831007788
 30
0.0
 10
20.68934722217078
 20
-9.098459914392046
 30
0.0
 10
20.91313885535027
 20
-8.94054599776485
 30
0.0
 10
20.92267796621801
 20
-8.93392083109985
 30
0.0
  0
SPLINE
  5
1DF
330
1F
100
AcDbEntity
  8
Livello 3
100
AcDbSpline
210
0.0
220
0.0
230
1.0
 70
    24
 71
     3
 72
     8
 73
     4
 74
     0
 42
0.000000001
 43
0.0000000001
 40
3.0
 40
3.0
 40
3.0
 40
3.0
 40
4.0
 40
4.0
 40
4.0
 40
4.0
 10
20.92267796621801
 20
-8.93392083109985
 30
0.0
 10
20.92267796621801
 20
-8.93392083109985
 30
0.0
 10
23.41716604146721
 20
-7.266403775961188
 30
0.0
 10
23.41716604146721
 20
-7.266403775961188
 30
0.0
  0
SPLINE
  5
1E0
330
1F
100
AcDbEntity
  8
Livello 3
100
AcDbSpline
210
0.0
220
0.0
230
1.0
 70
    24
 71
     3
 72
     8
 73
     4
 74
     0
 42
0.000000001
 43
0.0000000001
 40
4.0
 40
4.0
 40
4.0
 40
4.0
 40
5.0
 40
5.0
 40
5.0
 40
5.0
 10
23.41716604146721
 20
-7.266403775961188
 30
0.0
 10
23.41716604146721
 20
-7.266403775961188
 30
0.0
 10
23.44181109639402
 20
-7.303286692618611
 30
0.0
 10
23.44181109639402
 20
-7.303286692618611
 30
0.0
  0
SPLINE
  5
1E1
330
1F
100
AcDbEntity
  8
Livello 3
100
AcDbSpline
210
0.0
220
0.0
230
1.0
 70
    24
 71
     3
 72
     8
 73
     4
 74
     0
 42
0.000000001
 43
0.0000000001
 40
5.0
 40
5.0
 40
5.0
 40
5.0
 40
6.0
 40
6.0
 40
6.0
 40
6.0
 10
23.44181109639402
 20
-7.303286692618611
 30
0.0
 10
23.44181109639402
 20
-7.303286692618611
 30
0.0
 10
20.94764757669209
 20
-8.970570914424037
 30
0.0
 10
20.94764757669209
 20
-8.970570914424037
 30
0.0
  0
SPLINE
  5
1E2
330
1F
100
AcDbEntity
  8
Livello 3
100
AcDbSpline
210
0.0
220
0.0
230
1.0
 70
     8
 71
     3
 72
     8
 73
     4
 74
     0
 42
0.000000001
 43
0.0000000001
 40
6.0
 40
6.0
 40
6.0
 40
6.0
 40
7.0
 40
7.0
 40
7.0
 40
7.0
 10
20.94764757669209
 20
-8.970570914424037
 30
0.0
 10
20.94585899340439
 20
-8.971816219979263
 30
0.0
 10
20.73476082814963
 20
-9.121027108830872
 30
0.0
 10
20.74291299858198
 20
-9.301215414341362
 30
0.0
  0
SPLINE
  5
1E3
330
1F
100
AcDbEntity
  8
Livello 3
100
AcDbSpline
210
0.0
220
0.0
230
1.0
 70
    24
 71
     3
 72
     8
 73
     4
 74
     0
 42
0.000000001
 43
0.0000000001
 40
7.0
 40
7.0
 40
7.0
 40
7.0
 40
8.0
 40
8.0
 40
8.0
 40
8.0
 10
20.74291299858198
 20
-9.301215414341362
 30
0.0
 10
20.74291299858198
 20
-9.301215414341362
 30
0.0
 10
20.7429341652481
 20
-18.2758185787644
 30
0.0
 10
20.7429341652481
 20
-18.2758185787644
 30
0.0
  0
SPLINE
  5
1E4
330
1F
100
AcDbEntity
  8
Livello 3
100
AcDbSpline
210
0.0
220
0.0
230
1.0
 70
     8
 71
     3
 72
     8
 73
     4
 74
     0
 42
0.000000001
 43
0.0000000001
 40
0.0
 40
0.0
 40
0.0
 40
0.0
 40
1.0
 40
1.0
 40
1.0
 40
1.0
 10
18.54239962644079
 20
-19.11462998654078
 30
0.0
 10
18.5584882223569
 20
-19.11631808332856
 30
0.0
 10
18.57712618893211
 20
-19.11462998654078
 30
0.0
 10
18.6025165426584
 20
-19.1120806158817
 30
0.0
  0
SPLINE
  5
1E5
330
1F
100
AcDbEntity
  8
Livello 3
100
AcDbSpline
210
0.0
220
0.0
230
1.0
 70
     8
 71
     3
 72
     8
 73
     4
 74
     0
 42
0.000000001
 43
0.0000000001
 40
1.0
 40
1.0
 40
1.0
 40
1.0
 40
2.0
 40
2.0
 40
2.0
 40
2.0
 10
18.6025165426584
 20
-19.1120806158817
 30
0.0
 10
18.64571804004343
 20
-19.10615505164707
 30
0.0
 10
18.68637016676938
 20
-19.08837835894318
 30
0.0
 10
18.7176860847303
 20
-19.05875053777003
 30
0.0
  0
SPLINE
  5
1E6
330
1F
100
AcDbEntity
  8
Livello 3
100
AcDbSpline
210
0.0
220
0.0
230
1.0
 70
     8
 71
     3
 72
     8
 73
     4
 74
     0
 42
0.000000001
 43
0.0000000001
 40
2.0
 40
2.0
 40
2.0
 40
2.0
 40
3.0
 40
3.0
 40
3.0
 40
3.0
 10
18.7176860847303
 20
-19.05875053777003
 30
0.0
 10
18.75410074400939
 20
-19.02571207206649
 30
0.0
 10
18.78035237160698
 20
-18.97748073527299
 30
0.0
 10
18.79051540328848
 20
-18.91226507773721
 30
0.0
  0
SPLINE
  5
1E7
330
1F
100
AcDbEntity
  8
Livello 3
100
AcDbSpline
210
0.0
220
0.0
230
1.0
 70
    24
 71
     3
 72
     8
 73
     4
 74
     0
 42
0.000000001
 43
0.0000000001
 40
3.0
 40
3.0
 40
3.0
 40
3.0
 40
4.0
 40
4.0
 40
4.0
 40
4.0
 10
18.79051540328848
 20
-18.91226507773721
 30
0.0
 10
18.79051540328848
 20
-18.91226507773721
 30
0.0
 10
18.7879660326294
 20
-18.91226507773721
 30
0.0
 10
18.7879660326294
 20
-18.91226507773721
 30
0.0
  0
SPLINE
  5
1E8
330
1F
100
AcDbEntity
  8
Livello 3
100
AcDbSpline
210
0.0
220
0.0
230
1.0
 70
     8
 71
     3
 72
    20
 73
    16
 74
     0
 42
0.000000001
 43
0.0000000001
 40
4.0
 40
4.0
 40
4.0
 40
4.0
 40
5.0
 40
5.0
 40
5.0
 40
6.0
 40
6.0
 40
6.0
 40
7.0
 40
7.0
 40
7.0
 40
8.0
 40
8.0
 40
8.0
 40
9.0
 40
9.0
 40
9.0
 40
9.0
 10
18.7879660326294
 20
-18.91226507773721
 30
0.0
 10
18.75747693758494
 20
-18.94950655993276
 30
0.0
 10
18.71344861728344
 20
-18.97152072008351
 30
0.0
 10
18.65839599142915
 20
-18.97152072008351
 30
0.0
 10
18.55934949622822
 20
-18.97152072008351
 30
0.0
 10
18.49582193548021
 20
-18.89703775569241
 30
0.0
 10
18.49582193548021
 20
-18.80302109989994
 30
0.0
 10
18.49582193548021
 20
-18.69887586338083
 30
0.0
 10
18.57120062469748
 20
-18.6074430292023
 30
0.0
 10
18.68382079611029
 20
-18.6074430292023
 30
0.0
 10
18.79644096752311
 20
-18.6074430292023
 30
0.0
 10
18.86585964155089
 20
-18.69887586338083
 30
0.0
 10
18.86585964155089
 20
-18.83943575917903
 30
0.0
 10
18.86585964155089
 20
-18.96053086548556
 30
0.0
 10
18.82520751482495
 20
-19.045211312513
 30
0.0
 10
18.77101616284196
 20
-19.09771456770821
 30
0.0
  0
SPLINE
  5
1E9
330
1F
100
AcDbEntity
  8
Livello 3
100
AcDbSpline
210
0.0
220
0.0
230
1.0
 70
     8
 71
     3
 72
     8
 73
     4
 74
     0
 42
0.000000001
 43
0.0000000001
 40
9.0
 40
9.0
 40
9.0
 40
9.0
 40
10.0
 40
10.0
 40
10.0
 40
10.0
 10
18.77101616284196
 20
-19.09771456770821
 30
0.0
 10
18.72867593932825
 20
-19.13919351735062
 30
0.0
 10
18.67028157085326
 20
-19.16458387107691
 30
0.0
 10
18.61099147755211
 20
-19.17137070918285
 30
0.0
  0
SPLINE
  5
1EA
330
1F
100
AcDbEntity
  8
Livello 3
100
AcDbSpline
210
0.0
220
0.0
230
1.0
 70
     8
 71
     3
 72
     8
 73
     4
 74
     0
 42
0.000000001
 43
0.0000000001
 40
10.0
 40
10.0
 40
10.0
 40
10.0
 40
11.0
 40
11.0
 40
11.0
 40
11.0
 10
18.61099147755211
 20
-19.17137070918285
 30
0.0
 10
18.58391302703805
 20
-19.17560817662971
 30
0.0
 10
18.56017631914468
 20
-19.17643499954617
 30
0.0
 10
18.54239962644079
 20
-19.17560817662971
 30
0.0
  0
SPLINE
  5
1EB
330
1F
100
AcDbEntity
  8
Livello 3
100
AcDbSpline
210
0.0
220
0.0
230
1.0
 70
    24
 71
     3
 72
     8
 73
     4
 74
     0
 42
0.000000001
 43
0.0000000001
 40
11.0
 40
11.0
 40
11.0
 40
11.0
 40
12.0
 40
12.0
 40
12.0
 40
12.0
 10
18.54239962644079
 20
-19.17560817662971
 30
0.0
 10
18.54239962644079
 20
-19.17560817662971
 30
0.0
 10
18.54239962644079
 20
-19.11462998654078
 30
0.0
 10
18.54239962644079
 20
-19.11462998654078
 30
0.0
  0
SPLINE
  5
1EC
330
1F
100
AcDbEntity
  8
Livello 3
100
AcDbSpline
210
0.0
220
0.0
230
1.0
 70
     8
 71
     3
 72
    11
 73
     7
 74
     0
 42
0.000000001
 43
0.0000000001
 40
0.0
 40
0.0
 40
0.0
 40
0.0
 40
1.0
 40
1.0
 40
1.0
 40
2.0
 40
2.0
 40
2.0
 40
2.0
 10
18.5695125279097
 20
-18.79795680953662
 30
0.0
 10
18.5695125279097
 20
-18.86654866064794
 30
0.0
 10
18.61099147755211
 20
-18.9148144483963
 30
0.0
 10
18.67534586121658
 20
-18.9148144483963
 30
0.0
 10
18.7252997457527
 20
-18.9148144483963
 30
0.0
 10
18.76426377569088
 20
-18.89025091758646
 30
0.0
 10
18.78372856518254
 20
-18.85721245188292
 30
0.0
  0
SPLINE
  5
1ED
330
1F
100
AcDbEntity
  8
Livello 3
100
AcDbSpline
210
0.0
220
0.0
230
1.0
 70
     8
 71
     3
 72
    14
 73
    10
 74
     0
 42
0.000000001
 43
0.0000000001
 40
2.0
 40
2.0
 40
2.0
 40
2.0
 40
3.0
 40
3.0
 40
3.0
 40
4.0
 40
4.0
 40
4.0
 40
5.0
 40
5.0
 40
5.0
 40
5.0
 10
18.78372856518254
 20
-18.85721245188292
 30
0.0
 10
18.7879660326294
 20
-18.85046006473183
 30
0.0
 10
18.79051540328848
 20
-18.84198512983811
 30
0.0
 10
18.79051540328848
 20
-18.83013400136885
 30
0.0
 10
18.79051540328848
 20
-18.73615179653124
 30
0.0
 10
18.75578884079716
 20
-18.66418375184437
 30
0.0
 10
18.67789523187566
 20
-18.66418375184437
 30
0.0
 10
18.61436767112766
 20
-18.66418375184437
 30
0.0
 10
18.5695125279097
 20
-18.72006320061512
 30
0.0
 10
18.5695125279097
 20
-18.79795680953662
 30
0.0
  0
SPLINE
  5
1EE
330
1F
100
AcDbEntity
  8
Livello 3
100
AcDbSpline
210
0.0
220
0.0
230
1.0
 70
     8
 71
     3
 72
     8
 73
     4
 74
     0
 42
0.000000001
 43
0.0000000001
 40
0.0
 40
0.0
 40
0.0
 40
0.0
 40
1.0
 40
1.0
 40
1.0
 40
1.0
 10
18.90899223702622
 20
-19.27127847825509
 30
0.0
 10
18.92763020360142
 20
-19.22132459371897
 30
0.0
 10
18.95047118666863
 20
-19.1307185824569
 30
0.0
 10
18.95980739543366
 20
-19.06891356945152
 30
0.0
  0
SPLINE
  5
1EF
330
1F
100
AcDbEntity
  8
Livello 3
100
AcDbSpline
210
0.0
220
0.0
230
1.0
 70
    24
 71
     3
 72
     8
 73
     4
 74
     0
 42
0.000000001
 43
0.0000000001
 40
1.0
 40
1.0
 40
1.0
 40
1.0
 40
2.0
 40
2.0
 40
2.0
 40
2.0
 10
18.95980739543366
 20
-19.06891356945152
 30
0.0
 10
18.95980739543366
 20
-19.06891356945152
 30
0.0
 10
19.04276529471847
 20
-19.0604386345578
 30
0.0
 10
19.04276529471847
 20
-19.0604386345578
 30
0.0
  0
SPLINE
  5
1F0
330
1F
100
AcDbEntity
  8
Livello 3
100
AcDbSpline
210
0.0
220
0.0
230
1.0
 70
     8
 71
     3
 72
     8
 73
     4
 74
     0
 42
0.000000001
 43
0.0000000001
 40
2.0
 40
2.0
 40
2.0
 40
2.0
 40
3.0
 40
3.0
 40
3.0
 40
3.0
 10
19.04276529471847
 20
-19.0604386345578
 30
0.0
 10
19.02330050522681
 20
-19.13240667924467
 30
0.0
 10
18.98605902303126
 20
-19.22638888408229
 30
0.0
 10
18.96232231513789
 20
-19.26621418789178
 30
0.0
  0
SPLINE
  5
1F1
330
1F
100
AcDbEntity
  8
Livello 3
100
AcDbSpline
210
0.0
220
0.0
230
1.0
 70
    24
 71
     3
 72
     8
 73
     4
 74
     0
 42
0.000000001
 43
0.0000000001
 40
3.0
 40
3.0
 40
3.0
 40
3.0
 40
4.0
 40
4.0
 40
4.0
 40
4.0
 10
18.96232231513789
 20
-19.26621418789178
 30
0.0
 10
18.96232231513789
 20
-19.26621418789178
 30
0.0
 10
18.90899223702622
 20
-19.27127847825509
 30
0.0
 10
18.90899223702622
 20
-19.27127847825509
 30
0.0
  0
SPLINE
  5
1F2
330
1F
100
AcDbEntity
  8
Livello 3
100
AcDbSpline
210
0.0
220
0.0
230
1.0
 70
    24
 71
     3
 72
     8
 73
     4
 74
     0
 42
0.000000001
 43
0.0000000001
 40
0.0
 40
0.0
 40
0.0
 40
0.0
 40
1.0
 40
1.0
 40
1.0
 40
1.0
 10
19.43733208064414
 20
-18.67941107388917
 30
0.0
 10
19.43733208064414
 20
-18.67941107388917
 30
0.0
 10
19.22735351081816
 20
-18.67941107388917
 30
0.0
 10
19.22735351081816
 20
-18.67941107388917
 30
0.0
  0
SPLINE
  5
1F3
330
1F
100
AcDbEntity
  8
Livello 3
100
AcDbSpline
210
0.0
220
0.0
230
1.0
 70
    24
 71
     3
 72
     8
 73
     4
 74
     0
 42
0.000000001
 43
0.0000000001
 40
1.0
 40
1.0
 40
1.0
 40
1.0
 40
2.0
 40
2.0
 40
2.0
 40
2.0
 10
19.22735351081816
 20
-18.67941107388917
 30
0.0
 10
19.22735351081816
 20
-18.67941107388917
 30
0.0
 10
19.20616617358387
 20
-18.82083224355868
 30
0.0
 10
19.20616617358387
 20
-18.82083224355868
 30
0.0
  0
SPLINE
  5
1F4
330
1F
100
AcDbEntity
  8
Livello 3
100
AcDbSpline
210
0.0
220
0.0
230
1.0
 70
     8
 71
     3
 72
    11
 73
     7
 74
     0
 42
0.000000001
 43
0.0000000001
 40
2.0
 40
2.0
 40
2.0
 40
2.0
 40
3.0
 40
3.0
 40
3.0
 40
4.0
 40
4.0
 40
4.0
 40
4.0
 10
19.20616617358387
 20
-18.82083224355868
 30
0.0
 10
19.21887857592445
 20
-18.81910969581605
 30
0.0
 10
19.23072970439371
 20
-18.81742159902828
 30
0.0
 10
19.25105576775668
 20
-18.81742159902828
 30
0.0
 10
19.2933959912704
 20
-18.81742159902828
 30
0.0
 10
19.33573621478412
 20
-18.82675780779331
 30
0.0
 10
19.36960150340413
 20
-18.84704942020143
 30
0.0
  0
SPLINE
  5
1F5
330
1F
100
AcDbEntity
  8
Livello 3
100
AcDbSpline
210
0.0
220
0.0
230
1.0
 70
     8
 71
     3
 72
    14
 73
    10
 74
     0
 42
0.000000001
 43
0.0000000001
 40
4.0
 40
4.0
 40
4.0
 40
4.0
 40
5.0
 40
5.0
 40
5.0
 40
6.0
 40
6.0
 40
6.0
 40
7.0
 40
7.0
 40
7.0
 40
7.0
 10
19.36960150340413
 20
-18.84704942020143
 30
0.0
 10
19.41276854983431
 20
-18.87161295101126
 30
0.0
 10
19.44835638619694
 20
-18.91905191584315
 30
0.0
 10
19.44835638619694
 20
-18.98847058987094
 30
0.0
 10
19.44835638619694
 20
-19.09599201996559
 30
0.0
 10
19.36281466529818
 20
-19.17643499954617
 30
0.0
 10
19.24344210673428
 20
-19.17643499954617
 30
0.0
 10
19.18332519051667
 20
-19.17643499954617
 30
0.0
 10
19.13251003210923
 20
-19.15951958071359
 30
0.0
 10
19.10625840451163
 20
-19.14256971092616
 30
0.0
  0
SPLINE
  5
1F6
330
1F
100
AcDbEntity
  8
Livello 3
100
AcDbSpline
210
0.0
220
0.0
230
1.0
 70
    24
 71
     3
 72
     8
 73
     4
 74
     0
 42
0.000000001
 43
0.0000000001
 40
7.0
 40
7.0
 40
7.0
 40
7.0
 40
8.0
 40
8.0
 40
8.0
 40
8.0
 10
19.10625840451163
 20
-19.14256971092616
 30
0.0
 10
19.10625840451163
 20
-19.14256971092616
 30
0.0
 10
19.12489637108683
 20
-19.08586343923895
 30
0.0
 10
19.12489637108683
 20
-19.08586343923895
 30
0.0
  0
SPLINE
  5
1F7
330
1F
100
AcDbEntity
  8
Livello 3
100
AcDbSpline
210
0.0
220
0.0
230
1.0
 70
     8
 71
     3
 72
    11
 73
     7
 74
     0
 42
0.000000001
 43
0.0000000001
 40
8.0
 40
8.0
 40
8.0
 40
8.0
 40
9.0
 40
9.0
 40
9.0
 40
10.0
 40
10.0
 40
10.0
 40
10.0
 10
19.12489637108683
 20
-19.08586343923895
 30
0.0
 10
19.14773735415404
 20
-19.09940266449598
 30
0.0
 10
19.19262694832684
 20
-19.11631808332856
 30
0.0
 10
19.24258083286296
 20
-19.11631808332856
 30
0.0
 10
19.31286078076206
 20
-19.11631808332856
 30
0.0
 10
19.37297769697967
 20
-19.07060166623929
 30
0.0
 10
19.37297769697967
 20
-18.99694552476464
 30
0.0
  0
SPLINE
  5
1F8
330
1F
100
AcDbEntity
  8
Livello 3
100
AcDbSpline
210
0.0
220
0.0
230
1.0
 70
     8
 71
     3
 72
    11
 73
     7
 74
     0
 42
0.000000001
 43
0.0000000001
 40
10.0
 40
10.0
 40
10.0
 40
10.0
 40
11.0
 40
11.0
 40
11.0
 40
12.0
 40
12.0
 40
12.0
 40
12.0
 10
19.37297769697967
 20
-18.99694552476464
 30
0.0
 10
19.37215087406321
 20
-18.92580430299424
 30
0.0
 10
19.32471190923132
 20
-18.87502359554166
 30
0.0
 10
19.21464110847759
 20
-18.87502359554166
 30
0.0
 10
19.18332519051667
 20
-18.87502359554166
 30
0.0
 10
19.15876165970684
 20
-18.8783997891172
 30
0.0
 10
19.13843559634386
 20
-18.88094915977629
 30
0.0
  0
SPLINE
  5
1F9
330
1F
100
AcDbEntity
  8
Livello 3
100
AcDbSpline
210
0.0
220
0.0
230
1.0
 70
    24
 71
     3
 72
     8
 73
     4
 74
     0
 42
0.000000001
 43
0.0000000001
 40
12.0
 40
12.0
 40
12.0
 40
12.0
 40
13.0
 40
13.0
 40
13.0
 40
13.0
 10
19.13843559634386
 20
-18.88094915977629
 30
0.0
 10
19.13843559634386
 20
-18.88094915977629
 30
0.0
 10
19.17398898175164
 20
-18.61674478701248
 30
0.0
 10
19.17398898175164
 20
-18.61674478701248
 30
0.0
  0
SPLINE
  5
1FA
330
1F
100
AcDbEntity
  8
Livello 3
100
AcDbSpline
210
0.0
220
0.0
230
1.0
 70
    24
 71
     3
 72
     8
 73
     4
 74
     0
 42
0.000000001
 43
0.0000000001
 40
13.0
 40
13.0
 40
13.0
 40
13.0
 40
14.0
 40
14.0
 40
14.0
 40
14.0
 10
19.17398898175164
 20
-18.61674478701248
 30
0.0
 10
19.17398898175164
 20
-18.61674478701248
 30
0.0
 10
19.43733208064414
 20
-18.61674478701248
 30
0.0
 10
19.43733208064414
 20
-18.61674478701248
 30
0.0
  0
SPLINE
  5
1FB
330
1F
100
AcDbEntity
  8
Livello 3
100
AcDbSpline
210
0.0
220
0.0
230
1.0
 70
    24
 71
     3
 72
     8
 73
     4
 74
     0
 42
0.000000001
 43
0.0000000001
 40
14.0
 40
14.0
 40
14.0
 40
14.0
 40
15.0
 40
15.0
 40
15.0
 40
15.0
 10
19.43733208064414
 20
-18.61674478701248
 30
0.0
 10
19.43733208064414
 20
-18.61674478701248
 30
0.0
 10
19.43733208064414
 20
-18.67941107388917
 30
0.0
 10
19.43733208064414
 20
-18.67941107388917
 30
0.0
  0
LINE
  5
1FC
330
1F
100
AcDbEntity
  8
Livello 3
100
AcDbLine
 10
20.95265732983128
 20
-18.68619791199512
 30
0.0
 11
20.95096923304351
 21
-18.68619791199512
 31
0.0
  0
LINE
  5
1FD
330
1F
100
AcDbEntity
  8
Livello 3
100
AcDbLine
 10
20.95096923304351
 20
-18.68619791199512
 30
0.0
 11
20.85529893141812
 21
-18.73783989331901
 31
0.0
  0
LINE
  5
1FE
330
1F
100
AcDbEntity
  8
Livello 3
100
AcDbLine
 10
20.85529893141812
 20
-18.73783989331901
 30
0.0
 11
20.84089843228977
 21
-18.68109917067695
 31
0.0
  0
LINE
  5
1FF
330
1F
100
AcDbEntity
  8
Livello 3
100
AcDbLine
 10
20.84089843228977
 20
-18.68109917067695
 30
0.0
 11
20.96113226472499
 21
-18.61674478701248
 31
0.0
  0
LINE
  5
200
330
1F
100
AcDbEntity
  8
Livello 3
100
AcDbLine
 10
20.96113226472499
 20
-18.61674478701248
 30
0.0
 11
21.02462537451815
 21
-18.61674478701248
 31
0.0
  0
LINE
  5
201
330
1F
100
AcDbEntity
  8
Livello 3
100
AcDbLine
 10
21.02462537451815
 20
-18.61674478701248
 30
0.0
 11
21.02462537451815
 21
-19.16713324173599
 31
0.0
  0
LINE
  5
202
330
1F
100
AcDbEntity
  8
Livello 3
100
AcDbLine
 10
21.02462537451815
 20
-19.16713324173599
 30
0.0
 11
20.95265732983128
 21
-19.16713324173599
 31
0.0
  0
LINE
  5
203
330
1F
100
AcDbEntity
  8
Livello 3
100
AcDbLine
 10
20.95265732983128
 20
-19.16713324173599
 30
0.0
 11
20.95265732983128
 21
-18.68619791199512
 31
0.0
  0
SPLINE
  5
204
330
1F
100
AcDbEntity
  8
Livello 3
100
AcDbSpline
210
0.0
220
0.0
230
1.0
 70
    24
 71
     3
 72
     8
 73
     4
 74
     0
 42
0.000000001
 43
0.0000000001
 40
0.0
 40
0.0
 40
0.0
 40
0.0
 40
1.0
 40
1.0
 40
1.0
 40
1.0
 10
21.55379204105252
 20
-18.67941107388917
 30
0.0
 10
21.55379204105252
 20
-18.67941107388917
 30
0.0
 10
21.34381347122655
 20
-18.67941107388917
 30
0.0
 10
21.34381347122655
 20
-18.67941107388917
 30
0.0
  0
SPLINE
  5
205
330
1F
100
AcDbEntity
  8
Livello 3
100
AcDbSpline
210
0.0
220
0.0
230
1.0
 70
    24
 71
     3
 72
     8
 73
     4
 74
     0
 42
0.000000001
 43
0.0000000001
 40
1.0
 40
1.0
 40
1.0
 40
1.0
 40
2.0
 40
2.0
 40
2.0
 40
2.0
 10
21.34381347122655
 20
-18.67941107388917
 30
0.0
 10
21.34381347122655
 20
-18.67941107388917
 30
0.0
 10
21.32262613399226
 20
-18.82083224355868
 30
0.0
 10
21.32262613399226
 20
-18.82083224355868
 30
0.0
  0
SPLINE
  5
206
330
1F
100
AcDbEntity
  8
Livello 3
100
AcDbSpline
210
0.0
220
0.0
230
1.0
 70
     8
 71
     3
 72
    11
 73
     7
 74
     0
 42
0.000000001
 43
0.0000000001
 40
2.0
 40
2.0
 40
2.0
 40
2.0
 40
3.0
 40
3.0
 40
3.0
 40
4.0
 40
4.0
 40
4.0
 40
4.0
 10
21.32262613399226
 20
-18.82083224355868
 30
0.0
 10
21.33533853633283
 20
-18.81910969581605
 30
0.0
 10
21.34718966480209
 20
-18.81742159902828
 30
0.0
 10
21.36751572816506
 20
-18.81742159902828
 30
0.0
 10
21.40985595167879
 20
-18.81742159902828
 30
0.0
 10
21.4521961751925
 20
-18.82675780779331
 30
0.0
 10
21.48606146381252
 20
-18.84704942020143
 30
0.0
  0
SPLINE
  5
207
330
1F
100
AcDbEntity
  8
Livello 3
100
AcDbSpline
210
0.0
220
0.0
230
1.0
 70
     8
 71
     3
 72
    14
 73
    10
 74
     0
 42
0.000000001
 43
0.0000000001
 40
4.0
 40
4.0
 40
4.0
 40
4.0
 40
5.0
 40
5.0
 40
5.0
 40
6.0
 40
6.0
 40
6.0
 40
7.0
 40
7.0
 40
7.0
 40
7.0
 10
21.48606146381252
 20
-18.84704942020143
 30
0.0
 10
21.52922851024269
 20
-18.87161295101126
 30
0.0
 10
21.56481634660532
 20
-18.91905191584315
 30
0.0
 10
21.56481634660532
 20
-18.98847058987094
 30
0.0
 10
21.56481634660532
 20
-19.09599201996559
 30
0.0
 10
21.47927462570657
 20
-19.17643499954617
 30
0.0
 10
21.35990206714266
 20
-19.17643499954617
 30
0.0
 10
21.29978515092505
 20
-19.17643499954617
 30
0.0
 10
21.24896999251762
 20
-19.15951958071359
 30
0.0
 10
21.22271836492001
 20
-19.14256971092616
 30
0.0
  0
SPLINE
  5
208
330
1F
100
AcDbEntity
  8
Livello 3
100
AcDbSpline
210
0.0
220
0.0
230
1.0
 70
    24
 71
     3
 72
     8
 73
     4
 74
     0
 42
0.000000001
 43
0.0000000001
 40
7.0
 40
7.0
 40
7.0
 40
7.0
 40
8.0
 40
8.0
 40
8.0
 40
8.0
 10
21.22271836492001
 20
-19.14256971092616
 30
0.0
 10
21.22271836492001
 20
-19.14256971092616
 30
0.0
 10
21.24135633149521
 20
-19.08586343923895
 30
0.0
 10
21.24135633149521
 20
-19.08586343923895
 30
0.0
  0
SPLINE
  5
209
330
1F
100
AcDbEntity
  8
Livello 3
100
AcDbSpline
210
0.0
220
0.0
230
1.0
 70
     8
 71
     3
 72
    11
 73
     7
 74
     0
 42
0.000000001
 43
0.0000000001
 40
8.0
 40
8.0
 40
8.0
 40
8.0
 40
9.0
 40
9.0
 40
9.0
 40
10.0
 40
10.0
 40
10.0
 40
10.0
 10
21.24135633149521
 20
-19.08586343923895
 30
0.0
 10
21.26419731456242
 20
-19.09940266449598
 30
0.0
 10
21.30908690873523
 20
-19.11631808332856
 30
0.0
 10
21.35904079327135
 20
-19.11631808332856
 30
0.0
 10
21.42932074117045
 20
-19.11631808332856
 30
0.0
 10
21.48943765738806
 20
-19.07060166623929
 30
0.0
 10
21.48943765738806
 20
-18.99694552476464
 30
0.0
  0
SPLINE
  5
20A
330
1F
100
AcDbEntity
  8
Livello 3
100
AcDbSpline
210
0.0
220
0.0
230
1.0
 70
     8
 71
     3
 72
    11
 73
     7
 74
     0
 42
0.000000001
 43
0.0000000001
 40
10.0
 40
10.0
 40
10.0
 40
10.0
 40
11.0
 40
11.0
 40
11.0
 40
12.0
 40
12.0
 40
12.0
 40
12.0
 10
21.48943765738806
 20
-18.99694552476464
 30
0.0
 10
21.4886108344716
 20
-18.92580430299424
 30
0.0
 10
21.44117186963971
 20
-18.87502359554166
 30
0.0
 10
21.33110106888597
 20
-18.87502359554166
 30
0.0
 10
21.29978515092505
 20
-18.87502359554166
 30
0.0
 10
21.27522162011522
 20
-18.8783997891172
 30
0.0
 10
21.25489555675225
 20
-18.88094915977629
 30
0.0
  0
SPLINE
  5
20B
330
1F
100
AcDbEntity
  8
Livello 3
100
AcDbSpline
210
0.0
220
0.0
230
1.0
 70
    24
 71
     3
 72
     8
 73
     4
 74
     0
 42
0.000000001
 43
0.0000000001
 40
12.0
 40
12.0
 40
12.0
 40
12.0
 40
13.0
 40
13.0
 40
13.0
 40
13.0
 10
21.25489555675225
 20
-18.88094915977629
 30
0.0
 10
21.25489555675225
 20
-18.88094915977629
 30
0.0
 10
21.29044894216003
 20
-18.61674478701248
 30
0.0
 10
21.29044894216003
 20
-18.61674478701248
 30
0.0
  0
SPLINE
  5
20C
330
1F
100
AcDbEntity
  8
Livello 3
100
AcDbSpline
210
0.0
220
0.0
230
1.0
 70
    24
 71
     3
 72
     8
 73
     4
 74
     0
 42
0.000000001
 43
0.0000000001
 40
13.0
 40
13.0
 40
13.0
 40
13.0
 40
14.0
 40
14.0
 40
14.0
 40
14.0
 10
21.29044894216003
 20
-18.61674478701248
 30
0.0
 10
21.29044894216003
 20
-18.61674478701248
 30
0.0
 10
21.55379204105252
 20
-18.61674478701248
 30
0.0
 10
21.55379204105252
 20
-18.61674478701248
 30
0.0
  0
SPLINE
  5
20D
330
1F
100
AcDbEntity
  8
Livello 3
100
AcDbSpline
210
0.0
220
0.0
230
1.0
 70
    24
 71
     3
 72
     8
 73
     4
 74
     0
 42
0.000000001
 43
0.0000000001
 40
14.0
 40
14.0
 40
14.0
 40
14.0
 40
15.0
 40
15.0
 40
15.0
 40
15.0
 10
21.55379204105252
 20
-18.61674478701248
 30
0.0
 10
21.55379204105252
 20
-18.61674478701248
 30
0.0
 10
21.55379204105252
 20
-18.67941107388917
 30
0.0
 10
21.55379204105252
 20
-18.67941107388917
 30
0.0
  0
SPLINE
  5
20E
330
1F
100
AcDbEntity
  8
Livello 3
100
AcDbSpline
210
0.0
220
0.0
230
1.0
 70
     8
 71
     3
 72
     8
 73
     4
 74
     0
 42
0.000000001
 43
0.0000000001
 40
0.0
 40
0.0
 40
0.0
 40
0.0
 40
1.0
 40
1.0
 40
1.0
 40
1.0
 10
24.30997178211695
 20
-13.33761826923504
 30
0.0
 10
24.30911050824564
 20
-13.35284559127984
 30
0.0
 10
24.30997178211695
 20
-13.37231038077151
 30
0.0
 10
24.31334797569249
 20
-13.39349771800579
 30
0.0
  0
SPLINE
  5
20F
330
1F
100
AcDbEntity
  8
Livello 3
100
AcDbSpline
210
0.0
220
0.0
230
1.0
 70
     8
 71
     3
 72
     8
 73
     4
 74
     0
 42
0.000000001
 43
0.0000000001
 40
1.0
 40
1.0
 40
1.0
 40
1.0
 40
2.0
 40
2.0
 40
2.0
 40
2.0
 10
24.31334797569249
 20
-13.39349771800579
 30
0.0
 10
24.33284721613901
 20
-13.51035535686547
 30
0.0
 10
24.41835448608291
 20
-13.57216036987085
 30
0.0
 10
24.50896049734498
 20
-13.58483832125657
 30
0.0
  0
SPLINE
  5
210
330
1F
100
AcDbEntity
  8
Livello 3
100
AcDbSpline
210
0.0
220
0.0
230
1.0
 70
    24
 71
     3
 72
     8
 73
     4
 74
     0
 42
0.000000001
 43
0.0000000001
 40
2.0
 40
2.0
 40
2.0
 40
2.0
 40
3.0
 40
3.0
 40
3.0
 40
3.0
 10
24.50896049734498
 20
-13.58483832125657
 30
0.0
 10
24.50896049734498
 20
-13.58483832125657
 30
0.0
 10
24.50896049734498
 20
-13.58228895059748
 30
0.0
 10
24.50896049734498
 20
-13.58228895059748
 30
0.0
  0
SPLINE
  5
211
330
1F
100
AcDbEntity
  8
Livello 3
100
AcDbSpline
210
0.0
220
0.0
230
1.0
 70
     8
 71
     3
 72
    20
 73
    16
 74
     0
 42
0.000000001
 43
0.0000000001
 40
3.0
 40
3.0
 40
3.0
 40
3.0
 40
4.0
 40
4.0
 40
4.0
 40
5.0
 40
5.0
 40
5.0
 40
6.0
 40
6.0
 40
6.0
 40
7.0
 40
7.0
 40
7.0
 40
8.0
 40
8.0
 40
8.0
 40
8.0
 10
24.50896049734498
 20
-13.58228895059748
 30
0.0
 10
24.47423393485366
 20
-13.55603732299988
 30
0.0
 10
24.44546738755183
 20
-13.51035535686547
 30
0.0
 10
24.44546738755183
 20
-13.44937716677654
 30
0.0
 10
24.44546738755183
 20
-13.35201876836338
 30
0.0
 10
24.51574733545092
 20
-13.28339246629721
 30
0.0
 10
24.62326876554557
 20
-13.28339246629721
 30
0.0
 10
24.72403780848912
 20
-13.28339246629721
 30
0.0
 10
24.81715873945543
 20
-13.35201876836338
 30
0.0
 10
24.81715873945543
 20
-13.46632703656397
 30
0.0
 10
24.81715873945543
 20
-13.58401149834011
 30
0.0
 10
24.7257259052769
 20
-13.66104383339029
 30
0.0
 10
24.58261663881962
 20
-13.66104383339029
 30
0.0
 10
24.47423393485366
 20
-13.66104383339029
 30
0.0
 10
24.38872666490977
 20
-13.62211425440697
 30
0.0
 10
24.33453531292678
 20
-13.56792290242399
 30
0.0
  0
SPLINE
  5
212
330
1F
100
AcDbEntity
  8
Livello 3
100
AcDbSpline
210
0.0
220
0.0
230
1.0
 70
     8
 71
     3
 72
     8
 73
     4
 74
     0
 42
0.000000001
 43
0.0000000001
 40
8.0
 40
8.0
 40
8.0
 40
8.0
 40
9.0
 40
9.0
 40
9.0
 40
9.0
 10
24.33453531292678
 20
-13.56792290242399
 30
0.0
 10
24.28964571875398
 20
-13.52220648533473
 30
0.0
 10
24.2617059943686
 20
-13.4612282952458
 30
0.0
 10
24.2532310594749
 20
-13.39177517026317
 30
0.0
  0
SPLINE
  5
213
330
1F
100
AcDbEntity
  8
Livello 3
100
AcDbSpline
210
0.0
220
0.0
230
1.0
 70
     8
 71
     3
 72
     8
 73
     4
 74
     0
 42
0.000000001
 43
0.0000000001
 40
9.0
 40
9.0
 40
9.0
 40
9.0
 40
10.0
 40
10.0
 40
10.0
 40
10.0
 10
24.2532310594749
 20
-13.39177517026317
 30
0.0
 10
24.24985486589934
 20
-13.36979546106727
 30
0.0
 10
24.24899359202803
 20
-13.35115749449207
 30
0.0
 10
24.24899359202803
 20
-13.33761826923504
 30
0.0
  0
SPLINE
  5
214
330
1F
100
AcDbEntity
  8
Livello 3
100
AcDbSpline
210
0.0
220
0.0
230
1.0
 70
    24
 71
     3
 72
     8
 73
     4
 74
     0
 42
0.000000001
 43
0.0000000001
 40
10.0
 40
10.0
 40
10.0
 40
10.0
 40
11.0
 40
11.0
 40
11.0
 40
11.0
 10
24.24899359202803
 20
-13.33761826923504
 30
0.0
 10
24.24899359202803
 20
-13.33761826923504
 30
0.0
 10
24.30997178211695
 20
-13.33761826923504
 30
0.0
 10
24.30997178211695
 20
-13.33761826923504
 30
0.0
  0
SPLINE
  5
215
330
1F
100
AcDbEntity
  8
Livello 3
100
AcDbSpline
210
0.0
220
0.0
230
1.0
 70
     8
 71
     3
 72
    11
 73
     7
 74
     0
 42
0.000000001
 43
0.0000000001
 40
0.0
 40
0.0
 40
0.0
 40
0.0
 40
1.0
 40
1.0
 40
1.0
 40
2.0
 40
2.0
 40
2.0
 40
2.0
 10
24.62750623299243
 20
-13.35877115551447
 30
0.0
 10
24.54875135019963
 20
-13.35877115551447
 30
0.0
 10
24.50134683632258
 20
-13.40362629873243
 30
0.0
 10
24.50134683632258
 20
-13.4722526007986
 30
0.0
 10
24.50134683632258
 20
-13.51710774401656
 30
0.0
 10
24.52928656070796
 20
-13.55858669365896
 30
0.0
 10
24.56907741356259
 20
-13.57891275702194
 30
0.0
  0
SPLINE
  5
216
330
1F
100
AcDbEntity
  8
Livello 3
100
AcDbSpline
210
0.0
220
0.0
230
1.0
 70
     8
 71
     3
 72
     8
 73
     4
 74
     0
 42
0.000000001
 43
0.0000000001
 40
2.0
 40
2.0
 40
2.0
 40
2.0
 40
3.0
 40
3.0
 40
3.0
 40
3.0
 10
24.56907741356259
 20
-13.57891275702194
 30
0.0
 10
24.5775523484563
 20
-13.58401149834011
 30
0.0
 10
24.58854220305425
 20
-13.58738769191565
 30
0.0
 10
24.60211587926615
 20
-13.58738769191565
 30
0.0
  0
SPLINE
  5
217
330
1F
100
AcDbEntity
  8
Livello 3
100
AcDbSpline
210
0.0
220
0.0
230
1.0
 70
     8
 71
     3
 72
    11
 73
     7
 74
     0
 42
0.000000001
 43
0.0000000001
 40
3.0
 40
3.0
 40
3.0
 40
3.0
 40
4.0
 40
4.0
 40
4.0
 40
5.0
 40
5.0
 40
5.0
 40
5.0
 10
24.60211587926615
 20
-13.58738769191565
 30
0.0
 10
24.69268743957335
 20
-13.58569959512788
 30
0.0
 10
24.75959119389691
 20
-13.54418619453062
 30
0.0
 10
24.75959119389691
 20
-13.46632703656397
 30
0.0
 10
24.75959119389691
 20
-13.40197265289951
 30
0.0
 10
24.70626111578523
 20
-13.35877115551447
 30
0.0
 10
24.62750623299243
 20
-13.35877115551447
 30
0.0
  0
SPLINE
  5
218
330
1F
100
AcDbEntity
  8
Livello 3
100
AcDbSpline
210
0.0
220
0.0
230
1.0
 70
     8
 71
     3
 72
    11
 73
     7
 74
     0
 42
0.000000001
 43
0.0000000001
 40
0.0
 40
0.0
 40
0.0
 40
0.0
 40
1.0
 40
1.0
 40
1.0
 40
2.0
 40
2.0
 40
2.0
 40
2.0
 10
24.52673719004887
 20
-12.85161864913085
 30
0.0
 10
24.71387477680764
 20
-12.85161864913085
 30
0.0
 10
24.81715873945543
 20
-12.92103732315863
 30
0.0
 10
24.81715873945543
 20
-13.04299370333647
 30
0.0
 10
24.81715873945543
 20
-13.15054958438597
 30
0.0
 10
24.71642414746674
 20
-13.2233444519893
 30
0.0
 10
24.53435085107127
 20
-13.22503254877707
 30
0.0
  0
SPLINE
  5
219
330
1F
100
AcDbEntity
  8
Livello 3
100
AcDbSpline
210
0.0
220
0.0
230
1.0
 70
     8
 71
     3
 72
    11
 73
     7
 74
     0
 42
0.000000001
 43
0.0000000001
 40
2.0
 40
2.0
 40
2.0
 40
2.0
 40
3.0
 40
3.0
 40
3.0
 40
4.0
 40
4.0
 40
4.0
 40
4.0
 10
24.53435085107127
 20
-13.22503254877707
 30
0.0
 10
24.34976263497159
 20
-13.22503254877707
 30
0.0
 10
24.24816676911157
 20
-13.1454508430678
 30
0.0
 10
24.24816676911157
 20
-13.0336919455263
 30
0.0
 10
24.24816676911157
 20
-12.91766112958308
 30
0.0
 10
24.35145073175936
 20
-12.85161864913085
 30
0.0
 10
24.52673719004887
 20
-12.85161864913085
 30
0.0
  0
ENDSEC
  0
SECTION
  2
OBJECTS
  0
DICTIONARY
  5
C
330
0
100
AcDbDictionary
281
     1
  3
ACAD_CIP_PREVIOUS_PRODUCT_INFO
350
136
  3
ACAD_COLOR
350
117
  3
ACAD_DETAILVIEWSTYLE
350
132
  3
ACAD_GROUP
350
D
  3
ACAD_LAYOUT
350
1A
  3
ACAD_MATERIAL
350
3B
  3
ACAD_MLEADERSTYLE
350
10A
  3
ACAD_MLINESTYLE
350
17
  3
ACAD_PLOTSETTINGS
350
19
  3
ACAD_PLOTSTYLENAME
350
E
  3
ACAD_SCALELIST
350
119
  3
ACAD_SECTIONVIEWSTYLE
350
130
  3
ACAD_TABLESTYLE
350
109
  3
ACAD_VISUALSTYLE
350
2A
  3
ACDB_RECOMPOSE_DATA
350
222
  3
AcDbVariableDictionary
350
21A
  0
SUN
  5
3F
330
29
100
AcDbSun
 90
        1
290
     1
 63
     7
421
 16777215
 40
1.0
291
     1
 91
  2455826
 92
 54000000
292
     0
 70
     0
 71
   256
280
     1
1001
ACAD
1000
AcDbSavedByObjectVersion
1070
     0
  0
DICTIONARY
  5
137
330
1F
100
AcDbDictionary
280
     1
281
     1
  3
ACAD_SORTENTS
360
138
  0
XRECORD
  5
136
102
{ACAD_REACTORS
330
C
102
}
330
C
100
AcDbXrecord
280
     1
300
ACD
300
2019
300
ACD_F_S
  0
DICTIONARY
  5
117
102
{ACAD_REACTORS
330
C
102
}
330
C
100
AcDbDictionary
281
     1
  0
DICTIONARY
  5
132
102
{ACAD_REACTORS
330
C
102
}
330
C
100
AcDbDictionary
281
     1
  3
Imperial24
350
133
  0
DICTIONARY
  5
D
102
{ACAD_REACTORS
330
C
102
}
330
C
100
AcDbDictionary
281
     1
  0
DICTIONARY
  5
1A
102
{ACAD_REACTORS
330
C
102
}
330
C
100
AcDbDictionary
281
     1
  3
Layout1
350
1E
  3
Layout2
350
26
  3
Model
350
22
  0
DICTIONARY
  5
3B
102
{ACAD_REACTORS
330
C
102
}
330
C
100
AcDbDictionary
281
     1
  3
ByBlock
350
3D
  3
ByLayer
350
3C
  3
Global
350
3E
  0
DICTIONARY
  5
10A
102
{ACAD_REACTORS
330
C
102
}
330
C
100
AcDbDictionary
281
     1
  3
Standard
350
12F
  0
DICTIONARY
  5
17
102
{ACAD_REACTORS
330
C
102
}
330
C
100
AcDbDictionary
281
     1
  3
Standard
350
18
  0
DICTIONARY
  5
19
102
{ACAD_REACTORS
330
C
102
}
330
C
100
AcDbDictionary
281
     1
  0
ACDBDICTIONARYWDFLT
  5
E
102
{ACAD_REACTORS
330
C
102
}
330
C
100
AcDbDictionary
281
     1
  3
Normal
350
F
100
AcDbDictionaryWithDefault
340
F
  0
DICTIONARY
  5
119
102
{ACAD_REACTORS
330
C
102
}
330
C
100
AcDbDictionary
281
     1
  3
A0
350
11A
  3
A1
350
11B
  3
A2
350
11C
  3
A3
350
11D
  3
A4
350
11E
  3
A5
350
11F
  3
A6
350
120
  3
A7
350
121
  3
A8
350
122
  3
A9
350
123
  3
B0
350
124
  3
B1
350
125
  3
B2
350
126
  3
B3
350
127
  3
B4
350
128
  3
B5
350
129
  3
B6
350
12A
  3
B7
350
12B
  3
B8
350
12C
  3
B9
350
12D
  3
C0
350
12E
  0
DICTIONARY
  5
130
102
{ACAD_REACTORS
330
C
102
}
330
C
100
AcDbDictionary
281
     1
  3
Imperial24
350
131
  0
DICTIONARY
  5
109
102
{ACAD_REACTORS
330
C
102
}
330
C
100
AcDbDictionary
281
     1
  3
Standard
350
118
  0
DICTIONARY
  5
2A
102
{ACAD_REACTORS
330
C
102
}
330
C
100
AcDbDictionary
281
     1
  3
2dWireframe
350
2F
  3
3D Hidden
350
31
  3
3dWireframe
350
30
  3
Basic
350
32
  3
Brighten
350
36
  3
ColorChange
350
3A
  3
Conceptual
350
34
  3
Dim
350
35
  3
EdgeColorOff
350
116
  3
Facepattern
350
39
  3
Flat
350
2B
  3
FlatWithEdges
350
2C
  3
Gouraud
350
2D
  3
GouraudWithEdges
350
2E
  3
Hidden
350
10E
  3
JitterOff
350
114
  3
Linepattern
350
38
  3
OverhangOff
350
115
  3
Realistic
350
33
  3
Shaded
350
113
  3
Shaded with edges
350
112
  3
Shades of Gray
350
10F
  3
Sketchy
350
110
  3
Thicken
350
37
  3
Wireframe
350
10D
  3
X-Ray
350
111
  0
XRECORD
  5
222
102
{ACAD_REACTORS
330
C
102
}
330
C
100
AcDbXrecord
280
     1
 90
        1
330
118
  0
DICTIONARY
  5
21A
102
{ACAD_REACTORS
330
C
102
}
330
C
100
AcDbDictionary
281
     1
  3
CANNOSCALE
350
21F
  3
CMLEADERSTYLE
350
21C
  3
CTABLESTYLE
350
21B
  3
CVIEWDETAILSTYLE
350
21D
  3
CVIEWSECTIONSTYLE
350
21E
  0
SORTENTSTABLE
  5
138
102
{ACAD_REACTORS
330
137
102
}
330
137
100
AcDbSortentsTable
330
1F
331
156
  5
1CE
331
157
  5
1CF
331
158
  5
1D0
331
159
  5
1D1
331
15C
  5
1DD
331
15D
  5
1DE
331
15E
  5
1DF
331
15F
  5
1E0
331
1A2
  5
1E1
331
1A3
  5
1E2
331
1B9
  5
20D
331
1C1
  5
156
331
1C2
  5
157
331
1C3
  5
158
331
1C4
  5
159
331
1C5
  5
15C
331
1C6
  5
15D
331
1C7
  5
15E
331
1C8
  5
15F
331
1C9
  5
1A2
331
1CA
  5
1A3
331
1CB
  5
1B9
331
1CC
  5
1C1
331
1CD
  5
1C2
331
1CE
  5
1C3
331
1CF
  5
1C4
331
1D0
  5
1C5
331
1D1
  5
1C6
331
1D2
  5
1C7
331
1D3
  5
1C8
331
1D4
  5
1C9
331
1D5
  5
1CA
331
1D6
  5
1CB
331
1D7
  5
1CC
331
1D8
  5
1CD
331
1D9
  5
1D2
331
1DA
  5
1D3
331
1DB
  5
1D4
331
1DC
  5
1D5
331
1DD
  5
1D6
331
1DE
  5
1D7
331
1DF
  5
1D8
331
1E0
  5
1D9
331
1E1
  5
1DA
331
1E2
  5
1DB
331
1E3
  5
1DC
331
1E4
  5
1E3
331
1E5
  5
1E4
331
1E6
  5
1E5
331
1E7
  5
1E6
331
1E8
  5
1E7
331
1E9
  5
1E8
331
1EA
  5
1E9
331
1EB
  5
1EA
331
1EC
  5
1EB
331
1ED
  5
1EC
331
1EE
  5
1ED
331
1EF
  5
1EE
331
1F0
  5
1EF
331
1F1
  5
1F0
331
1F2
  5
1F1
331
1F3
  5
1F2
331
1F4
  5
1F3
331
1F5
  5
1F4
331
1F6
  5
1F5
331
1F7
  5
1F6
331
1F8
  5
1F7
331
1F9
  5
1F8
331
1FA
  5
1F9
331
1FB
  5
1FA
331
1FC
  5
1FB
331
1FD
  5
1FC
331
1FE
  5
1FD
331
1FF
  5
1FE
331
200
  5
1FF
331
201
  5
200
331
202
  5
201
331
203
  5
202
331
204
  5
203
331
205
  5
204
331
206
  5
205
331
207
  5
206
331
208
  5
207
331
209
  5
208
331
20A
  5
209
331
20B
  5
20A
331
20C
  5
20B
331
20D
  5
20C
  0
ACDBDETAILVIEWSTYLE
  5
133
102
{ACAD_XDICTIONARY
360
225
102
}
102
{ACAD_REACTORS
330
132
102
}
330
132
100
AcDbModelDocViewStyle
 70
     0
  3
Imperial24
290
     0
100
AcDbDetailViewStyle
 70
     0
 71
     0
 90
        3
 71
     1
340
11
 62
   256
 40
0.24
340
0
 62
   256
 40
0.24
300

 40
0.36
280
     3
 71
     2
340
16
 90
       25
 62
   256
 71
     3
340
11
 62
   256
 40
0.24
 90
        1
 40
0.75
 90
        1
300
%<\AcVar ViewType \f "%tc1">% %<\AcVar ViewDetailId>%\PSCALA %<\AcVar ViewScale \f "%sn">%
 71
     4
340
16
 90
       25
 62
   256
340
16
 90
       25
 62
   256
280
     0
  0
LAYOUT
  5
1E
102
{ACAD_REACTORS
330
1A
102
}
330
1A
100
AcDbPlotSettings
  1

  2
none_device
  4

  6

 40
0.0
 41
0.0
 42
0.0
 43
0.0
 44
0.0
 45
0.0
 46
0.0
 47
0.0
 48
0.0
 49
0.0
140
0.0
141
0.0
142
1.0
143
1.0
 70
   688
 72
     0
 73
     0
 74
     5
  7

 75
    16
147
1.0
 76
     0
 77
     2
 78
   300
148
0.0
149
0.0
100
AcDbLayout
  1
Layout1
 70
     1
 71
     1
 10
0.0
 20
0.0
 11
12.0
 21
9.0
 12
0.0
 22
0.0
 32
0.0
 14
1.000000000000000E+20
 24
1.000000000000000E+20
 34
1.000000000000000E+20
 15
-1.000000000000000E+20
 25
-1.000000000000000E+20
 35
-1.000000000000000E+20
146
0.0
 13
0.0
 23
0.0
 33
0.0
 16
1.0
 26
0.0
 36
0.0
 17
0.0
 27
1.0
 37
0.0
 76
     0
330
1B
  0
LAYOUT
  5
26
102
{ACAD_REACTORS
330
1A
102
}
330
1A
100
AcDbPlotSettings
  1

  2
none_device
  4

  6

 40
0.0
 41
0.0
 42
0.0
 43
0.0
 44
0.0
 45
0.0
 46
0.0
 47
0.0
 48
0.0
 49
0.0
140
0.0
141
0.0
142
1.0
143
1.0
 70
   688
 72
     0
 73
     0
 74
     5
  7

 75
    16
147
1.0
 76
     0
 77
     2
 78
   300
148
0.0
149
0.0
100
AcDbLayout
  1
Layout2
 70
     1
 71
     2
 10
0.0
 20
0.0
 11
0.0
 21
0.0
 12
0.0
 22
0.0
 32
0.0
 14
0.0
 24
0.0
 34
0.0
 15
0.0
 25
0.0
 35
0.0
146
0.0
 13
0.0
 23
0.0
 33
0.0
 16
1.0
 26
0.0
 36
0.0
 17
0.0
 27
1.0
 37
0.0
 76
     0
330
23
  0
LAYOUT
  5
22
102
{ACAD_REACTORS
330
1A
102
}
330
1A
100
AcDbPlotSettings
  1

  2
none_device
  4

  6

 40
0.0
 41
0.0
 42
0.0
 43
0.0
 44
0.0
 45
0.0
 46
0.0
 47
0.0
 48
0.0
 49
0.0
140
0.0
141
0.0
142
1.0
143
1.0
 70
  1712
 72
     0
 73
     0
 74
     0
  7

 75
     0
147
1.0
 76
     0
 77
     2
 78
   300
148
0.0
149
0.0
100
AcDbLayout
  1
Model
 70
     1
 71
     0
 10
0.0
 20
0.0
 11
12.0
 21
9.0
 12
0.0
 22
0.0
 32
0.0
 14
1.000000000000000E+20
 24
1.000000000000000E+20
 34
1.000000000000000E+20
 15
-1.000000000000000E+20
 25
-1.000000000000000E+20
 35
-1.000000000000000E+20
146
0.0
 13
0.0
 23
0.0
 33
0.0
 16
1.0
 26
0.0
 36
0.0
 17
0.0
 27
1.0
 37
0.0
 76
     0
330
1F
331
29
  0
MATERIAL
  5
3D
102
{ACAD_REACTORS
330
3B
102
}
330
3B
100
AcDbMaterial
  1
ByBlock
  0
MATERIAL
  5
3C
102
{ACAD_REACTORS
330
3B
102
}
330
3B
100
AcDbMaterial
  1
ByLayer
  0
MATERIAL
  5
3E
102
{ACAD_REACTORS
330
3B
102
}
330
3B
100
AcDbMaterial
  1
Global
  0
MLEADERSTYLE
  5
12F
102
{ACAD_REACTORS
330
10A
102
}
330
10A
100
AcDbMLeaderStyle
179
     2
170
     2
171
     1
172
     0
 90
        2
 40
0.0
 41
0.0
173
     1
 91
-1056964608
340
14
 92
       -2
290
     1
 42
0.09
291
     1
 43
0.36
  3
Standard
 44
0.18
300

342
11
174
     1
178
     6
175
     1
176
     0
 93
-1056964608
 45
0.18
292
     0
297
     0
 46
0.18
 94
-1056964608
 47
1.0
 49
1.0
140
1.0
293
     1
141
0.0
294
     1
177
     0
142
1.0
295
     0
296
     0
143
0.125
271
     0
272
     9
273
     9
298
     0
  0
MLINESTYLE
  5
18
102
{ACAD_REACTORS
330
17
102
}
330
17
100
AcDbMlineStyle
  2
STANDARD
 70
     0
  3

 62
   256
 51
90.0
 52
90.0
 71
     2
 49
0.5
 62
   256
  6
BYLAYER
 49
-0.5
 62
   256
  6
BYLAYER
  0
ACDBPLACEHOLDER
  5
F
102
{ACAD_REACTORS
330
E
102
}
330
E
  0
SCALE
  5
11A
102
{ACAD_REACTORS
330
119
102
}
330
119
100
AcDbScale
 70
     0
300
1:1
140
1.0
141
1.0
290
     1
  0
SCALE
  5
11B
102
{ACAD_REACTORS
330
119
102
}
330
119
100
AcDbScale
 70
     0
300
1.10
140
1.0
141
10.0
290
     0
  0
SCALE
  5
11C
102
{ACAD_REACTORS
330
119
102
}
330
119
100
AcDbScale
 70
     0
300
1.50
140
1.0
141
50.0
290
     0
  0
SCALE
  5
11D
102
{ACAD_REACTORS
330
119
102
}
330
119
100
AcDbScale
 70
     0
300
1:100
140
1.0
141
100.0
290
     0
  0
SCALE
  5
11E
102
{ACAD_REACTORS
330
119
102
}
330
119
100
AcDbScale
 70
     0
300
1.200
140
1.0
141
200.0
290
     0
  0
SCALE
  5
11F
102
{ACAD_REACTORS
330
119
102
}
330
119
100
AcDbScale
 70
     0
300
1/128" = 1'-0"
140
0.0078125
141
12.0
290
     0
  0
SCALE
  5
120
102
{ACAD_REACTORS
330
119
102
}
330
119
100
AcDbScale
 70
     0
300
1/64" = 1'-0"
140
0.015625
141
12.0
290
     0
  0
SCALE
  5
121
102
{ACAD_REACTORS
330
119
102
}
330
119
100
AcDbScale
 70
     0
300
1/32" = 1'-0"
140
0.03125
141
12.0
290
     0
  0
SCALE
  5
122
102
{ACAD_REACTORS
330
119
102
}
330
119
100
AcDbScale
 70
     0
300
1/16" = 1'-0"
140
0.0625
141
12.0
290
     0
  0
SCALE
  5
123
102
{ACAD_REACTORS
330
119
102
}
330
119
100
AcDbScale
 70
     0
300
3/32" = 1'-0"
140
0.09375
141
12.0
290
     0
  0
SCALE
  5
124
102
{ACAD_REACTORS
330
119
102
}
330
119
100
AcDbScale
 70
     0
300
1/8" = 1'-0"
140
0.125
141
12.0
290
     0
  0
SCALE
  5
125
102
{ACAD_REACTORS
330
119
102
}
330
119
100
AcDbScale
 70
     0
300
3/16" = 1'-0"
140
0.1875
141
12.0
290
     0
  0
SCALE
  5
126
102
{ACAD_REACTORS
330
119
102
}
330
119
100
AcDbScale
 70
     0
300
1/4" = 1'-0"
140
0.25
141
12.0
290
     0
  0
SCALE
  5
127
102
{ACAD_REACTORS
330
119
102
}
330
119
100
AcDbScale
 70
     0
300
3/8" = 1'-0"
140
0.375
141
12.0
290
     0
  0
SCALE
  5
128
102
{ACAD_REACTORS
330
119
102
}
330
119
100
AcDbScale
 70
     0
300
1/2" = 1'-0"
140
0.5
141
12.0
290
     0
  0
SCALE
  5
129
102
{ACAD_REACTORS
330
119
102
}
330
119
100
AcDbScale
 70
     0
300
3/4" = 1'-0"
140
0.75
141
12.0
290
     0
  0
SCALE
  5
12A
102
{ACAD_REACTORS
330
119
102
}
330
119
100
AcDbScale
 70
     0
300
1" = 1'-0"
140
1.0
141
12.0
290
     0
  0
SCALE
  5
12B
102
{ACAD_REACTORS
330
119
102
}
330
119
100
AcDbScale
 70
     0
300
1-1/2" = 1'-0"
140
1.5
141
12.0
290
     0
  0
SCALE
  5
12C
102
{ACAD_REACTORS
330
119
102
}
330
119
100
AcDbScale
 70
     0
300
3" = 1'-0"
140
3.0
141
12.0
290
     0
  0
SCALE
  5
12D
102
{ACAD_REACTORS
330
119
102
}
330
119
100
AcDbScale
 70
     0
300
6" = 1'-0"
140
6.0
141
12.0
290
     0
  0
SCALE
  5
12E
102
{ACAD_REACTORS
330
119
102
}
330
119
100
AcDbScale
 70
     0
300
1'-0" = 1'-0"
140
12.0
141
12.0
290
     0
  0
ACDBSECTIONVIEWSTYLE
  5
131
102
{ACAD_XDICTIONARY
360
223
102
}
102
{ACAD_REACTORS
330
130
102
}
330
130
100
AcDbModelDocViewStyle
 70
     0
  3
Imperial24
290
     0
100
AcDbSectionViewStyle
 70
     0
 71
     0
 90
       78
 71
     1
340
11
 62
   256
 40
0.24
340
0
340
0
 62
   256
 40
0.24
300
I, O, Q, S, X, Z
 40
0.48
 90
        3
 40
0.18
 90
        1
 71
     2
340
16
 90
       25
 62
   256
340
16
 90
       50
 62
   256
 40
0.24
 40
0.0
 40
0.24
 71
     3
340
11
 62
   256
 40
0.24
 90
        1
 40
0.75
 90
        1
300
%<\AcVar ViewType \f "%tc1">% %<\AcVar ViewSectionStartId>%-%<\AcVar ViewSectionEndId>%\PSCALA %<\AcVar ViewScale \f "%sn">%
 71
     4
 62
   256
 62
   257
300
ANSI31
 40
1.0
 90
        0
290
     0
290
     0
 90
        6
 40
0.0
 40
1.570796326794896
 40
0.2617993877991494
 40
1.308996938995747
 40
-0.2617993877991494
 40
1.832595714594046
  0
TABLESTYLE
  5
118
102
{ACAD_XDICTIONARY
360
220
102
}
102
{ACAD_REACTORS
330
109
102
}
330
109
100
AcDbTableStyle
280
     0
  3
Standard
 70
     0
 71
     0
 40
0.06
 41
0.06
280
     0
281
     0
  7
Standard
140
0.18
170
     2
 62
     0
 63
     7
283
     0
 90
      512
 91
        0
  1

274
    -2
284
     1
 64
     0
275
    -2
285
     1
 65
     0
276
    -2
286
     1
 66
     0
277
    -2
287
     1
 67
     0
278
    -2
288
     1
 68
     0
279
    -2
289
     1
 69
     0
  7
Standard
140
0.25
170
     5
 62
     0
 63
     7
283
     0
 90
      512
 91
        0
  1

274
    -2
284
     1
 64
     0
275
    -2
285
     1
 65
     0
276
    -2
286
     1
 66
     0
277
    -2
287
     1
 67
     0
278
    -2
288
     1
 68
     0
279
    -2
289
     1
 69
     0
  7
Standard
140
0.18
170
     5
 62
     0
 63
     7
283
     0
 90
      512
 91
        0
  1

274
    -2
284
     1
 64
     0
275
    -2
285
     1
 65
     0
276
    -2
286
     1
 66
     0
277
    -2
287
     1
 67
     0
278
    -2
288
     1
 68
     0
279
    -2
289
     1
 69
     0
  0
VISUALSTYLE
  5
2F
102
{ACAD_REACTORS
330
2A
102
}
330
2A
100
AcDbVisualStyle
  2
2dWireframe
 70
     4
177
     3
291
     0
 70
    58
 90
        0
176
     1
 90
        2
176
     1
 90
        0
176
     1
 90
        0
176
     1
 40
0.6
176
     1
 40
30.0
176
     1
 62
     7
420
 16777215
176
     1
 90
        1
176
     1
 90
        4
176
     1
 62
     7
176
     1
 62
   257
176
     1
 90
        1
176
     1
 90
        1
176
     1
 40
1.0
176
     1
 90
        0
176
     1
 62
   257
176
     1
 40
1.0
176
     1
 90
        1
176
     1
 90
        6
176
     1
 90
        2
176
     1
 62
     7
176
     1
 90
        5
176
     1
 90
        0
176
     1
 90
        0
176
     1
290
     0
176
     1
 90
        1
176
     1
 40
0.0
176
     1
 90
        0
176
     1
290
     1
176
     1
290
     1
176
     1
290
     0
176
     1
290
     0
176
     1
290
     0
176
     1
290
     0
176
     1
290
     0
176
     1
290
     0
176
     1
290
     0
176
     1
 90
       50
176
     1
 40
0.0
176
     1
 40
1.0
176
     1
 90
        0
176
     1
 62
    18
420
        0
176
     1
 90
       50
176
     1
 90
        3
176
     1
 62
     5
420
      255
176
     1
290
     0
176
     1
 90
       50
176
     1
 90
       50
176
     1
 90
       50
176
     1
290
     0
176
     1
 90
       50
176
     1
 62
   256
176
     0
 40
1.0
176
     0
 90
        2
176
     1
  1
strokes_ogs.tif
176
     1
290
     0
176
     1
 40
1.0
176
     1
 40
1.0
176
     1
1001
ACAD
1000
AcDbSavedByObjectVersion
1070
     0
  0
VISUALSTYLE
  5
31
102
{ACAD_REACTORS
330
2A
102
}
330
2A
100
AcDbVisualStyle
  2
3D Hidden
 70
     6
177
     3
291
     0
 70
    58
 90
        1
176
     1
 90
        2
176
     1
 90
        2
176
     1
 90
        0
176
     1
 40
0.6
176
     1
 40
30.0
176
     1
 62
     7
420
 16777215
176
     1
 90
        2
176
     1
 90
        2
176
     1
 62
     7
176
     1
 62
   257
176
     1
 90
        2
176
     1
 90
        1
176
     1
 40
40.0
176
     1
 90
        0
176
     1
 62
   257
176
     1
 40
1.0
176
     1
 90
        1
176
     1
 90
        6
176
     1
 90
        2
176
     1
 62
     7
176
     1
 90
        3
176
     1
 90
        0
176
     1
 90
        0
176
     1
290
     0
176
     1
 90
        1
176
     1
 40
0.0
176
     1
 90
        0
176
     1
290
     0
176
     1
290
     1
176
     1
290
     1
176
     1
290
     0
176
     1
290
     0
176
     1
290
     0
176
     1
290
     0
176
     1
290
     0
176
     1
290
     0
176
     1
 90
       50
176
     1
 40
0.0
176
     1
 40
1.0
176
     1
 90
        0
176
     1
 62
    18
420
        0
176
     1
 90
       50
176
     1
 90
        3
176
     1
 62
     5
420
      255
176
     1
290
     0
176
     1
 90
       50
176
     1
 90
       50
176
     1
 90
       50
176
     1
290
     0
176
     1
 90
       50
176
     1
 62
   256
176
     0
 40
1.0
176
     0
 90
        2
176
     1
  1
strokes_ogs.tif
176
     1
290
     0
176
     1
 40
1.0
176
     1
 40
1.0
176
     1
1001
ACAD
1000
AcDbSavedByObjectVersion
1070
     0
  0
VISUALSTYLE
  5
30
102
{ACAD_REACTORS
330
2A
102
}
330
2A
100
AcDbVisualStyle
  2
3dWireframe
 70
     5
177
     3
291
     0
 70
    58
 90
        0
176
     1
 90
        2
176
     1
 90
        0
176
     1
 90
        0
176
     1
 40
0.6
176
     1
 40
30.0
176
     1
 62
     7
420
 16777215
176
     1
 90
        1
176
     1
 90
        4
176
     1
 62
     7
176
     1
 62
   257
176
     1
 90
        1
176
     1
 90
        1
176
     1
 40
1.0
176
     1
 90
        0
176
     1
 62
   257
176
     1
 40
1.0
176
     1
 90
        1
176
     1
 90
        6
176
     1
 90
        2
176
     1
 62
     7
176
     1
 90
        5
176
     1
 90
        0
176
     1
 90
        0
176
     1
290
     0
176
     1
 90
        1
176
     1
 40
0.0
176
     1
 90
        0
176
     1
290
     0
176
     1
290
     1
176
     1
290
     1
176
     1
290
     0
176
     1
290
     0
176
     1
290
     0
176
     1
290
     0
176
     1
290
     0
176
     1
290
     0
176
     1
 90
       50
176
     1
 40
0.0
176
     1
 40
1.0
176
     1
 90
        0
176
     1
 62
    18
420
        0
176
     1
 90
       50
176
     1
 90
        3
176
     1
 62
     5
420
      255
176
     1
290
     0
176
     1
 90
       50
176
     1
 90
       50
176
     1
 90
       50
176
     1
290
     0
176
     1
 90
       50
176
     1
 62
   256
176
     0
 40
1.0
176
     0
 90
        2
176
     1
  1
strokes_ogs.tif
176
     1
290
     0
176
     1
 40
1.0
176
     1
 40
1.0
176
     1
1001
ACAD
1000
AcDbSavedByObjectVersion
1070
     0
  0
VISUALSTYLE
  5
32
102
{ACAD_REACTORS
330
2A
102
}
330
2A
100
AcDbVisualStyle
  2
Basic
 70
     7
177
     3
291
     1
 70
    58
 90
        1
176
     1
 90
        0
176
     1
 90
        1
176
     1
 90
        0
176
     1
 40
0.6
176
     1
 40
30.0
176
     1
 62
     7
420
 16777215
176
     1
 90
        0
176
     1
 90
        4
176
     1
 62
     7
176
     1
 62
   257
176
     1
 90
        1
176
     1
 90
        1
176
     1
 40
1.0
176
     1
 90
        8
176
     1
 62
     7
176
     1
 40
1.0
176
     1
 90
        1
176
     1
 90
        6
176
     1
 90
        2
176
     1
 62
     7
176
     1
 90
        5
176
     1
 90
        0
176
     1
 90
        0
176
     1
290
     0
176
     1
 90
        1
176
     1
 40
0.0
176
     1
 90
        0
176
     1
290
     0
176
     1
290
     1
176
     1
290
     1
176
     1
290
     0
176
     1
290
     0
176
     1
290
     0
176
     1
290
     0
176
     1
290
     0
176
     1
290
     0
176
     1
 90
       50
176
     1
 40
0.0
176
     1
 40
1.0
176
     1
 90
        0
176
     1
 62
    18
420
        0
176
     1
 90
       50
176
     1
 90
        3
176
     1
 62
     5
420
      255
176
     1
290
     0
176
     1
 90
       50
176
     1
 90
       50
176
     1
 90
       50
176
     1
290
     0
176
     1
 90
       50
176
     1
 62
   256
176
     0
 40
1.0
176
     0
 90
        2
176
     1
  1
strokes_ogs.tif
176
     1
290
     0
176
     1
 40
1.0
176
     1
 40
1.0
176
     1
1001
ACAD
1000
AcDbSavedByObjectVersion
1070
     0
  0
VISUALSTYLE
  5
36
102
{ACAD_REACTORS
330
2A
102
}
330
2A
100
AcDbVisualStyle
  2
Brighten
 70
    12
177
     3
291
     1
 70
    58
 90
        2
176
     1
 90
        2
176
     1
 90
        0
176
     1
 90
        0
176
     1
 40
0.6
176
     1
 40
30.0
176
     1
 62
     7
420
 16777215
176
     1
 90
        1
176
     1
 90
        4
176
     1
 62
     7
176
     1
 62
   257
176
     1
 90
        1
176
     1
 90
        1
176
     1
 40
1.0
176
     1
 90
        8
176
     1
 62
     7
176
     1
 40
1.0
176
     1
 90
        1
176
     1
 90
        6
176
     1
 90
        2
176
     1
 62
     7
176
     1
 90
        5
176
     1
 90
        0
176
     1
 90
        0
176
     1
290
     0
176
     1
 90
        1
176
     1
 40
50.0
176
     1
 90
        0
176
     1
290
     0
176
     1
290
     1
176
     1
290
     1
176
     1
290
     0
176
     1
290
     0
176
     1
290
     0
176
     1
290
     0
176
     1
290
     0
176
     1
290
     0
176
     1
 90
       50
176
     1
 40
0.0
176
     1
 40
1.0
176
     1
 90
        0
176
     1
 62
    18
420
        0
176
     1
 90
       50
176
     1
 90
        3
176
     1
 62
     5
420
      255
176
     1
290
     0
176
     1
 90
       50
176
     1
 90
       50
176
     1
 90
       50
176
     1
290
     0
176
     1
 90
       50
176
     1
 62
   256
176
     0
 40
1.0
176
     0
 90
        2
176
     1
  1
strokes_ogs.tif
176
     1
290
     0
176
     1
 40
1.0
176
     1
 40
1.0
176
     1
1001
ACAD
1000
AcDbSavedByObjectVersion
1070
     0
  0
VISUALSTYLE
  5
3A
102
{ACAD_REACTORS
330
2A
102
}
330
2A
100
AcDbVisualStyle
  2
ColorChange
 70
    16
177
     3
291
     1
 70
    58
 90
        2
176
     1
 90
        2
176
     1
 90
        3
176
     1
 90
        0
176
     1
 40
0.6
176
     1
 40
30.0
176
     1
 62
     8
420
  8421504
176
     1
 90
        1
176
     1
 90
        4
176
     1
 62
     7
176
     1
 62
   257
176
     1
 90
        1
176
     1
 90
        1
176
     1
 40
1.0
176
     1
 90
        8
176
     1
 62
     8
420
  8421504
176
     1
 40
1.0
176
     1
 90
        1
176
     1
 90
        6
176
     1
 90
        2
176
     1
 62
     7
176
     1
 90
        5
176
     1
 90
        0
176
     1
 90
        0
176
     1
290
     0
176
     1
 90
        1
176
     1
 40
0.0
176
     1
 90
        0
176
     1
290
     0
176
     1
290
     1
176
     1
290
     1
176
     1
290
     0
176
     1
290
     0
176
     1
290
     0
176
     1
290
     0
176
     1
290
     0
176
     1
290
     0
176
     1
 90
       50
176
     1
 40
0.0
176
     1
 40
1.0
176
     1
 90
        0
176
     1
 62
    18
420
        0
176
     1
 90
       50
176
     1
 90
        3
176
     1
 62
     5
420
      255
176
     1
290
     0
176
     1
 90
       50
176
     1
 90
       50
176
     1
 90
       50
176
     1
290
     0
176
     1
 90
       50
176
     1
 62
   256
176
     0
 40
1.0
176
     0
 90
        2
176
     1
  1
strokes_ogs.tif
176
     1
290
     0
176
     1
 40
1.0
176
     1
 40
1.0
176
     1
1001
ACAD
1000
AcDbSavedByObjectVersion
1070
     0
  0
VISUALSTYLE
  5
34
102
{ACAD_REACTORS
330
2A
102
}
330
2A
100
AcDbVisualStyle
  2
Conceptual
 70
     9
177
     3
291
     0
 70
    58
 90
        3
176
     1
 90
        2
176
     1
 90
        0
176
     1
 90
        0
176
     1
 40
0.6
176
     1
 40
30.0
176
     1
 62
     7
420
 16777215
176
     1
 90
        2
176
     1
 90
        2
176
     1
 62
     7
176
     1
 62
   257
176
     1
 90
        1
176
     1
 90
        1
176
     1
 40
40.0
176
     1
 90
        8
176
     1
 62
     7
176
     1
 40
1.0
176
     1
 90
        1
176
     1
 90
        6
176
     1
 90
        2
176
     1
 62
     7
176
     1
 90
        3
176
     1
 90
        0
176
     1
 90
        0
176
     1
290
     0
176
     1
 90
        1
176
     1
 40
0.0
176
     1
 90
        0
176
     1
290
     0
176
     1
290
     1
176
     1
290
     1
176
     1
290
     0
176
     1
290
     0
176
     1
290
     0
176
     1
290
     0
176
     1
290
     0
176
     1
290
     0
176
     1
 90
       50
176
     1
 40
0.0
176
     1
 40
1.0
176
     1
 90
        0
176
     1
 62
    18
420
        0
176
     1
 90
       50
176
     1
 90
        3
176
     1
 62
     5
420
      255
176
     1
290
     0
176
     1
 90
       50
176
     1
 90
       50
176
     1
 90
       50
176
     1
290
     0
176
     1
 90
       50
176
     1
 62
   256
176
     0
 40
1.0
176
     0
 90
        2
176
     1
  1
strokes_ogs.tif
176
     1
290
     0
176
     1
 40
1.0
176
     1
 40
1.0
176
     1
1001
ACAD
1000
AcDbSavedByObjectVersion
1070
     0
  0
VISUALSTYLE
  5
35
102
{ACAD_REACTORS
330
2A
102
}
330
2A
100
AcDbVisualStyle
  2
Dim
 70
    11
177
     3
291
     1
 70
    58
 90
        2
176
     1
 90
        2
176
     1
 90
        0
176
     1
 90
        0
176
     1
 40
0.6
176
     1
 40
30.0
176
     1
 62
     7
420
 16777215
176
     1
 90
        1
176
     1
 90
        4
176
     1
 62
     7
176
     1
 62
   257
176
     1
 90
        1
176
     1
 90
        1
176
     1
 40
1.0
176
     1
 90
        8
176
     1
 62
     7
176
     1
 40
1.0
176
     1
 90
        1
176
     1
 90
        6
176
     1
 90
        2
176
     1
 62
     7
176
     1
 90
        5
176
     1
 90
        0
176
     1
 90
        0
176
     1
290
     0
176
     1
 90
        1
176
     1
 40
-50.0
176
     1
 90
        0
176
     1
290
     0
176
     1
290
     1
176
     1
290
     1
176
     1
290
     0
176
     1
290
     0
176
     1
290
     0
176
     1
290
     0
176
     1
290
     0
176
     1
290
     0
176
     1
 90
       50
176
     1
 40
0.0
176
     1
 40
1.0
176
     1
 90
        0
176
     1
 62
    18
420
        0
176
     1
 90
       50
176
     1
 90
        3
176
     1
 62
     5
420
      255
176
     1
290
     0
176
     1
 90
       50
176
     1
 90
       50
176
     1
 90
       50
176
     1
290
     0
176
     1
 90
       50
176
     1
 62
   256
176
     0
 40
1.0
176
     0
 90
        2
176
     1
  1
strokes_ogs.tif
176
     1
290
     0
176
     1
 40
1.0
176
     1
 40
1.0
176
     1
1001
ACAD
1000
AcDbSavedByObjectVersion
1070
     0
  0
VISUALSTYLE
  5
116
102
{ACAD_REACTORS
330
2A
102
}
330
2A
100
AcDbVisualStyle
  2
EdgeColorOff
 70
    22
177
     3
291
     1
 70
    58
 90
        2
176
     0
 90
        2
176
     0
 90
        0
176
     0
 90
        0
176
     0
 40
0.6
176
     0
 40
30.0
176
     0
 62
     7
420
 16777215
176
     0
 90
        1
176
     0
 90
        4
176
     0
 62
     7
176
     0
 62
   257
176
     0
 90
        1
176
     0
 90
        1
176
     0
 40
1.0
176
     0
 90
        8
176
     2
 62
     7
176
     0
 40
1.0
176
     0
 90
        1
176
     0
 90
        6
176
     0
 90
        2
176
     0
 62
     7
176
     0
 90
        5
176
     0
 90
        0
176
     0
 90
        0
176
     0
290
     0
176
     0
 90
        1
176
     0
 40
0.0
176
     0
 90
        0
176
     0
290
     0
176
     1
290
     1
176
     1
290
     1
176
     1
290
     0
176
     1
290
     0
176
     1
290
     0
176
     1
290
     0
176
     1
290
     0
176
     1
290
     0
176
     1
 90
       50
176
     0
 40
0.0
176
     0
 40
1.0
176
     0
 90
        0
176
     0
 62
    18
420
        0
176
     0
 90
       50
176
     0
 90
        3
176
     0
 62
     5
420
      255
176
     0
290
     0
176
     1
 90
       50
176
     0
 90
       50
176
     0
 90
       50
176
     0
290
     0
176
     1
 90
       50
176
     0
 62
   256
176
     0
 40
1.0
176
     0
 90
        2
176
     0
  1
strokes_ogs.tif
176
     0
290
     0
176
     1
 40
1.0
176
     0
 40
1.0
176
     0
1001
ACAD
1000
AcDbSavedByObjectVersion
1070
     0
  0
VISUALSTYLE
  5
39
102
{ACAD_REACTORS
330
2A
102
}
330
2A
100
AcDbVisualStyle
  2
Facepattern
 70
    15
177
     3
291
     1
 70
    58
 90
        2
176
     1
 90
        2
176
     1
 90
        0
176
     1
 90
        0
176
     1
 40
0.6
176
     1
 40
30.0
176
     1
 62
     7
420
 16777215
176
     1
 90
        1
176
     1
 90
        4
176
     1
 62
     7
176
     1
 62
   257
176
     1
 90
        1
176
     1
 90
        1
176
     1
 40
1.0
176
     1
 90
        8
176
     1
 62
     7
176
     1
 40
1.0
176
     1
 90
        1
176
     1
 90
        6
176
     1
 90
        2
176
     1
 62
     7
176
     1
 90
        5
176
     1
 90
        0
176
     1
 90
        0
176
     1
290
     0
176
     1
 90
        1
176
     1
 40
0.0
176
     1
 90
        0
176
     1
290
     0
176
     1
290
     1
176
     1
290
     1
176
     1
290
     0
176
     1
290
     0
176
     1
290
     0
176
     1
290
     0
176
     1
290
     0
176
     1
290
     0
176
     1
 90
       50
176
     1
 40
0.0
176
     1
 40
1.0
176
     1
 90
        0
176
     1
 62
    18
420
        0
176
     1
 90
       50
176
     1
 90
        3
176
     1
 62
     5
420
      255
176
     1
290
     0
176
     1
 90
       50
176
     1
 90
       50
176
     1
 90
       50
176
     1
290
     0
176
     1
 90
       50
176
     1
 62
   256
176
     0
 40
1.0
176
     0
 90
        2
176
     1
  1
strokes_ogs.tif
176
     1
290
     0
176
     1
 40
1.0
176
     1
 40
1.0
176
     1
1001
ACAD
1000
AcDbSavedByObjectVersion
1070
     0
  0
VISUALSTYLE
  5
2B
102
{ACAD_REACTORS
330
2A
102
}
330
2A
100
AcDbVisualStyle
  2
Flat
 70
     0
177
     3
291
     1
 70
    58
 90
        2
176
     1
 90
        1
176
     1
 90
        1
176
     1
 90
        2
176
     1
 40
0.6
176
     1
 40
30.0
176
     1
 62
     7
420
 16777215
176
     1
 90
        0
176
     1
 90
        4
176
     1
 62
     7
176
     1
 62
   257
176
     1
 90
        1
176
     1
 90
        1
176
     1
 40
1.0
176
     1
 90
        8
176
     1
 62
     7
176
     1
 40
1.0
176
     1
 90
        1
176
     1
 90
        6
176
     1
 90
        2
176
     1
 62
     7
176
     1
 90
        5
176
     1
 90
        0
176
     1
 90
        0
176
     1
290
     0
176
     1
 90
       13
176
     1
 40
0.0
176
     1
 90
        0
176
     1
290
     0
176
     1
290
     1
176
     1
290
     1
176
     1
290
     0
176
     1
290
     0
176
     1
290
     0
176
     1
290
     0
176
     1
290
     0
176
     1
290
     0
176
     1
 90
       50
176
     1
 40
0.0
176
     1
 40
1.0
176
     1
 90
        0
176
     1
 62
    18
420
        0
176
     1
 90
       50
176
     1
 90
        3
176
     1
 62
     5
420
      255
176
     1
290
     0
176
     1
 90
       50
176
     1
 90
       50
176
     1
 90
       50
176
     1
290
     0
176
     1
 90
       50
176
     1
 62
   256
176
     0
 40
1.0
176
     0
 90
        2
176
     1
  1
strokes_ogs.tif
176
     1
290
     0
176
     1
 40
1.0
176
     1
 40
1.0
176
     1
1001
ACAD
1000
AcDbSavedByObjectVersion
1070
     0
  0
VISUALSTYLE
  5
2C
102
{ACAD_REACTORS
330
2A
102
}
330
2A
100
AcDbVisualStyle
  2
FlatWithEdges
 70
     1
177
     3
291
     1
 70
    58
 90
        2
176
     1
 90
        1
176
     1
 90
        1
176
     1
 90
        2
176
     1
 40
0.6
176
     1
 40
30.0
176
     1
 62
     7
420
 16777215
176
     1
 90
        1
176
     1
 90
        4
176
     1
 62
     7
176
     1
 62
   257
176
     1
 90
        1
176
     1
 90
        1
176
     1
 40
1.0
176
     1
 90
        0
176
     1
 62
   257
176
     1
 40
1.0
176
     1
 90
        1
176
     1
 90
        6
176
     1
 90
        2
176
     1
 62
     7
176
     1
 90
        5
176
     1
 90
        0
176
     1
 90
        0
176
     1
290
     0
176
     1
 90
       13
176
     1
 40
0.0
176
     1
 90
        0
176
     1
290
     0
176
     1
290
     1
176
     1
290
     1
176
     1
290
     0
176
     1
290
     0
176
     1
290
     0
176
     1
290
     0
176
     1
290
     0
176
     1
290
     0
176
     1
 90
       50
176
     1
 40
0.0
176
     1
 40
1.0
176
     1
 90
        0
176
     1
 62
    18
420
        0
176
     1
 90
       50
176
     1
 90
        3
176
     1
 62
     5
420
      255
176
     1
290
     0
176
     1
 90
       50
176
     1
 90
       50
176
     1
 90
       50
176
     1
290
     0
176
     1
 90
       50
176
     1
 62
   256
176
     0
 40
1.0
176
     0
 90
        2
176
     1
  1
strokes_ogs.tif
176
     1
290
     0
176
     1
 40
1.0
176
     1
 40
1.0
176
     1
1001
ACAD
1000
AcDbSavedByObjectVersion
1070
     0
  0
VISUALSTYLE
  5
2D
102
{ACAD_REACTORS
330
2A
102
}
330
2A
100
AcDbVisualStyle
  2
Gouraud
 70
     2
177
     3
291
     1
 70
    58
 90
        2
176
     1
 90
        2
176
     1
 90
        1
176
     1
 90
        2
176
     1
 40
0.6
176
     1
 40
30.0
176
     1
 62
     7
420
 16777215
176
     1
 90
        0
176
     1
 90
        4
176
     1
 62
     7
176
     1
 62
   257
176
     1
 90
        1
176
     1
 90
        1
176
     1
 40
1.0
176
     1
 90
        0
176
     1
 62
     7
176
     1
 40
1.0
176
     1
 90
        1
176
     1
 90
        6
176
     1
 90
        2
176
     1
 62
     7
176
     1
 90
        5
176
     1
 90
        0
176
     1
 90
        0
176
     1
290
     0
176
     1
 90
       13
176
     1
 40
0.0
176
     1
 90
        0
176
     1
290
     0
176
     1
290
     1
176
     1
290
     1
176
     1
290
     0
176
     1
290
     0
176
     1
290
     0
176
     1
290
     0
176
     1
290
     0
176
     1
290
     0
176
     1
 90
       50
176
     1
 40
0.0
176
     1
 40
1.0
176
     1
 90
        0
176
     1
 62
    18
420
        0
176
     1
 90
       50
176
     1
 90
        3
176
     1
 62
     5
420
      255
176
     1
290
     0
176
     1
 90
       50
176
     1
 90
       50
176
     1
 90
       50
176
     1
290
     0
176
     1
 90
       50
176
     1
 62
   256
176
     0
 40
1.0
176
     0
 90
        2
176
     1
  1
strokes_ogs.tif
176
     1
290
     0
176
     1
 40
1.0
176
     1
 40
1.0
176
     1
1001
ACAD
1000
AcDbSavedByObjectVersion
1070
     0
  0
VISUALSTYLE
  5
2E
102
{ACAD_REACTORS
330
2A
102
}
330
2A
100
AcDbVisualStyle
  2
GouraudWithEdges
 70
     3
177
     3
291
     1
 70
    58
 90
        2
176
     1
 90
        2
176
     1
 90
        1
176
     1
 90
        2
176
     1
 40
0.6
176
     1
 40
30.0
176
     1
 62
     7
420
 16777215
176
     1
 90
        1
176
     1
 90
        4
176
     1
 62
     7
176
     1
 62
   257
176
     1
 90
        1
176
     1
 90
        1
176
     1
 40
1.0
176
     1
 90
        0
176
     1
 62
   257
176
     1
 40
1.0
176
     1
 90
        1
176
     1
 90
        6
176
     1
 90
        2
176
     1
 62
     7
176
     1
 90
        5
176
     1
 90
        0
176
     1
 90
        0
176
     1
290
     0
176
     1
 90
       13
176
     1
 40
0.0
176
     1
 90
        0
176
     1
290
     0
176
     1
290
     1
176
     1
290
     1
176
     1
290
     0
176
     1
290
     0
176
     1
290
     0
176
     1
290
     0
176
     1
290
     0
176
     1
290
     0
176
     1
 90
       50
176
     1
 40
0.0
176
     1
 40
1.0
176
     1
 90
        0
176
     1
 62
    18
420
        0
176
     1
 90
       50
176
     1
 90
        3
176
     1
 62
     5
420
      255
176
     1
290
     0
176
     1
 90
       50
176
     1
 90
       50
176
     1
 90
       50
176
     1
290
     0
176
     1
 90
       50
176
     1
 62
   256
176
     0
 40
1.0
176
     0
 90
        2
176
     1
  1
strokes_ogs.tif
176
     1
290
     0
176
     1
 40
1.0
176
     1
 40
1.0
176
     1
1001
ACAD
1000
AcDbSavedByObjectVersion
1070
     0
  0
VISUALSTYLE
  5
10E
102
{ACAD_REACTORS
330
2A
102
}
330
2A
100
AcDbVisualStyle
  2
Hidden
 70
     6
177
     3
291
     0
 70
    58
 90
        1
176
     1
 90
        2
176
     1
 90
        2
176
     1
 90
        0
176
     1
 40
0.6
176
     1
 40
30.0
176
     1
 62
     7
420
 16777215
176
     1
 90
        2
176
     1
 90
        2
176
     1
 62
     7
176
     1
 62
   257
176
     1
 90
        2
176
     1
 90
        1
176
     1
 40
40.0
176
     1
 90
        0
176
     1
 62
   257
176
     1
 40
1.0
176
     1
 90
        1
176
     1
 90
        6
176
     1
 90
        2
176
     1
 62
     7
176
     1
 90
        3
176
     1
 90
        0
176
     1
 90
        0
176
     1
290
     0
176
     1
 90
        1
176
     1
 40
0.0
176
     1
 90
        0
176
     1
290
     0
176
     1
290
     1
176
     1
290
     1
176
     1
290
     0
176
     1
290
     0
176
     1
290
     0
176
     1
290
     0
176
     1
290
     0
176
     1
290
     0
176
     1
 90
       50
176
     1
 40
0.0
176
     1
 40
1.0
176
     1
 90
        0
176
     1
 62
    18
420
        0
176
     1
 90
       50
176
     1
 90
        3
176
     1
 62
     5
420
      255
176
     1
290
     0
176
     1
 90
       50
176
     1
 90
       50
176
     1
 90
       50
176
     1
290
     0
176
     1
 90
       50
176
     1
 62
   256
176
     0
 40
1.0
176
     0
 90
        2
176
     1
  1
strokes_ogs.tif
176
     1
290
     0
176
     1
 40
1.0
176
     1
 40
1.0
176
     1
1001
ACAD
1000
AcDbSavedByObjectVersion
1070
     0
  0
VISUALSTYLE
  5
114
102
{ACAD_REACTORS
330
2A
102
}
330
2A
100
AcDbVisualStyle
  2
JitterOff
 70
    20
177
     3
291
     1
 70
    58
 90
        2
176
     0
 90
        2
176
     0
 90
        0
176
     0
 90
        0
176
     0
 40
0.6
176
     0
 40
30.0
176
     0
 62
     7
420
 16777215
176
     0
 90
        1
176
     0
 90
        4
176
     0
 62
     7
176
     0
 62
   257
176
     0
 90
        1
176
     0
 90
        1
176
     0
 40
1.0
176
     0
 90
       10
176
     2
 62
     7
176
     0
 40
1.0
176
     0
 90
        1
176
     0
 90
        6
176
     0
 90
        2
176
     0
 62
     7
176
     0
 90
        5
176
     0
 90
        0
176
     0
 90
        0
176
     0
290
     0
176
     0
 90
        1
176
     0
 40
0.0
176
     0
 90
        0
176
     0
290
     0
176
     1
290
     1
176
     1
290
     1
176
     1
290
     0
176
     1
290
     0
176
     1
290
     0
176
     1
290
     0
176
     1
290
     0
176
     1
290
     0
176
     1
 90
       50
176
     0
 40
0.0
176
     0
 40
1.0
176
     0
 90
        0
176
     0
 62
    18
420
        0
176
     0
 90
       50
176
     0
 90
        3
176
     0
 62
     5
420
      255
176
     0
290
     0
176
     1
 90
       50
176
     0
 90
       50
176
     0
 90
       50
176
     0
290
     0
176
     1
 90
       50
176
     0
 62
   256
176
     0
 40
1.0
176
     0
 90
        2
176
     0
  1
strokes_ogs.tif
176
     0
290
     0
176
     1
 40
1.0
176
     0
 40
1.0
176
     0
1001
ACAD
1000
AcDbSavedByObjectVersion
1070
     0
  0
VISUALSTYLE
  5
38
102
{ACAD_REACTORS
330
2A
102
}
330
2A
100
AcDbVisualStyle
  2
Linepattern
 70
    14
177
     3
291
     1
 70
    58
 90
        2
176
     1
 90
        2
176
     1
 90
        0
176
     1
 90
        0
176
     1
 40
0.6
176
     1
 40
30.0
176
     1
 62
     7
420
 16777215
176
     1
 90
        1
176
     1
 90
        4
176
     1
 62
     7
176
     1
 62
   257
176
     1
 90
        7
176
     1
 90
        7
176
     1
 40
1.0
176
     1
 90
        8
176
     1
 62
     7
176
     1
 40
1.0
176
     1
 90
        1
176
     1
 90
        6
176
     1
 90
        2
176
     1
 62
     7
176
     1
 90
        5
176
     1
 90
        0
176
     1
 90
        0
176
     1
290
     0
176
     1
 90
        1
176
     1
 40
0.0
176
     1
 90
        0
176
     1
290
     0
176
     1
290
     1
176
     1
290
     1
176
     1
290
     0
176
     1
290
     0
176
     1
290
     0
176
     1
290
     0
176
     1
290
     0
176
     1
290
     0
176
     1
 90
       50
176
     1
 40
0.0
176
     1
 40
1.0
176
     1
 90
        0
176
     1
 62
    18
420
        0
176
     1
 90
       50
176
     1
 90
        3
176
     1
 62
     5
420
      255
176
     1
290
     0
176
     1
 90
       50
176
     1
 90
       50
176
     1
 90
       50
176
     1
290
     0
176
     1
 90
       50
176
     1
 62
   256
176
     0
 40
1.0
176
     0
 90
        2
176
     1
  1
strokes_ogs.tif
176
     1
290
     0
176
     1
 40
1.0
176
     1
 40
1.0
176
     1
1001
ACAD
1000
AcDbSavedByObjectVersion
1070
     0
  0
VISUALSTYLE
  5
115
102
{ACAD_REACTORS
330
2A
102
}
330
2A
100
AcDbVisualStyle
  2
OverhangOff
 70
    21
177
     3
291
     1
 70
    58
 90
        2
176
     0
 90
        2
176
     0
 90
        0
176
     0
 90
        0
176
     0
 40
0.6
176
     0
 40
30.0
176
     0
 62
     7
420
 16777215
176
     0
 90
        1
176
     0
 90
        4
176
     0
 62
     7
176
     0
 62
   257
176
     0
 90
        1
176
     0
 90
        1
176
     0
 40
1.0
176
     0
 90
        9
176
     2
 62
     7
176
     0
 40
1.0
176
     0
 90
        1
176
     0
 90
        6
176
     0
 90
        2
176
     0
 62
     7
176
     0
 90
        5
176
     0
 90
        0
176
     0
 90
        0
176
     0
290
     0
176
     0
 90
        1
176
     0
 40
0.0
176
     0
 90
        0
176
     0
290
     0
176
     1
290
     1
176
     1
290
     1
176
     1
290
     0
176
     1
290
     0
176
     1
290
     0
176
     1
290
     0
176
     1
290
     0
176
     1
290
     0
176
     1
 90
       50
176
     0
 40
0.0
176
     0
 40
1.0
176
     0
 90
        0
176
     0
 62
    18
420
        0
176
     0
 90
       50
176
     0
 90
        3
176
     0
 62
     5
420
      255
176
     0
290
     0
176
     1
 90
       50
176
     0
 90
       50
176
     0
 90
       50
176
     0
290
     0
176
     1
 90
       50
176
     0
 62
   256
176
     0
 40
1.0
176
     0
 90
        2
176
     0
  1
strokes_ogs.tif
176
     0
290
     0
176
     1
 40
1.0
176
     0
 40
1.0
176
     0
1001
ACAD
1000
AcDbSavedByObjectVersion
1070
     0
  0
VISUALSTYLE
  5
33
102
{ACAD_REACTORS
330
2A
102
}
330
2A
100
AcDbVisualStyle
  2
Realistic
 70
     8
177
     3
291
     0
 70
    58
 90
        2
176
     1
 90
        2
176
     1
 90
        0
176
     1
 90
        0
176
     1
 40
0.6
176
     1
 40
30.0
176
     1
 62
     7
420
 16777215
176
     1
 90
        1
176
     1
 90
        0
176
     1
 62
     7
176
     1
 62
   257
176
     1
 90
        1
176
     1
 90
        1
176
     1
 40
1.0
176
     1
 90
        8
176
     1
 62
     8
420
  7895160
176
     1
 40
1.0
176
     1
 90
        1
176
     1
 90
        6
176
     1
 90
        2
176
     1
 62
     7
176
     1
 90
        5
176
     1
 90
        0
176
     1
 90
        0
176
     1
290
     0
176
     1
 90
       13
176
     1
 40
0.0
176
     1
 90
        0
176
     1
290
     0
176
     1
290
     1
176
     1
290
     1
176
     1
290
     0
176
     1
290
     0
176
     1
290
     0
176
     1
290
     0
176
     1
290
     0
176
     1
290
     0
176
     1
 90
       50
176
     1
 40
0.0
176
     1
 40
1.0
176
     1
 90
        0
176
     1
 62
    18
420
        0
176
     1
 90
       50
176
     1
 90
        3
176
     1
 62
     5
420
      255
176
     1
290
     0
176
     1
 90
       50
176
     1
 90
       50
176
     1
 90
       50
176
     1
290
     0
176
     1
 90
       50
176
     1
 62
   256
176
     0
 40
1.0
176
     0
 90
        2
176
     1
  1
strokes_ogs.tif
176
     1
290
     0
176
     1
 40
1.0
176
     1
 40
1.0
176
     1
1001
ACAD
1000
AcDbSavedByObjectVersion
1070
     0
  0
VISUALSTYLE
  5
113
102
{ACAD_REACTORS
330
2A
102
}
330
2A
100
AcDbVisualStyle
  2
Shaded
 70
    27
177
     3
291
     0
 70
    58
 90
        2
176
     1
 90
        2
176
     1
 90
        1
176
     1
 90
        2
176
     1
 40
0.6
176
     1
 40
30.0
176
     1
 62
     7
420
 16777215
176
     1
 90
        0
176
     1
 90
        4
176
     1
 62
     7
176
     1
 62
   257
176
     1
 90
        1
176
     1
 90
        1
176
     1
 40
1.0
176
     1
 90
        8
176
     1
 62
   257
176
     1
 40
1.0
176
     1
 90
        1
176
     1
 90
        6
176
     1
 90
        2
176
     1
 62
     8
420
  7895160
176
     1
 90
        3
176
     1
 90
        0
176
     1
 90
        0
176
     1
290
     0
176
     1
 90
        5
176
     1
 40
0.0
176
     1
 90
        0
176
     1
290
     0
176
     1
290
     1
176
     1
290
     1
176
     1
290
     0
176
     1
290
     0
176
     1
290
     0
176
     1
290
     0
176
     1
290
     0
176
     1
290
     0
176
     1
 90
       50
176
     1
 40
0.0
176
     1
 40
1.0
176
     1
 90
        0
176
     1
 62
    18
420
        0
176
     1
 90
       50
176
     1
 90
        3
176
     1
 62
     5
420
      255
176
     1
290
     0
176
     1
 90
       50
176
     1
 90
       50
176
     1
 90
       50
176
     1
290
     0
176
     1
 90
       50
176
     1
 62
   256
176
     0
 40
1.0
176
     0
 90
        2
176
     1
  1
strokes_ogs.tif
176
     1
290
     0
176
     1
 40
1.0
176
     1
 40
1.0
176
     1
1001
ACAD
1000
AcDbSavedByObjectVersion
1070
     0
  0
VISUALSTYLE
  5
112
102
{ACAD_REACTORS
330
2A
102
}
330
2A
100
AcDbVisualStyle
  2
Shaded with edges
 70
    26
177
     3
291
     0
 70
    58
 90
        2
176
     1
 90
        2
176
     1
 90
        1
176
     1
 90
        2
176
     1
 40
0.6
176
     1
 40
30.0
176
     1
 62
     7
420
 16777215
176
     1
 90
        1
176
     1
 90
        2
176
     1
 62
     7
176
     1
 62
   257
176
     1
 90
        2
176
     1
 90
        1
176
     1
 40
1.0
176
     1
 90
        8
176
     1
 62
   257
176
     1
 40
1.0
176
     1
 90
        1
176
     1
 90
        6
176
     1
 90
        2
176
     1
 62
     7
176
     1
 90
        3
176
     1
 90
        0
176
     1
 90
        0
176
     1
290
     0
176
     1
 90
        5
176
     1
 40
0.0
176
     1
 90
        0
176
     1
290
     0
176
     1
290
     1
176
     1
290
     1
176
     1
290
     0
176
     1
290
     0
176
     1
290
     0
176
     1
290
     0
176
     1
290
     0
176
     1
290
     0
176
     1
 90
       50
176
     1
 40
0.0
176
     1
 40
1.0
176
     1
 90
        0
176
     1
 62
    18
420
        0
176
     1
 90
       50
176
     1
 90
        3
176
     1
 62
     5
420
      255
176
     1
290
     0
176
     1
 90
       50
176
     1
 90
       50
176
     1
 90
       50
176
     1
290
     0
176
     1
 90
       50
176
     1
 62
   256
176
     0
 40
1.0
176
     0
 90
        2
176
     1
  1
strokes_ogs.tif
176
     1
290
     0
176
     1
 40
1.0
176
     1
 40
1.0
176
     1
1001
ACAD
1000
AcDbSavedByObjectVersion
1070
     0
  0
VISUALSTYLE
  5
10F
102
{ACAD_REACTORS
330
2A
102
}
330
2A
100
AcDbVisualStyle
  2
Shades of Gray
 70
    23
177
     3
291
     0
 70
    58
 90
        2
176
     1
 90
        2
176
     1
 90
        3
176
     1
 90
        0
176
     1
 40
0.6
176
     1
 40
30.0
176
     1
 62
     7
420
 16777215
176
     1
 90
        2
176
     1
 90
        2
176
     1
 62
     7
176
     1
 62
     7
176
     1
 90
        1
176
     1
 90
        1
176
     1
 40
40.0
176
     1
 90
        8
176
     1
 62
     7
176
     1
 40
1.0
176
     1
 90
        1
176
     1
 90
        6
176
     1
 90
        2
176
     1
 62
     7
176
     1
 90
        3
176
     1
 90
        0
176
     1
 90
        0
176
     1
290
     0
176
     1
 90
        1
176
     1
 40
0.0
176
     1
 90
        0
176
     1
290
     0
176
     1
290
     1
176
     1
290
     1
176
     1
290
     0
176
     1
290
     0
176
     1
290
     0
176
     1
290
     0
176
     1
290
     0
176
     1
290
     0
176
     1
 90
       50
176
     1
 40
0.0
176
     1
 40
1.0
176
     1
 90
        0
176
     1
 62
    18
420
        0
176
     1
 90
       50
176
     1
 90
        3
176
     1
 62
     5
420
      255
176
     1
290
     0
176
     1
 90
       50
176
     1
 90
       50
176
     1
 90
       50
176
     1
290
     0
176
     1
 90
       50
176
     1
 62
   256
176
     0
 40
1.0
176
     0
 90
        2
176
     1
  1
strokes_ogs.tif
176
     1
290
     0
176
     1
 40
1.0
176
     1
 40
1.0
176
     1
1001
ACAD
1000
AcDbSavedByObjectVersion
1070
     0
  0
VISUALSTYLE
  5
110
102
{ACAD_REACTORS
330
2A
102
}
330
2A
100
AcDbVisualStyle
  2
Sketchy
 70
    24
177
     3
291
     0
 70
    58
 90
        1
176
     1
 90
        2
176
     1
 90
        2
176
     1
 90
        0
176
     1
 40
0.6
176
     1
 40
30.0
176
     1
 62
     7
420
 16777215
176
     1
 90
        2
176
     1
 90
        2
176
     1
 62
     7
176
     1
 62
     7
176
     1
 90
        1
176
     1
 90
        1
176
     1
 40
40.0
176
     1
 90
       11
176
     1
 62
     7
176
     1
 40
1.0
176
     1
 90
        1
176
     1
 90
        6
176
     1
 90
        2
176
     1
 62
     7
176
     1
 90
        6
176
     1
 90
        0
176
     1
 90
        0
176
     1
290
     0
176
     1
 90
        1
176
     1
 40
0.0
176
     1
 90
        0
176
     1
290
     0
176
     1
290
     1
176
     1
290
     1
176
     1
290
     0
176
     1
290
     0
176
     1
290
     0
176
     1
290
     0
176
     1
290
     0
176
     1
290
     0
176
     1
 90
       50
176
     1
 40
0.0
176
     1
 40
1.0
176
     1
 90
        0
176
     1
 62
    18
420
        0
176
     1
 90
       50
176
     1
 90
        3
176
     1
 62
     5
420
      255
176
     1
290
     0
176
     1
 90
       50
176
     1
 90
       50
176
     1
 90
       50
176
     1
290
     0
176
     1
 90
       50
176
     1
 62
   256
176
     0
 40
1.0
176
     0
 90
        2
176
     1
  1
strokes_ogs.tif
176
     1
290
     0
176
     1
 40
1.0
176
     1
 40
1.0
176
     1
1001
ACAD
1000
AcDbSavedByObjectVersion
1070
     0
  0
VISUALSTYLE
  5
37
102
{ACAD_REACTORS
330
2A
102
}
330
2A
100
AcDbVisualStyle
  2
Thicken
 70
    13
177
     3
291
     1
 70
    58
 90
        2
176
     1
 90
        2
176
     1
 90
        0
176
     1
 90
        0
176
     1
 40
0.6
176
     1
 40
30.0
176
     1
 62
     7
420
 16777215
176
     1
 90
        1
176
     1
 90
        4
176
     1
 62
     7
176
     1
 62
   257
176
     1
 90
        1
176
     1
 90
        1
176
     1
 40
1.0
176
     1
 90
       12
176
     1
 62
     7
176
     1
 40
1.0
176
     1
 90
        1
176
     1
 90
        6
176
     1
 90
        2
176
     1
 62
     7
176
     1
 90
        5
176
     1
 90
        0
176
     1
 90
        0
176
     1
290
     0
176
     1
 90
        1
176
     1
 40
0.0
176
     1
 90
        0
176
     1
290
     0
176
     1
290
     1
176
     1
290
     1
176
     1
290
     0
176
     1
290
     0
176
     1
290
     0
176
     1
290
     0
176
     1
290
     0
176
     1
290
     0
176
     1
 90
       50
176
     1
 40
0.0
176
     1
 40
1.0
176
     1
 90
        0
176
     1
 62
    18
420
        0
176
     1
 90
       50
176
     1
 90
        3
176
     1
 62
     5
420
      255
176
     1
290
     0
176
     1
 90
       50
176
     1
 90
       50
176
     1
 90
       50
176
     1
290
     0
176
     1
 90
       50
176
     1
 62
   256
176
     0
 40
1.0
176
     0
 90
        2
176
     1
  1
strokes_ogs.tif
176
     1
290
     0
176
     1
 40
1.0
176
     1
 40
1.0
176
     1
1001
ACAD
1000
AcDbSavedByObjectVersion
1070
     0
  0
VISUALSTYLE
  5
10D
102
{ACAD_REACTORS
330
2A
102
}
330
2A
100
AcDbVisualStyle
  2
Wireframe
 70
     5
177
     3
291
     0
 70
    58
 90
        0
176
     1
 90
        2
176
     1
 90
        0
176
     1
 90
        0
176
     1
 40
0.6
176
     1
 40
30.0
176
     1
 62
     7
420
 16777215
176
     1
 90
        1
176
     1
 90
        4
176
     1
 62
     7
176
     1
 62
   257
176
     1
 90
        1
176
     1
 90
        1
176
     1
 40
1.0
176
     1
 90
        0
176
     1
 62
   257
176
     1
 40
1.0
176
     1
 90
        1
176
     1
 90
        6
176
     1
 90
        2
176
     1
 62
     7
176
     1
 90
        3
176
     1
 90
        0
176
     1
 90
        0
176
     1
290
     0
176
     1
 90
        1
176
     1
 40
0.0
176
     1
 90
        0
176
     1
290
     0
176
     1
290
     1
176
     1
290
     1
176
     1
290
     0
176
     1
290
     0
176
     1
290
     0
176
     1
290
     0
176
     1
290
     0
176
     1
290
     0
176
     1
 90
       50
176
     1
 40
0.0
176
     1
 40
1.0
176
     1
 90
        0
176
     1
 62
    18
420
        0
176
     1
 90
       50
176
     1
 90
        3
176
     1
 62
     5
420
      255
176
     1
290
     0
176
     1
 90
       50
176
     1
 90
       50
176
     1
 90
       50
176
     1
290
     0
176
     1
 90
       50
176
     1
 62
   256
176
     0
 40
1.0
176
     0
 90
        2
176
     1
  1
strokes_ogs.tif
176
     1
290
     0
176
     1
 40
1.0
176
     1
 40
1.0
176
     1
1001
ACAD
1000
AcDbSavedByObjectVersion
1070
     0
  0
VISUALSTYLE
  5
111
102
{ACAD_REACTORS
330
2A
102
}
330
2A
100
AcDbVisualStyle
  2
X-Ray
 70
    25
177
     3
291
     0
 70
    58
 90
        2
176
     1
 90
        2
176
     1
 90
        1
176
     1
 90
        1
176
     1
 40
0.5
176
     1
 40
30.0
176
     1
 62
     7
420
 16777215
176
     1
 90
        1
176
     1
 90
        0
176
     1
 62
     7
176
     1
 62
   257
176
     1
 90
        1
176
     1
 90
        1
176
     1
 40
1.0
176
     1
 90
        8
176
     1
 62
     7
176
     1
 40
1.0
176
     1
 90
        1
176
     1
 90
        6
176
     1
 90
        2
176
     1
 62
     7
176
     1
 90
        3
176
     1
 90
        0
176
     1
 90
        0
176
     1
290
     0
176
     1
 90
       13
176
     1
 40
0.0
176
     1
 90
        0
176
     1
290
     0
176
     1
290
     1
176
     1
290
     1
176
     1
290
     0
176
     1
290
     0
176
     1
290
     0
176
     1
290
     0
176
     1
290
     0
176
     1
290
     0
176
     1
 90
       50
176
     1
 40
0.0
176
     1
 40
1.0
176
     1
 90
        0
176
     1
 62
    18
420
        0
176
     1
 90
       50
176
     1
 90
        3
176
     1
 62
     5
420
      255
176
     1
290
     0
176
     1
 90
       50
176
     1
 90
       50
176
     1
 90
       50
176
     1
290
     0
176
     1
 90
       50
176
     1
 62
   256
176
     0
 40
1.0
176
     0
 90
        2
176
     1
  1
strokes_ogs.tif
176
     1
290
     0
176
     1
 40
1.0
176
     1
 40
1.0
176
     1
1001
ACAD
1000
AcDbSavedByObjectVersion
1070
     0
  0
DICTIONARYVAR
  5
21F
102
{ACAD_REACTORS
330
21A
102
}
330
21A
100
DictionaryVariables
280
     0
  1
1:1
  0
DICTIONARYVAR
  5
21C
102
{ACAD_REACTORS
330
21A
102
}
330
21A
100
DictionaryVariables
280
     0
  1
STANDARD
  0
DICTIONARYVAR
  5
21B
102
{ACAD_REACTORS
330
21A
102
}
330
21A
100
DictionaryVariables
280
     0
  1
STANDARD
  0
DICTIONARYVAR
  5
21D
102
{ACAD_REACTORS
330
21A
102
}
330
21A
100
DictionaryVariables
280
     0
  1
Imperial24
  0
DICTIONARYVAR
  5
21E
102
{ACAD_REACTORS
330
21A
102
}
330
21A
100
DictionaryVariables
280
     0
  1
Imperial24
  0
DICTIONARY
  5
225
330
133
100
AcDbDictionary
280
     1
281
     1
  3
ACAD_XREC_ROUNDTRIP
360
226
  0
DICTIONARY
  5
223
330
131
100
AcDbDictionary
280
     1
281
     1
  3
ACAD_XREC_ROUNDTRIP
360
224
  0
DICTIONARY
  5
220
330
118
100
AcDbDictionary
280
     1
281
     1
  3
ACAD_ROUNDTRIP_2008_TABLESTYLE_CELLSTYLEMAP
360
221
  0
XRECORD
  5
226
102
{ACAD_REACTORS
330
225
102
}
330
225
100
AcDbXrecord
280
     1
102
DISPLAYNAME
  1
Imperial24
102
FLAGS
 90
        0
  0
XRECORD
  5
224
102
{ACAD_REACTORS
330
223
102
}
330
223
100
AcDbXrecord
280
     1
102
DISPLAYNAME
  1
Imperial24
102
FLAGS
 90
        0
  0
CELLSTYLEMAP
  5
221
102
{ACAD_REACTORS
330
220
102
}
330
220
100
AcDbCellStyleMap
 90
        3
300
CELLSTYLE
  1
TABLEFORMAT_BEGIN
 90
        5
170
     1
 91
        0
 92
    32768
 62
   257
 93
        1
300
CONTENTFORMAT
  1
CONTENTFORMAT_BEGIN
 90
        0
 91
        0
 92
      512
 93
        0
300

 40
0.0
140
1.0
 94
        5
 62
     0
340
11
144
0.25
309
CONTENTFORMAT_END
171
     0
 94
        0
309
TABLEFORMAT_END
  1
CELLSTYLE_BEGIN
 90
        1
 91
        1
300
_TITLE
309
CELLSTYLE_END
300
CELLSTYLE
  1
TABLEFORMAT_BEGIN
 90
        5
170
     1
 91
        0
 92
        0
 62
   257
 93
        1
300
CONTENTFORMAT
  1
CONTENTFORMAT_BEGIN
 90
        0
 91
        0
 92
      512
 93
        0
300

 40
0.0
140
1.0
 94
        5
 62
     0
340
11
144
0.18
309
CONTENTFORMAT_END
171
     0
 94
        0
309
TABLEFORMAT_END
  1
CELLSTYLE_BEGIN
 90
        2
 91
        1
300
_HEADER
309
CELLSTYLE_END
300
CELLSTYLE
  1
TABLEFORMAT_BEGIN
 90
        5
170
     1
 91
        0
 92
        0
 62
   257
 93
        1
300
CONTENTFORMAT
  1
CONTENTFORMAT_BEGIN
 90
        0
 91
        0
 92
      512
 93
        0
300

 40
0.0
140
1.0
 94
        2
 62
     0
340
11
144
0.18
309
CONTENTFORMAT_END
171
     0
 94
        0
309
TABLEFORMAT_END
  1
CELLSTYLE_BEGIN
 90
        3
 91
        2
300
_DATA
309
CELLSTYLE_END
  0
ENDSEC
  0
EOF
