  0
SECTION
  2
HEADER
  9
$ACADVER
  1
AC1027
  9
$ACADMAINTVER
 70
   125
  9
$DWGCODEPAGE
  3
ANSI_1252
  9
$LASTSAVEDBY
  1
ufficio.tecnico
  9
$REQUIREDVERSIONS
160
                 0
  9
$INSBASE
 10
0.0
 20
0.0
 30
0.0
  9
$EXTMIN
 10
7.000000317230444
 20
-22.99999961558762
 30
0.0
  9
$EXTMAX
 10
104.4822164822988
 20
55.62712685861828
 30
0.0
  9
$LIMMIN
 10
0.0
 20
0.0
  9
$LIMMAX
 10
12.0
 20
9.0
  9
$ORTHOMODE
 70
     0
  9
$REGENMODE
 70
     1
  9
$FILLMODE
 70
     1
  9
$QTEXTMODE
 70
     0
  9
$MIRRTEXT
 70
     0
  9
$LTSCALE
 40
1.0
  9
$ATTMODE
 70
     1
  9
$TEXTSIZE
 40
0.2
  9
$TRACEWID
 40
0.05
  9
$TEXTSTYLE
  7
Standard
  9
$CLAYER
  8
0
  9
$CELTYPE
  6
ByLayer
  9
$CECOLOR
 62
   256
  9
$CELTSCALE
 40
1.0
  9
$DISPSILH
 70
     0
  9
$DIMSCALE
 40
1.0
  9
$DIMASZ
 40
0.18
  9
$DIMEXO
 40
0.0625
  9
$DIMDLI
 40
0.38
  9
$DIMRND
 40
0.0
  9
$DIMDLE
 40
0.0
  9
$DIMEXE
 40
0.18
  9
$DIMTP
 40
0.0
  9
$DIMTM
 40
0.0
  9
$DIMTXT
 40
0.18
  9
$DIMCEN
 40
0.09
  9
$DIMTSZ
 40
0.0
  9
$DIMTOL
 70
     0
  9
$DIMLIM
 70
     0
  9
$DIMTIH
 70
     1
  9
$DIMTOH
 70
     1
  9
$DIMSE1
 70
     0
  9
$DIMSE2
 70
     0
  9
$DIMTAD
 70
     0
  9
$DIMZIN
 70
     0
  9
$DIMBLK
  1

  9
$DIMASO
 70
     1
  9
$DIMSHO
 70
     1
  9
$DIMPOST
  1

  9
$DIMAPOST
  1

  9
$DIMALT
 70
     0
  9
$DIMALTD
 70
     2
  9
$DIMALTF
 40
25.4
  9
$DIMLFAC
 40
1.0
  9
$DIMTOFL
 70
     0
  9
$DIMTVP
 40
0.0
  9
$DIMTIX
 70
     0
  9
$DIMSOXD
 70
     0
  9
$DIMSAH
 70
     0
  9
$DIMBLK1
  1

  9
$DIMBLK2
  1

  9
$DIMSTYLE
  2
Standard
  9
$DIMCLRD
 70
     0
  9
$DIMCLRE
 70
     0
  9
$DIMCLRT
 70
     0
  9
$DIMTFAC
 40
1.0
  9
$DIMGAP
 40
0.09
  9
$DIMJUST
 70
     0
  9
$DIMSD1
 70
     0
  9
$DIMSD2
 70
     0
  9
$DIMTOLJ
 70
     1
  9
$DIMTZIN
 70
     0
  9
$DIMALTZ
 70
     0
  9
$DIMALTTZ
 70
     0
  9
$DIMUPT
 70
     0
  9
$DIMDEC
 70
     4
  9
$DIMTDEC
 70
     4
  9
$DIMALTU
 70
     2
  9
$DIMALTTD
 70
     2
  9
$DIMTXSTY
  7
Standard
  9
$DIMAUNIT
 70
     0
  9
$DIMADEC
 70
     0
  9
$DIMALTRND
 40
0.0
  9
$DIMAZIN
 70
     0
  9
$DIMDSEP
 70
    46
  9
$DIMATFIT
 70
     3
  9
$DIMFRAC
 70
     0
  9
$DIMLDRBLK
  1

  9
$DIMLUNIT
 70
     2
  9
$DIMLWD
 70
    -2
  9
$DIMLWE
 70
    -2
  9
$DIMTMOVE
 70
     0
  9
$DIMFXL
 40
1.0
  9
$DIMFXLON
 70
     0
  9
$DIMJOGANG
 40
0.7853981633974483
  9
$DIMTFILL
 70
     0
  9
$DIMTFILLCLR
 70
     0
  9
$DIMARCSYM
 70
     0
  9
$DIMLTYPE
  6

  9
$DIMLTEX1
  6

  9
$DIMLTEX2
  6

  9
$DIMTXTDIRECTION
 70
     0
  9
$LUNITS
 70
     2
  9
$LUPREC
 70
     4
  9
$SKETCHINC
 40
0.1
  9
$FILLETRAD
 40
0.0
  9
$AUNITS
 70
     0
  9
$AUPREC
 70
     0
  9
$MENU
  1
.
  9
$ELEVATION
 40
0.0
  9
$PELEVATION
 40
0.0
  9
$THICKNESS
 40
0.0
  9
$LIMCHECK
 70
     0
  9
$CHAMFERA
 40
0.0
  9
$CHAMFERB
 40
0.0
  9
$CHAMFERC
 40
0.0
  9
$CHAMFERD
 40
0.0
  9
$SKPOLY
 70
     0
  9
$TDCREATE
 40
2459328.431932870
  9
$TDUCREATE
 40
2459328.348599537
  9
$TDUPDATE
 40
2459341.393703704
  9
$TDUUPDATE
 40
2459341.310370370
  9
$TDINDWG
 40
0.0075694444
  9
$TDUSRTIMER
 40
0.0075694444
  9
$USRTIMER
 70
     1
  9
$ANGBASE
 50
0.0
  9
$ANGDIR
 70
     0
  9
$PDMODE
 70
     0
  9
$PDSIZE
 40
0.0
  9
$PLINEWID
 40
0.0
  9
$SPLFRAME
 70
     0
  9
$SPLINETYPE
 70
     6
  9
$SPLINESEGS
 70
     8
  9
$HANDSEED
  5
995
  9
$SURFTAB1
 70
     6
  9
$SURFTAB2
 70
     6
  9
$SURFTYPE
 70
     6
  9
$SURFU
 70
     6
  9
$SURFV
 70
     6
  9
$UCSBASE
  2

  9
$UCSNAME
  2

  9
$UCSORG
 10
0.0
 20
0.0
 30
0.0
  9
$UCSXDIR
 10
1.0
 20
0.0
 30
0.0
  9
$UCSYDIR
 10
0.0
 20
1.0
 30
0.0
  9
$UCSORTHOREF
  2

  9
$UCSORTHOVIEW
 70
     0
  9
$UCSORGTOP
 10
0.0
 20
0.0
 30
0.0
  9
$UCSORGBOTTOM
 10
0.0
 20
0.0
 30
0.0
  9
$UCSORGLEFT
 10
0.0
 20
0.0
 30
0.0
  9
$UCSORGRIGHT
 10
0.0
 20
0.0
 30
0.0
  9
$UCSORGFRONT
 10
0.0
 20
0.0
 30
0.0
  9
$UCSORGBACK
 10
0.0
 20
0.0
 30
0.0
  9
$PUCSBASE
  2

  9
$PUCSNAME
  2

  9
$PUCSORG
 10
0.0
 20
0.0
 30
0.0
  9
$PUCSXDIR
 10
1.0
 20
0.0
 30
0.0
  9
$PUCSYDIR
 10
0.0
 20
1.0
 30
0.0
  9
$PUCSORTHOREF
  2

  9
$PUCSORTHOVIEW
 70
     0
  9
$PUCSORGTOP
 10
0.0
 20
0.0
 30
0.0
  9
$PUCSORGBOTTOM
 10
0.0
 20
0.0
 30
0.0
  9
$PUCSORGLEFT
 10
0.0
 20
0.0
 30
0.0
  9
$PUCSORGRIGHT
 10
0.0
 20
0.0
 30
0.0
  9
$PUCSORGFRONT
 10
0.0
 20
0.0
 30
0.0
  9
$PUCSORGBACK
 10
0.0
 20
0.0
 30
0.0
  9
$USERI1
 70
     0
  9
$USERI2
 70
     0
  9
$USERI3
 70
     0
  9
$USERI4
 70
     0
  9
$USERI5
 70
     0
  9
$USERR1
 40
0.0
  9
$USERR2
 40
0.0
  9
$USERR3
 40
0.0
  9
$USERR4
 40
0.0
  9
$USERR5
 40
0.0
  9
$WORLDVIEW
 70
     1
  9
$SHADEDGE
 70
     3
  9
$SHADEDIF
 70
    70
  9
$TILEMODE
 70
     1
  9
$MAXACTVP
 70
    64
  9
$PINSBASE
 10
0.0
 20
0.0
 30
0.0
  9
$PLIMCHECK
 70
     0
  9
$PEXTMIN
 10
1.000000000000000E+20
 20
1.000000000000000E+20
 30
1.000000000000000E+20
  9
$PEXTMAX
 10
-1.000000000000000E+20
 20
-1.000000000000000E+20
 30
-1.000000000000000E+20
  9
$PLIMMIN
 10
0.0
 20
0.0
  9
$PLIMMAX
 10
12.0
 20
9.0
  9
$UNITMODE
 70
     0
  9
$VISRETAIN
 70
     1
  9
$PLINEGEN
 70
     0
  9
$PSLTSCALE
 70
     1
  9
$TREEDEPTH
 70
  3020
  9
$CMLSTYLE
  2
Standard
  9
$CMLJUST
 70
     0
  9
$CMLSCALE
 40
1.0
  9
$PROXYGRAPHICS
 70
     1
  9
$MEASUREMENT
 70
     0
  9
$CELWEIGHT
370
    -1
  9
$ENDCAPS
280
     0
  9
$JOINSTYLE
280
     0
  9
$LWDISPLAY
290
     1
  9
$INSUNITS
 70
     5
  9
$HYPERLINKBASE
  1

  9
$STYLESHEET
  1

  9
$XEDIT
290
     1
  9
$CEPSNTYPE
380
     0
  9
$PSTYLEMODE
290
     1
  9
$FINGERPRINTGUID
  2
{DB6A08B1-8825-3C4A-A80C-4CD52FAED8A9}
  9
$VERSIONGUID
  2
{1B9412C0-48EB-1C4A-9BE9-45DB09734D64}
  9
$EXTNAMES
290
     1
  9
$PSVPSCALE
 40
0.0
  9
$OLESTARTUP
290
     0
  9
$SORTENTS
280
   127
  9
$INDEXCTL
280
     0
  9
$HIDETEXT
280
     1
  9
$XCLIPFRAME
280
     2
  9
$HALOGAP
280
     0
  9
$OBSCOLOR
 70
   257
  9
$OBSLTYPE
280
     0
  9
$INTERSECTIONDISPLAY
280
     0
  9
$INTERSECTIONCOLOR
 70
   257
  9
$DIMASSOC
280
     2
  9
$PROJECTNAME
  1

  9
$CAMERADISPLAY
290
     0
  9
$LENSLENGTH
 40
50.0
  9
$CAMERAHEIGHT
 40
0.0
  9
$STEPSPERSEC
 40
2.0
  9
$STEPSIZE
 40
6.0
  9
$3DDWFPREC
 40
2.0
  9
$PSOLWIDTH
 40
0.25
  9
$PSOLHEIGHT
 40
4.0
  9
$LOFTANG1
 40
1.570796326794896
  9
$LOFTANG2
 40
1.570796326794896
  9
$LOFTMAG1
 40
0.0
  9
$LOFTMAG2
 40
0.0
  9
$LOFTPARAM
 70
     7
  9
$LOFTNORMALS
280
     1
  9
$LATITUDE
 40
37.795
  9
$LONGITUDE
 40
-122.394
  9
$NORTHDIRECTION
 40
0.0
  9
$TIMEZONE
 70
 -8000
  9
$LIGHTGLYPHDISPLAY
280
     1
  9
$TILEMODELIGHTSYNCH
280
     1
  9
$CMATERIAL
347
11
  9
$SOLIDHIST
280
     0
  9
$SHOWHIST
280
     1
  9
$DWFFRAME
280
     2
  9
$DGNFRAME
280
     0
  9
$REALWORLDSCALE
290
     1
  9
$INTERFERECOLOR
 62
     1
  9
$INTERFEREOBJVS
345
33
  9
$INTERFEREVPVS
346
30
  9
$CSHADOW
280
     0
  9
$SHADOWPLANELOCATION
 40
0.0
  0
ENDSEC
  0
SECTION
  2
CLASSES
  0
CLASS
  1
ACDBDICTIONARYWDFLT
  2
AcDbDictionaryWithDefault
  3
ObjectDBX Classes
 90
        0
 91
        1
280
     0
281
     0
  0
CLASS
  1
MATERIAL
  2
AcDbMaterial
  3
ObjectDBX Classes
 90
     1153
 91
        3
280
     0
281
     0
  0
CLASS
  1
VISUALSTYLE
  2
AcDbVisualStyle
  3
ObjectDBX Classes
 90
     4095
 91
       24
280
     0
281
     0
  0
CLASS
  1
SCALE
  2
AcDbScale
  3
ObjectDBX Classes
 90
     1153
 91
       17
280
     0
281
     0
  0
CLASS
  1
TABLESTYLE
  2
AcDbTableStyle
  3
ObjectDBX Classes
 90
     4095
 91
        1
280
     0
281
     0
  0
CLASS
  1
MLEADERSTYLE
  2
AcDbMLeaderStyle
  3
ACDB_MLEADERSTYLE_CLASS
 90
     4095
 91
        1
280
     0
281
     0
  0
CLASS
  1
ACDBSECTIONVIEWSTYLE
  2
AcDbSectionViewStyle
  3
ObjectDBX Classes
 90
     1025
 91
        1
280
     0
281
     0
  0
CLASS
  1
ACDBDETAILVIEWSTYLE
  2
AcDbDetailViewStyle
  3
ObjectDBX Classes
 90
     1025
 91
        1
280
     0
281
     0
  0
CLASS
  1
DICTIONARYVAR
  2
AcDbDictionaryVar
  3
ObjectDBX Classes
 90
        0
 91
        5
280
     0
281
     0
  0
CLASS
  1
CELLSTYLEMAP
  2
AcDbCellStyleMap
  3
ObjectDBX Classes
 90
     1152
 91
        4
280
     0
281
     0
  0
CLASS
  1
SORTENTSTABLE
  2
AcDbSortentsTable
  3
ObjectDBX Classes
 90
        0
 91
        2
280
     0
281
     0
  0
ENDSEC
  0
SECTION
  2
TABLES
  0
TABLE
  2
VPORT
  5
8
330
0
100
AcDbSymbolTable
 70
     1
1001
ACAD
1000
DbSaveVer
1071
      105
  0
VPORT
  5
57
330
8
100
AcDbSymbolTableRecord
100
AcDbViewportTableRecord
  2
*Active
 70
     0
 10
0.0
 20
0.0
 11
1.0
 21
1.0
 12
24.41625756357661
 22
41.53377458958431
 13
0.0
 23
0.0
 14
1.0
 24
1.0
 15
0.0
 25
0.0
 16
0.0
 26
0.0
 36
1.0
 17
14.84999673225613
 27
-10.50008306681943
 37
0.0
 40
360.2639644332872
 41
1.931468531468531
 42
50.0
 43
0.0
 44
0.0
 50
0.0
 51
0.0
 71
     0
 72
   100
 73
     1
 74
     0
 75
     1
 76
     0
 77
     0
 78
     0
281
     0
 65
     1
110
0.0
120
0.0
130
0.0
111
1.0
121
0.0
131
0.0
112
0.0
122
1.0
132
0.0
 79
     0
146
0.0
348
2F
 60
     3
 61
     5
292
     1
282
     1
141
0.0
142
0.0
 63
   250
421
  3355443
1001
ACAD_NAV_VCDISPLAY
1070
     3
  0
ENDTAB
  0
TABLE
  2
LTYPE
  5
5
330
0
100
AcDbSymbolTable
 70
     1
  0
LTYPE
  5
5B
330
5
100
AcDbSymbolTableRecord
100
AcDbLinetypeTableRecord
  2
ByBlock
 70
     0
  3

 72
    65
 73
     0
 40
0.0
  0
LTYPE
  5
5C
330
5
100
AcDbSymbolTableRecord
100
AcDbLinetypeTableRecord
  2
ByLayer
 70
     0
  3

 72
    65
 73
     0
 40
0.0
  0
LTYPE
  5
5D
330
5
100
AcDbSymbolTableRecord
100
AcDbLinetypeTableRecord
  2
Continuous
 70
     0
  3
Solid line
 72
    65
 73
     0
 40
0.0
  0
ENDTAB
  0
TABLE
  2
LAYER
  5
2
330
0
100
AcDbSymbolTable
 70
     3
  0
LAYER
  5
54
330
2
100
AcDbSymbolTableRecord
100
AcDbLayerTableRecord
  2
0
 70
     0
 62
     7
  6
Continuous
370
    -3
390
F
347
21
348
0
  0
LAYER
  5
78
330
2
100
AcDbSymbolTableRecord
100
AcDbLayerTableRecord
  2
Livello 3
 70
     0
 62
     7
  6
Continuous
370
     0
390
F
347
21
348
0
  0
LAYER
  5
5C8
330
2
100
AcDbSymbolTableRecord
100
AcDbLayerTableRecord
  2
Livello 1
 70
     0
 62
     7
  6
Continuous
370
     0
390
F
347
21
348
0
  0
ENDTAB
  0
TABLE
  2
STYLE
  5
3
330
0
100
AcDbSymbolTable
 70
     2
  0
STYLE
  5
55
330
3
100
AcDbSymbolTableRecord
100
AcDbTextStyleTableRecord
  2
Standard
 70
     0
 40
0.0
 41
1.0
 50
0.0
 71
     0
 42
0.2
  3
txt
  4

  0
STYLE
  5
5A
330
3
100
AcDbSymbolTableRecord
100
AcDbTextStyleTableRecord
  2
Annotative
 70
     0
 40
0.0
 41
1.0
 50
0.0
 71
     0
 42
0.2
  3
txt
  4

1001
AcadAnnotative
1000
AnnotativeData
1002
{
1070
     1
1070
     1
1002
}
  0
ENDTAB
  0
TABLE
  2
VIEW
  5
6
330
0
100
AcDbSymbolTable
 70
     0
  0
ENDTAB
  0
TABLE
  2
UCS
  5
7
330
0
100
AcDbSymbolTable
 70
     0
  0
ENDTAB
  0
TABLE
  2
APPID
  5
9
330
0
100
AcDbSymbolTable
 70
     3
  0
APPID
  5
56
330
9
100
AcDbSymbolTableRecord
100
AcDbRegAppTableRecord
  2
ACAD
 70
     0
  0
APPID
  5
5E
330
9
100
AcDbSymbolTableRecord
100
AcDbRegAppTableRecord
  2
AcadAnnotative
 70
     0
  0
APPID
  5
59C
330
9
100
AcDbSymbolTableRecord
100
AcDbRegAppTableRecord
  2
ACAD_NAV_VCDISPLAY
 70
     0
  0
ENDTAB
  0
TABLE
  2
DIMSTYLE
  5
A
330
0
100
AcDbSymbolTable
 70
     2
100
AcDbDimStyleTable
 71
     0
  0
DIMSTYLE
105
58
330
A
100
AcDbSymbolTableRecord
100
AcDbDimStyleTableRecord
  2
Standard
 70
     0
340
55
  0
DIMSTYLE
105
59
330
A
100
AcDbSymbolTableRecord
100
AcDbDimStyleTableRecord
  2
Annotative
 70
     0
340
55
1001
AcadAnnotative
1000
AnnotativeData
1002
{
1070
     1
1070
     1
1002
}
  0
ENDTAB
  0
TABLE
  2
BLOCK_RECORD
  5
1
330
0
100
AcDbSymbolTable
 70
    10
  0
BLOCK_RECORD
  5
70
102
{ACAD_XDICTIONARY
360
59D
102
}
330
1
100
AcDbSymbolTableRecord
100
AcDbBlockTableRecord
  2
*Model_Space
340
73
 70
     0
280
     1
281
     0
  0
BLOCK_RECORD
  5
6C
330
1
100
AcDbSymbolTableRecord
100
AcDbBlockTableRecord
  2
*Paper_Space
340
6F
 70
     0
280
     1
281
     0
  0
BLOCK_RECORD
  5
74
330
1
100
AcDbSymbolTableRecord
100
AcDbBlockTableRecord
  2
*Paper_Space0
340
77
 70
     0
280
     1
281
     0
  0
BLOCK_RECORD
  5
51F
330
1
100
AcDbSymbolTableRecord
100
AcDbBlockTableRecord
  2
Block_0
340
0
 70
     0
280
     1
281
     0
  0
BLOCK_RECORD
  5
523
330
1
100
AcDbSymbolTableRecord
100
AcDbBlockTableRecord
  2
Block_1
340
0
102
{BLKREFS
331
524
102
}
 70
     0
280
     1
281
     0
  0
BLOCK_RECORD
  5
52F
330
1
100
AcDbSymbolTableRecord
100
AcDbBlockTableRecord
  2
Block_2
340
0
 70
     0
280
     1
281
     0
  0
BLOCK_RECORD
  5
533
330
1
100
AcDbSymbolTableRecord
100
AcDbBlockTableRecord
  2
Block_3
340
0
102
{BLKREFS
331
534
102
}
 70
     0
280
     1
281
     0
  0
BLOCK_RECORD
  5
53C
330
1
100
AcDbSymbolTableRecord
100
AcDbBlockTableRecord
  2
Block_4
340
0
 70
     0
280
     1
281
     0
  0
BLOCK_RECORD
  5
540
330
1
100
AcDbSymbolTableRecord
100
AcDbBlockTableRecord
  2
Block_5
340
0
102
{BLKREFS
331
541
102
}
 70
     0
280
     1
281
     0
  0
BLOCK_RECORD
  5
54B
330
1
100
AcDbSymbolTableRecord
100
AcDbBlockTableRecord
  2
Block_6
340
0
 70
     0
280
     1
281
     0
  0
BLOCK_RECORD
  5
54F
330
1
100
AcDbSymbolTableRecord
100
AcDbBlockTableRecord
  2
Block_7
340
0
102
{BLKREFS
331
550
102
}
 70
     0
280
     1
281
     0
  0
ENDTAB
  0
ENDSEC
  0
SECTION
  2
BLOCKS
  0
BLOCK
  5
71
330
70
100
AcDbEntity
  8
0
100
AcDbBlockBegin
  2
*Model_Space
 70
     0
 10
0.0
 20
0.0
 30
0.0
  3
*Model_Space
  1

  0
ENDBLK
  5
72
330
70
100
AcDbEntity
  8
0
100
AcDbBlockEnd
  0
BLOCK
  5
6D
330
6C
100
AcDbEntity
 67
     1
  8
0
100
AcDbBlockBegin
  2
*Paper_Space
 70
     0
 10
0.0
 20
0.0
 30
0.0
  3
*Paper_Space
  1

  0
ENDBLK
  5
6E
330
6C
100
AcDbEntity
 67
     1
  8
0
100
AcDbBlockEnd
  0
BLOCK
  5
75
330
74
100
AcDbEntity
 67
     1
  8
0
100
AcDbBlockBegin
  2
*Paper_Space0
 70
     0
 10
0.0
 20
0.0
 30
0.0
  3
*Paper_Space0
  1

  0
ENDBLK
  5
76
330
74
100
AcDbEntity
 67
     1
  8
0
100
AcDbBlockEnd
  0
BLOCK
  5
521
330
51F
100
AcDbEntity
  8
0
100
AcDbBlockBegin
  2
Block_0
 70
     0
 10
0.0
 20
0.0
 30
0.0
  3
Block_0
  1

  0
INSERT
  5
524
330
51F
100
AcDbEntity
  8
Livello 3
100
AcDbBlockReference
  2
Block_1
 10
0.0
 20
0.0
 30
0.0
  0
ENDBLK
  5
522
330
51F
100
AcDbEntity
  8
0
100
AcDbBlockEnd
  0
BLOCK
  5
525
330
523
100
AcDbEntity
  8
0
100
AcDbBlockBegin
  2
Block_1
 70
     0
 10
0.0
 20
0.0
 30
0.0
  3
Block_1
  1

  0
SPLINE
  5
527
330
523
100
AcDbEntity
  8
Livello 3
100
AcDbSpline
210
0.0
220
0.0
230
1.0
 70
    11
 71
     3
 72
    20
 73
    16
 74
     0
 42
0.000000001
 43
0.0000000001
 40
0.0
 40
0.0
 40
0.0
 40
0.0
 40
1.0
 40
1.0
 40
1.0
 40
2.0
 40
2.0
 40
2.0
 40
3.0
 40
3.0
 40
3.0
 40
4.0
 40
4.0
 40
4.0
 40
5.0
 40
5.0
 40
5.0
 40
5.0
 10
13.54756238810616
 20
-8.907225475203746
 30
0.0
 10
13.54756238810616
 20
-8.789127601969383
 30
0.0
 10
13.48026244780181
 20
-8.718020831153825
 30
0.0
 10
13.37740912208967
 20
-8.718020831153825
 30
0.0
 10
13.31010918178532
 20
-8.718020831153825
 30
0.0
 10
13.24787353184428
 20
-8.759930417731892
 30
0.0
 10
13.21740166227724
 20
-8.819599471536418
 30
0.0
 10
13.20978800125484
 20
-8.832294648399564
 30
0.0
 10
13.2047064854141
 20
-8.848813881251338
 30
0.0
 10
13.2047064854141
 20
-8.869122719136884
 30
0.0
 10
13.20723863059576
 20
-9.004997285075136
 30
0.0
 10
13.2694742805368
 20
-9.105318465605613
 30
0.0
 10
13.38629746844162
 20
-9.105318465605613
 30
0.0
 10
13.48279459298346
 20
-9.105318465605613
 30
0.0
 10
13.54756238810616
 20
-9.025323348438112
 30
0.0
 10
13.54756238810616
 20
-8.907225475203746
 30
0.0
  0
SPLINE
  5
528
330
523
100
AcDbEntity
  8
Livello 3
100
AcDbSpline
210
0.0
220
0.0
230
1.0
 70
     9
 71
     3
 72
    38
 73
    34
 74
     0
 42
0.000000001
 43
0.0000000001
 40
0.0
 40
0.0
 40
0.0
 40
0.0
 40
1.0
 40
1.0
 40
1.0
 40
2.0
 40
2.0
 40
2.0
 40
3.0
 40
3.0
 40
3.0
 40
4.0
 40
4.0
 40
4.0
 40
5.0
 40
5.0
 40
5.0
 40
6.0
 40
6.0
 40
6.0
 40
7.0
 40
7.0
 40
7.0
 40
8.0
 40
8.0
 40
8.0
 40
9.0
 40
9.0
 40
9.0
 40
10.0
 40
10.0
 40
10.0
 40
11.0
 40
11.0
 40
11.0
 40
11.0
 10
13.57930894300274
 20
-8.43102715175509
 30
0.0
 10
13.55645073445811
 20
-8.429769691902974
 30
0.0
 10
13.52725355022061
 20
-8.43102715175509
 30
0.0
 10
13.49550699532404
 20
-8.436108667595831
 30
0.0
 10
13.32025498798938
 20
-8.465323077310751
 30
0.0
 10
13.22756469395873
 20
-8.593566756749176
 30
0.0
 10
13.2085133159253
 20
-8.729441322687428
 30
0.0
 10
13.2085133159253
 20
-8.729441322687428
 30
0.0
 10
13.2123201464365
 20
-8.729441322687428
 30
0.0
 10
13.2123201464365
 20
-8.729441322687428
 30
0.0
 10
13.25169758783291
 20
-8.677385929905305
 30
0.0
 10
13.32025498798938
 20
-8.634201657997698
 30
0.0
 10
13.41168782216791
 20
-8.634201657997698
 30
0.0
 10
13.55772541978765
 20
-8.634201657997698
 30
0.0
 10
13.66057874549978
 20
-8.739604354368918
 30
0.0
 10
13.66057874549978
 20
-8.900869274033462
 30
0.0
 10
13.66057874549978
 20
-9.051988387493942
 30
0.0
 10
13.55772541978765
 20
-9.1916697839434
 30
0.0
 10
13.38629746844162
 20
-9.1916697839434
 30
0.0
 10
13.20978800125484
 20
-9.1916697839434
 30
0.0
 10
13.09422227320214
 20
-9.054520532675603
 30
0.0
 10
13.09422227320214
 20
-8.839925534899391
 30
0.0
 10
13.09422227320214
 20
-8.677385929905305
 30
0.0
 10
13.15263386715455
 20
-8.549125024989454
 30
0.0
 10
13.23390366965159
 20
-8.46785522249241
 30
0.0
 10
13.30247829528549
 20
-8.400555282188053
 30
0.0
 10
13.39391112946402
 20
-8.35864569560999
 30
0.0
 10
13.4980391405057
 20
-8.345950518746843
 30
0.0
 10
13.53106038073182
 20
-8.340869002906101
 30
0.0
 10
13.55898287963977
 20
-8.339611543053985
 30
0.0
 10
13.57930894300274
 20
-8.339611543053985
 30
0.0
 10
13.57930894300274
 20
-8.339611543053985
 30
0.0
 10
13.57930894300274
 20
-8.43102715175509
 30
0.0
 10
13.57930894300274
 20
-8.43102715175509
 30
0.0
  0
HATCH
  5
529
330
523
100
AcDbEntity
  8
Livello 3
 62
   250
420
  1907995
440
 33554687
100
AcDbHatch
 10
0.0
 20
0.0
 30
0.0
210
0.0
220
0.0
230
1.0
  2
SOLID
 70
     1
 71
     1
 91
        2
 92
        1
 93
        1
 72
     4
 94
        3
 73
     0
 74
     0
 95
       20
 96
       16
 40
0.0
 40
0.0
 40
0.0
 40
0.0
 40
1.0
 40
1.0
 40
1.0
 40
2.0
 40
2.0
 40
2.0
 40
3.0
 40
3.0
 40
3.0
 40
4.0
 40
4.0
 40
4.0
 40
5.0
 40
5.0
 40
5.0
 40
5.0
 10
13.54756238810616
 20
-8.907225475203746
 10
13.54756238810616
 20
-8.789127601969383
 10
13.48026244780181
 20
-8.718020831153825
 10
13.37740912208967
 20
-8.718020831153825
 10
13.31010918178532
 20
-8.718020831153825
 10
13.24787353184428
 20
-8.759930417731892
 10
13.21740166227724
 20
-8.819599471536418
 10
13.20978800125484
 20
-8.832294648399564
 10
13.2047064854141
 20
-8.848813881251338
 10
13.2047064854141
 20
-8.869122719136884
 10
13.20723863059576
 20
-9.004997285075136
 10
13.2694742805368
 20
-9.105318465605613
 10
13.38629746844162
 20
-9.105318465605613
 10
13.48279459298346
 20
-9.105318465605613
 10
13.54756238810616
 20
-9.025323348438112
 10
13.54756238810616
 20
-8.907225475203746
 97
        0
 97
        1
330
527
 92
        1
 93
        1
 72
     4
 94
        3
 73
     0
 74
     0
 95
       38
 96
       34
 40
0.0
 40
0.0
 40
0.0
 40
0.0
 40
1.0
 40
1.0
 40
1.0
 40
2.0
 40
2.0
 40
2.0
 40
3.0
 40
3.0
 40
3.0
 40
4.0
 40
4.0
 40
4.0
 40
5.0
 40
5.0
 40
5.0
 40
6.0
 40
6.0
 40
6.0
 40
7.0
 40
7.0
 40
7.0
 40
8.0
 40
8.0
 40
8.0
 40
9.0
 40
9.0
 40
9.0
 40
10.0
 40
10.0
 40
10.0
 40
11.0
 40
11.0
 40
11.0
 40
11.0
 10
13.57930894300274
 20
-8.43102715175509
 10
13.55645073445811
 20
-8.429769691902974
 10
13.52725355022061
 20
-8.43102715175509
 10
13.49550699532404
 20
-8.436108667595831
 10
13.32025498798938
 20
-8.465323077310751
 10
13.22756469395873
 20
-8.593566756749176
 10
13.2085133159253
 20
-8.729441322687428
 10
13.2085133159253
 20
-8.729441322687428
 10
13.2123201464365
 20
-8.729441322687428
 10
13.2123201464365
 20
-8.729441322687428
 10
13.25169758783291
 20
-8.677385929905305
 10
13.32025498798938
 20
-8.634201657997698
 10
13.41168782216791
 20
-8.634201657997698
 10
13.55772541978765
 20
-8.634201657997698
 10
13.66057874549978
 20
-8.739604354368918
 10
13.66057874549978
 20
-8.900869274033462
 10
13.66057874549978
 20
-9.051988387493942
 10
13.55772541978765
 20
-9.1916697839434
 10
13.38629746844162
 20
-9.1916697839434
 10
13.20978800125484
 20
-9.1916697839434
 10
13.09422227320214
 20
-9.054520532675603
 10
13.09422227320214
 20
-8.839925534899391
 10
13.09422227320214
 20
-8.677385929905305
 10
13.15263386715455
 20
-8.549125024989454
 10
13.23390366965159
 20
-8.46785522249241
 10
13.30247829528549
 20
-8.400555282188053
 10
13.39391112946402
 20
-8.35864569560999
 10
13.4980391405057
 20
-8.345950518746843
 10
13.53106038073182
 20
-8.340869002906101
 10
13.55898287963977
 20
-8.339611543053985
 10
13.57930894300274
 20
-8.339611543053985
 10
13.57930894300274
 20
-8.339611543053985
 10
13.57930894300274
 20
-8.43102715175509
 10
13.57930894300274
 20
-8.43102715175509
 97
        0
 97
        1
330
528
 75
     2
 76
     1
 98
        1
 10
0.0
 20
0.0
450
        0
451
        0
460
0.0
461
0.0
452
        0
462
0.0
453
        0
470

  0
SPLINE
  5
52A
330
523
100
AcDbEntity
  8
Livello 3
100
AcDbSpline
210
0.0
220
0.0
230
1.0
 70
     9
 71
     3
 72
    17
 73
    13
 74
     0
 42
0.000000001
 43
0.0000000001
 40
0.0
 40
0.0
 40
0.0
 40
0.0
 40
1.0
 40
1.0
 40
1.0
 40
2.0
 40
2.0
 40
2.0
 40
3.0
 40
3.0
 40
3.0
 40
4.0
 40
4.0
 40
4.0
 40
4.0
 10
13.85999809766347
 20
-8.768818764083835
 30
0.0
 10
13.85999809766347
 20
-8.983413761860049
 30
0.0
 10
13.92602335263828
 20
-9.105318465605613
 30
0.0
 10
14.0276192184983
 20
-9.105318465605613
 30
0.0
 10
14.14191026122146
 20
-9.105318465605613
 30
0.0
 10
14.19651502466267
 20
-8.971993270326445
 30
0.0
 10
14.19651502466267
 20
-8.761187877584008
 30
0.0
 10
14.19651502466267
 20
-8.558013371341399
 30
0.0
 10
14.14444240640312
 20
-8.424688176062229
 30
0.0
 10
14.02889390382784
 20
-8.424688176062229
 30
0.0
 10
13.93110486847903
 20
-8.424688176062229
 30
0.0
 10
13.85999809766347
 20
-8.544043509148711
 30
0.0
 10
13.85999809766347
 20
-8.768818764083835
 30
0.0
  0
SPLINE
  5
52B
330
523
100
AcDbEntity
  8
Livello 3
100
AcDbSpline
210
0.0
220
0.0
230
1.0
 70
     9
 71
     3
 72
    17
 73
    13
 74
     0
 42
0.000000001
 43
0.0000000001
 40
0.0
 40
0.0
 40
0.0
 40
0.0
 40
1.0
 40
1.0
 40
1.0
 40
2.0
 40
2.0
 40
2.0
 40
3.0
 40
3.0
 40
3.0
 40
4.0
 40
4.0
 40
4.0
 40
4.0
 10
14.30825669672675
 20
-8.756106361743263
 30
0.0
 10
14.30825669672675
 20
-9.036743839971716
 30
0.0
 10
14.20412868568508
 20
-9.1916697839434
 30
0.0
 10
14.02126301732801
 20
-9.1916697839434
 30
0.0
 10
13.85999809766347
 20
-9.1916697839434
 30
0.0
 10
13.75078857078105
 20
-9.040550670482915
 30
0.0
 10
13.74825642559939
 20
-8.767544078754294
 30
0.0
 10
13.74825642559939
 20
-8.490713431037043
 30
0.0
 10
13.86761175868587
 20
-8.338336857724442
 30
0.0
 10
14.0352328795207
 20
-8.338336857724442
 30
0.0
 10
14.20921020152582
 20
-8.338336857724442
 30
0.0
 10
14.30825669672675
 20
-8.493262801696127
 30
0.0
 10
14.30825669672675
 20
-8.756106361743263
 30
0.0
  0
HATCH
  5
52C
330
523
100
AcDbEntity
  8
Livello 3
 62
   250
420
  1907995
440
 33554687
100
AcDbHatch
 10
0.0
 20
0.0
 30
0.0
210
0.0
220
0.0
230
1.0
  2
SOLID
 70
     1
 71
     1
 91
        2
 92
        1
 93
        1
 72
     4
 94
        3
 73
     0
 74
     0
 95
       17
 96
       13
 40
0.0
 40
0.0
 40
0.0
 40
0.0
 40
1.0
 40
1.0
 40
1.0
 40
2.0
 40
2.0
 40
2.0
 40
3.0
 40
3.0
 40
3.0
 40
4.0
 40
4.0
 40
4.0
 40
4.0
 10
13.85999809766347
 20
-8.768818764083835
 10
13.85999809766347
 20
-8.983413761860049
 10
13.92602335263828
 20
-9.105318465605613
 10
14.0276192184983
 20
-9.105318465605613
 10
14.14191026122146
 20
-9.105318465605613
 10
14.19651502466267
 20
-8.971993270326445
 10
14.19651502466267
 20
-8.761187877584008
 10
14.19651502466267
 20
-8.558013371341399
 10
14.14444240640312
 20
-8.424688176062229
 10
14.02889390382784
 20
-8.424688176062229
 10
13.93110486847903
 20
-8.424688176062229
 10
13.85999809766347
 20
-8.544043509148711
 10
13.85999809766347
 20
-8.768818764083835
 97
        0
 97
        1
330
52A
 92
        1
 93
        1
 72
     4
 94
        3
 73
     0
 74
     0
 95
       17
 96
       13
 40
0.0
 40
0.0
 40
0.0
 40
0.0
 40
1.0
 40
1.0
 40
1.0
 40
2.0
 40
2.0
 40
2.0
 40
3.0
 40
3.0
 40
3.0
 40
4.0
 40
4.0
 40
4.0
 40
4.0
 10
14.30825669672675
 20
-8.756106361743263
 10
14.30825669672675
 20
-9.036743839971716
 10
14.20412868568508
 20
-9.1916697839434
 10
14.02126301732801
 20
-9.1916697839434
 10
13.85999809766347
 20
-9.1916697839434
 10
13.75078857078105
 20
-9.040550670482915
 10
13.74825642559939
 20
-8.767544078754294
 10
13.74825642559939
 20
-8.490713431037043
 10
13.86761175868587
 20
-8.338336857724442
 10
14.0352328795207
 20
-8.338336857724442
 10
14.20921020152582
 20
-8.338336857724442
 10
14.30825669672675
 20
-8.493262801696127
 10
14.30825669672675
 20
-8.756106361743263
 97
        0
 97
        1
330
52B
 75
     2
 76
     1
 98
        1
 10
0.0
 20
0.0
450
        0
451
        0
460
0.0
461
0.0
452
        0
462
0.0
453
        0
470

  0
SPLINE
  5
52D
330
523
100
AcDbEntity
  8
Livello 3
100
AcDbSpline
210
0.0
220
0.0
230
1.0
 70
    11
 71
     3
 72
    50
 73
    46
 74
     0
 42
0.000000001
 43
0.0000000001
 40
0.0
 40
0.0
 40
0.0
 40
0.0
 40
1.0
 40
1.0
 40
1.0
 40
2.0
 40
2.0
 40
2.0
 40
3.0
 40
3.0
 40
3.0
 40
4.0
 40
4.0
 40
4.0
 40
5.0
 40
5.0
 40
5.0
 40
6.0
 40
6.0
 40
6.0
 40
7.0
 40
7.0
 40
7.0
 40
8.0
 40
8.0
 40
8.0
 40
9.0
 40
9.0
 40
9.0
 40
10.0
 40
10.0
 40
10.0
 40
11.0
 40
11.0
 40
11.0
 40
12.0
 40
12.0
 40
12.0
 40
13.0
 40
13.0
 40
13.0
 40
14.0
 40
14.0
 40
14.0
 40
15.0
 40
15.0
 40
15.0
 40
15.0
 10
14.90386202969417
 20
-8.446271699277318
 30
0.0
 10
14.90386202969417
 20
-8.446271699277318
 30
0.0
 10
14.58894585138748
 20
-8.446271699277318
 30
0.0
 10
14.58894585138748
 20
-8.446271699277318
 30
0.0
 10
14.58894585138748
 20
-8.446271699277318
 30
0.0
 10
14.55719929649091
 20
-8.658334551871874
 30
0.0
 10
14.55719929649091
 20
-8.658334551871874
 30
0.0
 10
14.57625067452434
 20
-8.655802406690215
 30
0.0
 10
14.59402736722823
 20
-8.653253036031131
 30
0.0
 10
14.62449923679526
 20
-8.653253036031131
 30
0.0
 10
14.68799234658842
 20
-8.653253036031131
 30
0.0
 10
14.75148545638157
 20
-8.667222898223817
 30
0.0
 10
14.80228338931158
 20
-8.697694767790853
 30
0.0
 10
14.86703395895685
 20
-8.734522838528175
 30
0.0
 10
14.92039848802337
 20
-8.80562960934373
 30
0.0
 10
14.92039848802337
 20
-8.909757620385407
 30
0.0
 10
14.92039848802337
 20
-9.07103976552738
 30
0.0
 10
14.79212035763009
 20
-9.1916697839434
 30
0.0
 10
14.61307874526166
 20
-9.1916697839434
 30
0.0
 10
14.52292059641267
 20
-9.1916697839434
 30
0.0
 10
14.44671508427894
 20
-9.166279430217107
 30
0.0
 10
14.40735486835996
 20
-9.140871851013391
 30
0.0
 10
14.40735486835996
 20
-9.140871851013391
 30
0.0
 10
14.43529459274534
 20
-9.055795218005147
 30
0.0
 10
14.43529459274534
 20
-9.055795218005147
 30
0.0
 10
14.46957329282358
 20
-9.076104055890695
 30
0.0
 10
14.53687323312793
 20
-9.101511635094412
 30
0.0
 10
14.61180405993212
 20
-9.101511635094412
 30
0.0
 10
14.71720675630333
 20
-9.101511635094412
 30
0.0
 10
14.80736490515232
 20
-9.032937009460512
 30
0.0
 10
14.80736490515232
 20
-8.922470022725979
 30
0.0
 10
14.80609021982278
 20
-8.815792641025216
 30
0.0
 10
14.73498344900722
 20
-8.739604354368918
 30
0.0
 10
14.56989447335405
 20
-8.739604354368918
 30
0.0
 10
14.52292059641267
 20
-8.739604354368918
 30
0.0
 10
14.48609252567535
 20
-8.744685870209661
 30
0.0
 10
14.45560343063089
 20
-8.748492700720861
 30
0.0
 10
14.45560343063089
 20
-8.748492700720861
 30
0.0
 10
14.50895073421998
 20
-8.35230671991713
 30
0.0
 10
14.50895073421998
 20
-8.35230671991713
 30
0.0
 10
14.50895073421998
 20
-8.35230671991713
 30
0.0
 10
14.90386202969417
 20
-8.35230671991713
 30
0.0
 10
14.90386202969417
 20
-8.35230671991713
 30
0.0
 10
14.90386202969417
 20
-8.35230671991713
 30
0.0
 10
14.90386202969417
 20
-8.446271699277318
 30
0.0
 10
14.90386202969417
 20
-8.446271699277318
 30
0.0
  0
HATCH
  5
52E
330
523
100
AcDbEntity
  8
Livello 3
 62
   250
420
  1907995
440
 33554687
100
AcDbHatch
 10
0.0
 20
0.0
 30
0.0
210
0.0
220
0.0
230
1.0
  2
SOLID
 70
     1
 71
     1
 91
        1
 92
        1
 93
        1
 72
     4
 94
        3
 73
     0
 74
     0
 95
       50
 96
       46
 40
0.0
 40
0.0
 40
0.0
 40
0.0
 40
1.0
 40
1.0
 40
1.0
 40
2.0
 40
2.0
 40
2.0
 40
3.0
 40
3.0
 40
3.0
 40
4.0
 40
4.0
 40
4.0
 40
5.0
 40
5.0
 40
5.0
 40
6.0
 40
6.0
 40
6.0
 40
7.0
 40
7.0
 40
7.0
 40
8.0
 40
8.0
 40
8.0
 40
9.0
 40
9.0
 40
9.0
 40
10.0
 40
10.0
 40
10.0
 40
11.0
 40
11.0
 40
11.0
 40
12.0
 40
12.0
 40
12.0
 40
13.0
 40
13.0
 40
13.0
 40
14.0
 40
14.0
 40
14.0
 40
15.0
 40
15.0
 40
15.0
 40
15.0
 10
14.90386202969417
 20
-8.446271699277318
 10
14.90386202969417
 20
-8.446271699277318
 10
14.58894585138748
 20
-8.446271699277318
 10
14.58894585138748
 20
-8.446271699277318
 10
14.58894585138748
 20
-8.446271699277318
 10
14.55719929649091
 20
-8.658334551871874
 10
14.55719929649091
 20
-8.658334551871874
 10
14.57625067452434
 20
-8.655802406690215
 10
14.59402736722823
 20
-8.653253036031131
 10
14.62449923679526
 20
-8.653253036031131
 10
14.68799234658842
 20
-8.653253036031131
 10
14.75148545638157
 20
-8.667222898223817
 10
14.80228338931158
 20
-8.697694767790853
 10
14.86703395895685
 20
-8.734522838528175
 10
14.92039848802337
 20
-8.80562960934373
 10
14.92039848802337
 20
-8.909757620385407
 10
14.92039848802337
 20
-9.07103976552738
 10
14.79212035763009
 20
-9.1916697839434
 10
14.61307874526166
 20
-9.1916697839434
 10
14.52292059641267
 20
-9.1916697839434
 10
14.44671508427894
 20
-9.166279430217107
 10
14.40735486835996
 20
-9.140871851013391
 10
14.40735486835996
 20
-9.140871851013391
 10
14.43529459274534
 20
-9.055795218005147
 10
14.43529459274534
 20
-9.055795218005147
 10
14.46957329282358
 20
-9.076104055890695
 10
14.53687323312793
 20
-9.101511635094412
 10
14.61180405993212
 20
-9.101511635094412
 10
14.71720675630333
 20
-9.101511635094412
 10
14.80736490515232
 20
-9.032937009460512
 10
14.80736490515232
 20
-8.922470022725979
 10
14.80609021982278
 20
-8.815792641025216
 10
14.73498344900722
 20
-8.739604354368918
 10
14.56989447335405
 20
-8.739604354368918
 10
14.52292059641267
 20
-8.739604354368918
 10
14.48609252567535
 20
-8.744685870209661
 10
14.45560343063089
 20
-8.748492700720861
 10
14.45560343063089
 20
-8.748492700720861
 10
14.50895073421998
 20
-8.35230671991713
 10
14.50895073421998
 20
-8.35230671991713
 10
14.50895073421998
 20
-8.35230671991713
 10
14.90386202969417
 20
-8.35230671991713
 10
14.90386202969417
 20
-8.35230671991713
 10
14.90386202969417
 20
-8.35230671991713
 10
14.90386202969417
 20
-8.446271699277318
 10
14.90386202969417
 20
-8.446271699277318
 97
        0
 97
        1
330
52D
 75
     2
 76
     1
 98
        1
 10
0.0
 20
0.0
450
        0
451
        0
460
0.0
461
0.0
452
        0
462
0.0
453
        0
470

  0
ENDBLK
  5
526
330
523
100
AcDbEntity
  8
0
100
AcDbBlockEnd
  0
BLOCK
  5
531
330
52F
100
AcDbEntity
  8
0
100
AcDbBlockBegin
  2
Block_2
 70
     0
 10
0.0
 20
0.0
 30
0.0
  3
Block_2
  1

  0
INSERT
  5
534
330
52F
100
AcDbEntity
  8
Livello 3
100
AcDbBlockReference
  2
Block_3
 10
0.0
 20
0.0
 30
0.0
  0
ENDBLK
  5
532
330
52F
100
AcDbEntity
  8
0
100
AcDbBlockEnd
  0
BLOCK
  5
535
330
533
100
AcDbEntity
  8
0
100
AcDbBlockBegin
  2
Block_3
 70
     0
 10
0.0
 20
0.0
 30
0.0
  3
Block_3
  1

  0
SPLINE
  5
537
330
533
100
AcDbEntity
  8
Livello 3
100
AcDbSpline
210
0.0
220
0.0
230
1.0
 70
    11
 71
     3
 72
    29
 73
    25
 74
     0
 42
0.000000001
 43
0.0000000001
 40
0.0
 40
0.0
 40
0.0
 40
0.0
 40
1.0
 40
1.0
 40
1.0
 40
2.0
 40
2.0
 40
2.0
 40
3.0
 40
3.0
 40
3.0
 40
4.0
 40
4.0
 40
4.0
 40
5.0
 40
5.0
 40
5.0
 40
6.0
 40
6.0
 40
6.0
 40
7.0
 40
7.0
 40
7.0
 40
8.0
 40
8.0
 40
8.0
 40
8.0
 10
24.58027397388966
 20
-6.690719941903706
 30
0.0
 10
24.58027397388966
 20
-6.690719941903706
 30
0.0
 10
24.58027397388966
 20
-6.693269312562793
 30
0.0
 10
24.58027397388966
 20
-6.693269312562793
 30
0.0
 10
24.58027397388966
 20
-6.693269312562793
 30
0.0
 10
24.65775417135292
 20
-6.836757539523448
 30
0.0
 10
24.65775417135292
 20
-6.836757539523448
 30
0.0
 10
24.65775417135292
 20
-6.836757539523448
 30
0.0
 10
24.57266031286725
 20
-6.858341062738539
 30
0.0
 10
24.57266031286725
 20
-6.858341062738539
 30
0.0
 10
24.57266031286725
 20
-6.858341062738539
 30
0.0
 10
24.4761631883254
 20
-6.678024765040562
 30
0.0
 10
24.4761631883254
 20
-6.678024765040562
 30
0.0
 10
24.4761631883254
 20
-6.678024765040562
 30
0.0
 10
24.4761631883254
 20
-6.58278510035083
 30
0.0
 10
24.4761631883254
 20
-6.58278510035083
 30
0.0
 10
24.4761631883254
 20
-6.58278510035083
 30
0.0
 10
25.30153916468156
 20
-6.58278510035083
 30
0.0
 10
25.30153916468156
 20
-6.58278510035083
 30
0.0
 10
25.30153916468156
 20
-6.58278510035083
 30
0.0
 10
25.30153916468156
 20
-6.690719941903706
 30
0.0
 10
25.30153916468156
 20
-6.690719941903706
 30
0.0
 10
25.30153916468156
 20
-6.690719941903706
 30
0.0
 10
24.58027397388966
 20
-6.690719941903706
 30
0.0
 10
24.58027397388966
 20
-6.690719941903706
 30
0.0
  0
HATCH
  5
538
330
533
100
AcDbEntity
  8
Livello 3
 62
   250
420
  1907995
440
 33554687
100
AcDbHatch
 10
0.0
 20
0.0
 30
0.0
210
0.0
220
0.0
230
1.0
  2
SOLID
 70
     1
 71
     1
 91
        1
 92
        1
 93
        1
 72
     4
 94
        3
 73
     0
 74
     0
 95
       29
 96
       25
 40
0.0
 40
0.0
 40
0.0
 40
0.0
 40
1.0
 40
1.0
 40
1.0
 40
2.0
 40
2.0
 40
2.0
 40
3.0
 40
3.0
 40
3.0
 40
4.0
 40
4.0
 40
4.0
 40
5.0
 40
5.0
 40
5.0
 40
6.0
 40
6.0
 40
6.0
 40
7.0
 40
7.0
 40
7.0
 40
8.0
 40
8.0
 40
8.0
 40
8.0
 10
24.58027397388966
 20
-6.690719941903706
 10
24.58027397388966
 20
-6.690719941903706
 10
24.58027397388966
 20
-6.693269312562793
 10
24.58027397388966
 20
-6.693269312562793
 10
24.58027397388966
 20
-6.693269312562793
 10
24.65775417135292
 20
-6.836757539523448
 10
24.65775417135292
 20
-6.836757539523448
 10
24.65775417135292
 20
-6.836757539523448
 10
24.57266031286725
 20
-6.858341062738539
 10
24.57266031286725
 20
-6.858341062738539
 10
24.57266031286725
 20
-6.858341062738539
 10
24.4761631883254
 20
-6.678024765040562
 10
24.4761631883254
 20
-6.678024765040562
 10
24.4761631883254
 20
-6.678024765040562
 10
24.4761631883254
 20
-6.58278510035083
 10
24.4761631883254
 20
-6.58278510035083
 10
24.4761631883254
 20
-6.58278510035083
 10
25.30153916468156
 20
-6.58278510035083
 10
25.30153916468156
 20
-6.58278510035083
 10
25.30153916468156
 20
-6.58278510035083
 10
25.30153916468156
 20
-6.690719941903706
 10
25.30153916468156
 20
-6.690719941903706
 10
25.30153916468156
 20
-6.690719941903706
 10
24.58027397388966
 20
-6.690719941903706
 10
24.58027397388966
 20
-6.690719941903706
 97
        0
 97
        1
330
537
 75
     2
 76
     1
 98
        1
 10
0.0
 20
0.0
450
        0
451
        0
460
0.0
461
0.0
452
        0
462
0.0
453
        0
470

  0
SPLINE
  5
539
330
533
100
AcDbEntity
  8
Livello 3
100
AcDbSpline
210
0.0
220
0.0
230
1.0
 70
    11
 71
     3
 72
    26
 73
    22
 74
     0
 42
0.000000001
 43
0.0000000001
 40
0.0
 40
0.0
 40
0.0
 40
0.0
 40
1.0
 40
1.0
 40
1.0
 40
2.0
 40
2.0
 40
2.0
 40
3.0
 40
3.0
 40
3.0
 40
4.0
 40
4.0
 40
4.0
 40
5.0
 40
5.0
 40
5.0
 40
6.0
 40
6.0
 40
6.0
 40
7.0
 40
7.0
 40
7.0
 40
7.0
 10
24.98917235703395
 20
-5.936381834453403
 30
0.0
 10
24.98917235703395
 20
-5.936381834453403
 30
0.0
 10
24.71359916916882
 20
-5.936381834453403
 30
0.0
 10
24.71359916916882
 20
-5.936381834453403
 30
0.0
 10
24.67043212273865
 20
-5.936381834453403
 30
0.0
 10
24.62726507630846
 20
-5.935107149123862
 30
0.0
 10
24.58409802987829
 20
-5.932575003942202
 30
0.0
 10
24.58409802987829
 20
-5.932575003942202
 30
0.0
 10
24.58409802987829
 20
-5.936381834453403
 30
0.0
 10
24.58409802987829
 20
-5.936381834453403
 30
0.0
 10
24.63232936667179
 20
-5.961789413657121
 30
0.0
 10
24.66788275207956
 20
-5.982098251542669
 30
0.0
 10
24.70598550814642
 20
-6.004956460087303
 30
0.0
 10
24.70598550814642
 20
-6.004956460087303
 30
0.0
 10
24.98662298637487
 20
-6.206856281000367
 30
0.0
 10
24.98662298637487
 20
-6.206856281000367
 30
0.0
 10
24.98662298637487
 20
-6.206856281000367
 30
0.0
 10
24.98917235703395
 20
-6.206856281000367
 30
0.0
 10
24.98917235703395
 20
-6.206856281000367
 30
0.0
 10
24.98917235703395
 20
-6.206856281000367
 30
0.0
 10
24.98917235703395
 20
-5.936381834453403
 30
0.0
 10
24.98917235703395
 20
-5.936381834453403
 30
0.0
  0
SPLINE
  5
53A
330
533
100
AcDbEntity
  8
Livello 3
100
AcDbSpline
210
0.0
220
0.0
230
1.0
 70
    11
 71
     3
 72
    38
 73
    34
 74
     0
 42
0.000000001
 43
0.0000000001
 40
0.0
 40
0.0
 40
0.0
 40
0.0
 40
1.0
 40
1.0
 40
1.0
 40
2.0
 40
2.0
 40
2.0
 40
3.0
 40
3.0
 40
3.0
 40
4.0
 40
4.0
 40
4.0
 40
5.0
 40
5.0
 40
5.0
 40
6.0
 40
6.0
 40
6.0
 40
7.0
 40
7.0
 40
7.0
 40
8.0
 40
8.0
 40
8.0
 40
9.0
 40
9.0
 40
9.0
 40
10.0
 40
10.0
 40
10.0
 40
11.0
 40
11.0
 40
11.0
 40
11.0
 10
25.30153916468156
 20
-5.936381834453403
 30
0.0
 10
25.30153916468156
 20
-5.936381834453403
 30
0.0
 10
25.07678113522386
 20
-5.936381834453403
 30
0.0
 10
25.07678113522386
 20
-5.936381834453403
 30
0.0
 10
25.07678113522386
 20
-5.936381834453403
 30
0.0
 10
25.07678113522386
 20
-6.319872638393988
 30
0.0
 10
25.07678113522386
 20
-6.319872638393988
 30
0.0
 10
25.07678113522386
 20
-6.319872638393988
 30
0.0
 10
25.00312499374922
 20
-6.319872638393988
 30
0.0
 10
25.00312499374922
 20
-6.319872638393988
 30
0.0
 10
25.00312499374922
 20
-6.319872638393988
 30
0.0
 10
24.4761631883254
 20
-5.951626381975634
 30
0.0
 10
24.4761631883254
 20
-5.951626381975634
 30
0.0
 10
24.4761631883254
 20
-5.951626381975634
 30
0.0
 10
24.4761631883254
 20
-5.83099636355961
 30
0.0
 10
24.4761631883254
 20
-5.83099636355961
 30
0.0
 10
24.4761631883254
 20
-5.83099636355961
 30
0.0
 10
24.98917235703395
 20
-5.83099636355961
 30
0.0
 10
24.98917235703395
 20
-5.83099636355961
 30
0.0
 10
24.98917235703395
 20
-5.83099636355961
 30
0.0
 10
24.98917235703395
 20
-5.715430635506906
 30
0.0
 10
24.98917235703395
 20
-5.715430635506906
 30
0.0
 10
24.98917235703395
 20
-5.715430635506906
 30
0.0
 10
25.07678113522386
 20
-5.715430635506906
 30
0.0
 10
25.07678113522386
 20
-5.715430635506906
 30
0.0
 10
25.07678113522386
 20
-5.715430635506906
 30
0.0
 10
25.07678113522386
 20
-5.83099636355961
 30
0.0
 10
25.07678113522386
 20
-5.83099636355961
 30
0.0
 10
25.07678113522386
 20
-5.83099636355961
 30
0.0
 10
25.30153916468156
 20
-5.83099636355961
 30
0.0
 10
25.30153916468156
 20
-5.83099636355961
 30
0.0
 10
25.30153916468156
 20
-5.83099636355961
 30
0.0
 10
25.30153916468156
 20
-5.936381834453403
 30
0.0
 10
25.30153916468156
 20
-5.936381834453403
 30
0.0
  0
HATCH
  5
53B
330
533
100
AcDbEntity
  8
Livello 3
 62
   250
420
  1907995
440
 33554687
100
AcDbHatch
 10
0.0
 20
0.0
 30
0.0
210
0.0
220
0.0
230
1.0
  2
SOLID
 70
     1
 71
     1
 91
        2
 92
        1
 93
        1
 72
     4
 94
        3
 73
     0
 74
     0
 95
       26
 96
       22
 40
0.0
 40
0.0
 40
0.0
 40
0.0
 40
1.0
 40
1.0
 40
1.0
 40
2.0
 40
2.0
 40
2.0
 40
3.0
 40
3.0
 40
3.0
 40
4.0
 40
4.0
 40
4.0
 40
5.0
 40
5.0
 40
5.0
 40
6.0
 40
6.0
 40
6.0
 40
7.0
 40
7.0
 40
7.0
 40
7.0
 10
24.98917235703395
 20
-5.936381834453403
 10
24.98917235703395
 20
-5.936381834453403
 10
24.71359916916882
 20
-5.936381834453403
 10
24.71359916916882
 20
-5.936381834453403
 10
24.67043212273865
 20
-5.936381834453403
 10
24.62726507630846
 20
-5.935107149123862
 10
24.58409802987829
 20
-5.932575003942202
 10
24.58409802987829
 20
-5.932575003942202
 10
24.58409802987829
 20
-5.936381834453403
 10
24.58409802987829
 20
-5.936381834453403
 10
24.63232936667179
 20
-5.961789413657121
 10
24.66788275207956
 20
-5.982098251542669
 10
24.70598550814642
 20
-6.004956460087303
 10
24.70598550814642
 20
-6.004956460087303
 10
24.98662298637487
 20
-6.206856281000367
 10
24.98662298637487
 20
-6.206856281000367
 10
24.98662298637487
 20
-6.206856281000367
 10
24.98917235703395
 20
-6.206856281000367
 10
24.98917235703395
 20
-6.206856281000367
 10
24.98917235703395
 20
-6.206856281000367
 10
24.98917235703395
 20
-5.936381834453403
 10
24.98917235703395
 20
-5.936381834453403
 97
        0
 97
        1
330
539
 92
        1
 93
        1
 72
     4
 94
        3
 73
     0
 74
     0
 95
       38
 96
       34
 40
0.0
 40
0.0
 40
0.0
 40
0.0
 40
1.0
 40
1.0
 40
1.0
 40
2.0
 40
2.0
 40
2.0
 40
3.0
 40
3.0
 40
3.0
 40
4.0
 40
4.0
 40
4.0
 40
5.0
 40
5.0
 40
5.0
 40
6.0
 40
6.0
 40
6.0
 40
7.0
 40
7.0
 40
7.0
 40
8.0
 40
8.0
 40
8.0
 40
9.0
 40
9.0
 40
9.0
 40
10.0
 40
10.0
 40
10.0
 40
11.0
 40
11.0
 40
11.0
 40
11.0
 10
25.30153916468156
 20
-5.936381834453403
 10
25.30153916468156
 20
-5.936381834453403
 10
25.07678113522386
 20
-5.936381834453403
 10
25.07678113522386
 20
-5.936381834453403
 10
25.07678113522386
 20
-5.936381834453403
 10
25.07678113522386
 20
-6.319872638393988
 10
25.07678113522386
 20
-6.319872638393988
 10
25.07678113522386
 20
-6.319872638393988
 10
25.00312499374922
 20
-6.319872638393988
 10
25.00312499374922
 20
-6.319872638393988
 10
25.00312499374922
 20
-6.319872638393988
 10
24.4761631883254
 20
-5.951626381975634
 10
24.4761631883254
 20
-5.951626381975634
 10
24.4761631883254
 20
-5.951626381975634
 10
24.4761631883254
 20
-5.83099636355961
 10
24.4761631883254
 20
-5.83099636355961
 10
24.4761631883254
 20
-5.83099636355961
 10
24.98917235703395
 20
-5.83099636355961
 10
24.98917235703395
 20
-5.83099636355961
 10
24.98917235703395
 20
-5.83099636355961
 10
24.98917235703395
 20
-5.715430635506906
 10
24.98917235703395
 20
-5.715430635506906
 10
24.98917235703395
 20
-5.715430635506906
 10
25.07678113522386
 20
-5.715430635506906
 10
25.07678113522386
 20
-5.715430635506906
 10
25.07678113522386
 20
-5.715430635506906
 10
25.07678113522386
 20
-5.83099636355961
 10
25.07678113522386
 20
-5.83099636355961
 10
25.07678113522386
 20
-5.83099636355961
 10
25.30153916468156
 20
-5.83099636355961
 10
25.30153916468156
 20
-5.83099636355961
 10
25.30153916468156
 20
-5.83099636355961
 10
25.30153916468156
 20
-5.936381834453403
 10
25.30153916468156
 20
-5.936381834453403
 97
        0
 97
        1
330
53A
 75
     2
 76
     1
 98
        1
 10
0.0
 20
0.0
450
        0
451
        0
460
0.0
461
0.0
452
        0
462
0.0
453
        0
470

  0
ENDBLK
  5
536
330
533
100
AcDbEntity
  8
0
100
AcDbBlockEnd
  0
BLOCK
  5
53E
330
53C
100
AcDbEntity
  8
0
100
AcDbBlockBegin
  2
Block_4
 70
     0
 10
0.0
 20
0.0
 30
0.0
  3
Block_4
  1

  0
INSERT
  5
541
330
53C
100
AcDbEntity
  8
Livello 3
100
AcDbBlockReference
  2
Block_5
 10
0.0
 20
0.0
 30
0.0
  0
ENDBLK
  5
53F
330
53C
100
AcDbEntity
  8
0
100
AcDbBlockEnd
  0
BLOCK
  5
542
330
540
100
AcDbEntity
  8
0
100
AcDbBlockBegin
  2
Block_5
 70
     0
 10
0.0
 20
0.0
 30
0.0
  3
Block_5
  1

  0
SPLINE
  5
544
330
540
100
AcDbEntity
  8
Livello 3
100
AcDbSpline
210
0.0
220
0.0
230
1.0
 70
     9
 71
     3
 72
    59
 73
    55
 74
     0
 42
0.000000001
 43
0.0000000001
 40
0.0
 40
0.0
 40
0.0
 40
0.0
 40
1.0
 40
1.0
 40
1.0
 40
2.0
 40
2.0
 40
2.0
 40
3.0
 40
3.0
 40
3.0
 40
4.0
 40
4.0
 40
4.0
 40
5.0
 40
5.0
 40
5.0
 40
6.0
 40
6.0
 40
6.0
 40
7.0
 40
7.0
 40
7.0
 40
8.0
 40
8.0
 40
8.0
 40
9.0
 40
9.0
 40
9.0
 40
10.0
 40
10.0
 40
10.0
 40
11.0
 40
11.0
 40
11.0
 40
12.0
 40
12.0
 40
12.0
 40
13.0
 40
13.0
 40
13.0
 40
14.0
 40
14.0
 40
14.0
 40
15.0
 40
15.0
 40
15.0
 40
16.0
 40
16.0
 40
16.0
 40
17.0
 40
17.0
 40
17.0
 40
18.0
 40
18.0
 40
18.0
 40
18.0
 10
13.09477348847978
 20
-17.47442002601333
 30
0.0
 10
13.12652004337635
 20
-17.49474608937631
 30
0.0
 10
13.200176184851
 20
-17.52650986975031
 30
0.0
 10
13.27763915683684
 20
-17.52650986975031
 30
0.0
 10
13.42112738379749
 20
-17.52650986975031
 30
0.0
 10
13.46556911555722
 20
-17.43507703557178
 30
0.0
 10
13.4643116557051
 20
-17.36651963541531
 30
0.0
 10
13.46303697037556
 20
-17.25097113284003
 30
0.0
 10
13.35890895933388
 20
-17.20143065976214
 30
0.0
 10
13.250974117781
 20
-17.20143065976214
 30
0.0
 10
13.250974117781
 20
-17.20143065976214
 30
0.0
 10
13.18875569331739
 20
-17.20143065976214
 30
0.0
 10
13.18875569331739
 20
-17.20143065976214
 30
0.0
 10
13.18875569331739
 20
-17.20143065976214
 30
0.0
 10
13.18875569331739
 20
-17.11761148660601
 30
0.0
 10
13.18875569331739
 20
-17.11761148660601
 30
0.0
 10
13.18875569331739
 20
-17.11761148660601
 30
0.0
 10
13.250974117781
 20
-17.11761148660601
 30
0.0
 10
13.250974117781
 20
-17.11761148660601
 30
0.0
 10
13.33224392027805
 20
-17.11761148660601
 30
0.0
 10
13.43509724599018
 20
-17.07571912550537
 30
0.0
 10
13.43509724599018
 20
-16.97791286467913
 30
0.0
 10
13.43509724599018
 20
-16.91190483518174
 30
0.0
 10
13.39318765941212
 20
-16.85347601575191
 30
0.0
 10
13.29033433369998
 20
-16.85347601575191
 30
0.0
 10
13.22430907872517
 20
-16.85347601575191
 30
0.0
 10
13.16081596893202
 20
-16.88269042546682
 30
0.0
 10
13.12526258352424
 20
-16.90811523014797
 30
0.0
 10
13.12526258352424
 20
-16.90811523014797
 30
0.0
 10
13.09604817380932
 20
-16.82681097669607
 30
0.0
 10
13.09604817380932
 20
-16.82681097669607
 30
0.0
 10
13.13923244571692
 20
-16.79508164727692
 30
0.0
 10
13.22303439339563
 20
-16.76335231785777
 30
0.0
 10
13.31191785691507
 20
-16.76335231785777
 30
0.0
 10
13.47445746190916
 20
-16.76335231785777
 30
0.0
 10
13.5481136033838
 20
-16.85984944239962
 30
0.0
 10
13.5481136033838
 20
-16.96013617197524
 30
0.0
 10
13.5481136033838
 20
-17.04523003046091
 30
0.0
 10
13.49731567045379
 20
-17.11761148660601
 30
0.0
 10
13.3957370300712
 20
-17.15443955734333
 30
0.0
 10
13.3957370300712
 20
-17.15443955734333
 30
0.0
 10
13.3957370300712
 20
-17.15698892800242
 30
0.0
 10
13.3957370300712
 20
-17.15698892800242
 30
0.0
 10
13.49731567045379
 20
-17.17731499136539
 30
0.0
 10
13.57986015828038
 20
-17.25348605254426
 30
0.0
 10
13.57986015828038
 20
-17.3690690060744
 30
0.0
 10
13.57986015828038
 20
-17.50108506506917
 30
0.0
 10
13.47700683256825
 20
-17.6166680185993
 30
0.0
 10
13.27891384216638
 20
-17.6166680185993
 30
0.0
 10
13.18620632265831
 20
-17.6166680185993
 30
0.0
 10
13.10493652016126
 20
-17.58745360888438
 30
0.0
 10
13.06430161891274
 20
-17.56078856982855
 30
0.0
 10
13.06430161891274
 20
-17.56078856982855
 30
0.0
 10
13.09477348847978
 20
-17.47442002601333
 30
0.0
 10
13.09477348847978
 20
-17.47442002601333
 30
0.0
  0
HATCH
  5
545
330
540
100
AcDbEntity
  8
Livello 3
 62
   250
420
  1907995
440
 33554687
100
AcDbHatch
 10
0.0
 20
0.0
 30
0.0
210
0.0
220
0.0
230
1.0
  2
SOLID
 70
     1
 71
     1
 91
        1
 92
        1
 93
        1
 72
     4
 94
        3
 73
     0
 74
     0
 95
       59
 96
       55
 40
0.0
 40
0.0
 40
0.0
 40
0.0
 40
1.0
 40
1.0
 40
1.0
 40
2.0
 40
2.0
 40
2.0
 40
3.0
 40
3.0
 40
3.0
 40
4.0
 40
4.0
 40
4.0
 40
5.0
 40
5.0
 40
5.0
 40
6.0
 40
6.0
 40
6.0
 40
7.0
 40
7.0
 40
7.0
 40
8.0
 40
8.0
 40
8.0
 40
9.0
 40
9.0
 40
9.0
 40
10.0
 40
10.0
 40
10.0
 40
11.0
 40
11.0
 40
11.0
 40
12.0
 40
12.0
 40
12.0
 40
13.0
 40
13.0
 40
13.0
 40
14.0
 40
14.0
 40
14.0
 40
15.0
 40
15.0
 40
15.0
 40
16.0
 40
16.0
 40
16.0
 40
17.0
 40
17.0
 40
17.0
 40
18.0
 40
18.0
 40
18.0
 40
18.0
 10
13.09477348847978
 20
-17.47442002601333
 10
13.12652004337635
 20
-17.49474608937631
 10
13.200176184851
 20
-17.52650986975031
 10
13.27763915683684
 20
-17.52650986975031
 10
13.42112738379749
 20
-17.52650986975031
 10
13.46556911555722
 20
-17.43507703557178
 10
13.4643116557051
 20
-17.36651963541531
 10
13.46303697037556
 20
-17.25097113284003
 10
13.35890895933388
 20
-17.20143065976214
 10
13.250974117781
 20
-17.20143065976214
 10
13.250974117781
 20
-17.20143065976214
 10
13.18875569331739
 20
-17.20143065976214
 10
13.18875569331739
 20
-17.20143065976214
 10
13.18875569331739
 20
-17.20143065976214
 10
13.18875569331739
 20
-17.11761148660601
 10
13.18875569331739
 20
-17.11761148660601
 10
13.18875569331739
 20
-17.11761148660601
 10
13.250974117781
 20
-17.11761148660601
 10
13.250974117781
 20
-17.11761148660601
 10
13.33224392027805
 20
-17.11761148660601
 10
13.43509724599018
 20
-17.07571912550537
 10
13.43509724599018
 20
-16.97791286467913
 10
13.43509724599018
 20
-16.91190483518174
 10
13.39318765941212
 20
-16.85347601575191
 10
13.29033433369998
 20
-16.85347601575191
 10
13.22430907872517
 20
-16.85347601575191
 10
13.16081596893202
 20
-16.88269042546682
 10
13.12526258352424
 20
-16.90811523014797
 10
13.12526258352424
 20
-16.90811523014797
 10
13.09604817380932
 20
-16.82681097669607
 10
13.09604817380932
 20
-16.82681097669607
 10
13.13923244571692
 20
-16.79508164727692
 10
13.22303439339563
 20
-16.76335231785777
 10
13.31191785691507
 20
-16.76335231785777
 10
13.47445746190916
 20
-16.76335231785777
 10
13.5481136033838
 20
-16.85984944239962
 10
13.5481136033838
 20
-16.96013617197524
 10
13.5481136033838
 20
-17.04523003046091
 10
13.49731567045379
 20
-17.11761148660601
 10
13.3957370300712
 20
-17.15443955734333
 10
13.3957370300712
 20
-17.15443955734333
 10
13.3957370300712
 20
-17.15698892800242
 10
13.3957370300712
 20
-17.15698892800242
 10
13.49731567045379
 20
-17.17731499136539
 10
13.57986015828038
 20
-17.25348605254426
 10
13.57986015828038
 20
-17.3690690060744
 10
13.57986015828038
 20
-17.50108506506917
 10
13.47700683256825
 20
-17.6166680185993
 10
13.27891384216638
 20
-17.6166680185993
 10
13.18620632265831
 20
-17.6166680185993
 10
13.10493652016126
 20
-17.58745360888438
 10
13.06430161891274
 20
-17.56078856982855
 10
13.06430161891274
 20
-17.56078856982855
 10
13.09477348847978
 20
-17.47442002601333
 10
13.09477348847978
 20
-17.47442002601333
 97
        0
 97
        1
330
544
 75
     2
 76
     1
 98
        1
 10
0.0
 20
0.0
450
        0
451
        0
460
0.0
461
0.0
452
        0
462
0.0
453
        0
470

  0
SPLINE
  5
546
330
540
100
AcDbEntity
  8
Livello 3
100
AcDbSpline
210
0.0
220
0.0
230
1.0
 70
     9
 71
     3
 72
    17
 73
    13
 74
     0
 42
0.000000001
 43
0.0000000001
 40
0.0
 40
0.0
 40
0.0
 40
0.0
 40
1.0
 40
1.0
 40
1.0
 40
2.0
 40
2.0
 40
2.0
 40
3.0
 40
3.0
 40
3.0
 40
4.0
 40
4.0
 40
4.0
 40
4.0
 10
13.81991441169259
 20
-17.19381699873974
 30
0.0
 10
13.81991441169259
 20
-17.40841199651595
 30
0.0
 10
13.8859396666674
 20
-17.53029947478409
 30
0.0
 10
13.98753553252742
 20
-17.53029947478409
 30
0.0
 10
14.10182657525058
 20
-17.53029947478409
 30
0.0
 10
14.15643133869179
 20
-17.39697427950492
 30
0.0
 10
14.15643133869179
 20
-17.18620333771734
 30
0.0
 10
14.15643133869179
 20
-16.9830116059973
 30
0.0
 10
14.10435872043224
 20
-16.84968641071813
 30
0.0
 10
13.98881021785696
 20
-16.84968641071813
 30
0.0
 10
13.89102118250814
 20
-16.84968641071813
 30
0.0
 10
13.81991441169259
 20
-16.96902451832719
 30
0.0
 10
13.81991441169259
 20
-17.19381699873974
 30
0.0
  0
SPLINE
  5
547
330
540
100
AcDbEntity
  8
Livello 3
100
AcDbSpline
210
0.0
220
0.0
230
1.0
 70
     9
 71
     3
 72
    17
 73
    13
 74
     0
 42
0.000000001
 43
0.0000000001
 40
0.0
 40
0.0
 40
0.0
 40
0.0
 40
1.0
 40
1.0
 40
1.0
 40
2.0
 40
2.0
 40
2.0
 40
3.0
 40
3.0
 40
3.0
 40
4.0
 40
4.0
 40
4.0
 40
4.0
 10
14.26817301075587
 20
-17.18110459639916
 30
0.0
 10
14.26817301075587
 20
-17.46174207462762
 30
0.0
 10
14.16404499971419
 20
-17.6166680185993
 30
0.0
 10
13.98117933135713
 20
-17.6166680185993
 30
0.0
 10
13.81991441169259
 20
-17.6166680185993
 30
0.0
 10
13.71070488481017
 20
-17.46553167966139
 30
0.0
 10
13.70817273962851
 20
-17.19254231341019
 30
0.0
 10
13.70817273962851
 20
-16.91569444021552
 30
0.0
 10
13.82752807271499
 20
-16.76335231785777
 30
0.0
 10
13.99514919354982
 20
-16.76335231785777
 30
0.0
 10
14.16912651555494
 20
-16.76335231785777
 30
0.0
 10
14.26817301075587
 20
-16.9182438108746
 30
0.0
 10
14.26817301075587
 20
-17.18110459639916
 30
0.0
  0
HATCH
  5
548
330
540
100
AcDbEntity
  8
Livello 3
 62
   250
420
  1907995
440
 33554687
100
AcDbHatch
 10
0.0
 20
0.0
 30
0.0
210
0.0
220
0.0
230
1.0
  2
SOLID
 70
     1
 71
     1
 91
        2
 92
        1
 93
        1
 72
     4
 94
        3
 73
     0
 74
     0
 95
       17
 96
       13
 40
0.0
 40
0.0
 40
0.0
 40
0.0
 40
1.0
 40
1.0
 40
1.0
 40
2.0
 40
2.0
 40
2.0
 40
3.0
 40
3.0
 40
3.0
 40
4.0
 40
4.0
 40
4.0
 40
4.0
 10
13.81991441169259
 20
-17.19381699873974
 10
13.81991441169259
 20
-17.40841199651595
 10
13.8859396666674
 20
-17.53029947478409
 10
13.98753553252742
 20
-17.53029947478409
 10
14.10182657525058
 20
-17.53029947478409
 10
14.15643133869179
 20
-17.39697427950492
 10
14.15643133869179
 20
-17.18620333771734
 10
14.15643133869179
 20
-16.9830116059973
 10
14.10435872043224
 20
-16.84968641071813
 10
13.98881021785696
 20
-16.84968641071813
 10
13.89102118250814
 20
-16.84968641071813
 10
13.81991441169259
 20
-16.96902451832719
 10
13.81991441169259
 20
-17.19381699873974
 97
        0
 97
        1
330
546
 92
        1
 93
        1
 72
     4
 94
        3
 73
     0
 74
     0
 95
       17
 96
       13
 40
0.0
 40
0.0
 40
0.0
 40
0.0
 40
1.0
 40
1.0
 40
1.0
 40
2.0
 40
2.0
 40
2.0
 40
3.0
 40
3.0
 40
3.0
 40
4.0
 40
4.0
 40
4.0
 40
4.0
 10
14.26817301075587
 20
-17.18110459639916
 10
14.26817301075587
 20
-17.46174207462762
 10
14.16404499971419
 20
-17.6166680185993
 10
13.98117933135713
 20
-17.6166680185993
 10
13.81991441169259
 20
-17.6166680185993
 10
13.71070488481017
 20
-17.46553167966139
 10
13.70817273962851
 20
-17.19254231341019
 10
13.70817273962851
 20
-16.91569444021552
 10
13.82752807271499
 20
-16.76335231785777
 10
13.99514919354982
 20
-16.76335231785777
 10
14.16912651555494
 20
-16.76335231785777
 10
14.26817301075587
 20
-16.9182438108746
 10
14.26817301075587
 20
-17.18110459639916
 97
        0
 97
        1
330
547
 75
     2
 76
     1
 98
        1
 10
0.0
 20
0.0
450
        0
451
        0
460
0.0
461
0.0
452
        0
462
0.0
453
        0
470

  0
SPLINE
  5
549
330
540
100
AcDbEntity
  8
Livello 3
100
AcDbSpline
210
0.0
220
0.0
230
1.0
 70
     9
 71
     3
 72
    59
 73
    55
 74
     0
 42
0.000000001
 43
0.0000000001
 40
0.0
 40
0.0
 40
0.0
 40
0.0
 40
1.0
 40
1.0
 40
1.0
 40
2.0
 40
2.0
 40
2.0
 40
3.0
 40
3.0
 40
3.0
 40
4.0
 40
4.0
 40
4.0
 40
5.0
 40
5.0
 40
5.0
 40
6.0
 40
6.0
 40
6.0
 40
7.0
 40
7.0
 40
7.0
 40
8.0
 40
8.0
 40
8.0
 40
9.0
 40
9.0
 40
9.0
 40
10.0
 40
10.0
 40
10.0
 40
11.0
 40
11.0
 40
11.0
 40
12.0
 40
12.0
 40
12.0
 40
13.0
 40
13.0
 40
13.0
 40
14.0
 40
14.0
 40
14.0
 40
15.0
 40
15.0
 40
15.0
 40
16.0
 40
16.0
 40
16.0
 40
17.0
 40
17.0
 40
17.0
 40
18.0
 40
18.0
 40
18.0
 40
18.0
 10
14.39774305195612
 20
-17.47442002601333
 30
0.0
 10
14.42948960685269
 20
-17.49474608937631
 30
0.0
 10
14.50314574832734
 20
-17.52650986975031
 30
0.0
 10
14.58060872031318
 20
-17.52650986975031
 30
0.0
 10
14.72409694727383
 20
-17.52650986975031
 30
0.0
 10
14.76853867903356
 20
-17.43507703557178
 30
0.0
 10
14.76728121918144
 20
-17.36651963541531
 30
0.0
 10
14.7660065338519
 20
-17.25097113284003
 30
0.0
 10
14.66187852281022
 20
-17.20143065976214
 30
0.0
 10
14.55394368125734
 20
-17.20143065976214
 30
0.0
 10
14.55394368125734
 20
-17.20143065976214
 30
0.0
 10
14.49172525679373
 20
-17.20143065976214
 30
0.0
 10
14.49172525679373
 20
-17.20143065976214
 30
0.0
 10
14.49172525679373
 20
-17.20143065976214
 30
0.0
 10
14.49172525679373
 20
-17.11761148660601
 30
0.0
 10
14.49172525679373
 20
-17.11761148660601
 30
0.0
 10
14.49172525679373
 20
-17.11761148660601
 30
0.0
 10
14.55394368125734
 20
-17.11761148660601
 30
0.0
 10
14.55394368125734
 20
-17.11761148660601
 30
0.0
 10
14.63521348375439
 20
-17.11761148660601
 30
0.0
 10
14.73806680946652
 20
-17.07571912550537
 30
0.0
 10
14.73806680946652
 20
-16.97791286467913
 30
0.0
 10
14.73806680946652
 20
-16.91190483518174
 30
0.0
 10
14.69615722288846
 20
-16.85347601575191
 30
0.0
 10
14.59330389717632
 20
-16.85347601575191
 30
0.0
 10
14.52727864220151
 20
-16.85347601575191
 30
0.0
 10
14.46378553240836
 20
-16.88269042546682
 30
0.0
 10
14.42823214700058
 20
-16.90811523014797
 30
0.0
 10
14.42823214700058
 20
-16.90811523014797
 30
0.0
 10
14.39901773728566
 20
-16.82681097669607
 30
0.0
 10
14.39901773728566
 20
-16.82681097669607
 30
0.0
 10
14.44220200919327
 20
-16.79508164727692
 30
0.0
 10
14.52600395687197
 20
-16.76335231785777
 30
0.0
 10
14.61488742039141
 20
-16.76335231785777
 30
0.0
 10
14.7774270253855
 20
-16.76335231785777
 30
0.0
 10
14.85108316686014
 20
-16.85984944239962
 30
0.0
 10
14.85108316686014
 20
-16.96013617197524
 30
0.0
 10
14.85108316686014
 20
-17.04523003046091
 30
0.0
 10
14.80028523393013
 20
-17.11761148660601
 30
0.0
 10
14.69870659354754
 20
-17.15443955734333
 30
0.0
 10
14.69870659354754
 20
-17.15443955734333
 30
0.0
 10
14.69870659354754
 20
-17.15698892800242
 30
0.0
 10
14.69870659354754
 20
-17.15698892800242
 30
0.0
 10
14.80028523393013
 20
-17.17731499136539
 30
0.0
 10
14.88282972175672
 20
-17.25348605254426
 30
0.0
 10
14.88282972175672
 20
-17.3690690060744
 30
0.0
 10
14.88282972175672
 20
-17.50108506506917
 30
0.0
 10
14.77997639604459
 20
-17.6166680185993
 30
0.0
 10
14.58188340564272
 20
-17.6166680185993
 30
0.0
 10
14.48917588613465
 20
-17.6166680185993
 30
0.0
 10
14.4079060836376
 20
-17.58745360888438
 30
0.0
 10
14.36727118238908
 20
-17.56078856982855
 30
0.0
 10
14.36727118238908
 20
-17.56078856982855
 30
0.0
 10
14.39774305195612
 20
-17.47442002601333
 30
0.0
 10
14.39774305195612
 20
-17.47442002601333
 30
0.0
  0
HATCH
  5
54A
330
540
100
AcDbEntity
  8
Livello 3
 62
   250
420
  1907995
440
 33554687
100
AcDbHatch
 10
0.0
 20
0.0
 30
0.0
210
0.0
220
0.0
230
1.0
  2
SOLID
 70
     1
 71
     1
 91
        1
 92
        1
 93
        1
 72
     4
 94
        3
 73
     0
 74
     0
 95
       59
 96
       55
 40
0.0
 40
0.0
 40
0.0
 40
0.0
 40
1.0
 40
1.0
 40
1.0
 40
2.0
 40
2.0
 40
2.0
 40
3.0
 40
3.0
 40
3.0
 40
4.0
 40
4.0
 40
4.0
 40
5.0
 40
5.0
 40
5.0
 40
6.0
 40
6.0
 40
6.0
 40
7.0
 40
7.0
 40
7.0
 40
8.0
 40
8.0
 40
8.0
 40
9.0
 40
9.0
 40
9.0
 40
10.0
 40
10.0
 40
10.0
 40
11.0
 40
11.0
 40
11.0
 40
12.0
 40
12.0
 40
12.0
 40
13.0
 40
13.0
 40
13.0
 40
14.0
 40
14.0
 40
14.0
 40
15.0
 40
15.0
 40
15.0
 40
16.0
 40
16.0
 40
16.0
 40
17.0
 40
17.0
 40
17.0
 40
18.0
 40
18.0
 40
18.0
 40
18.0
 10
14.39774305195612
 20
-17.47442002601333
 10
14.42948960685269
 20
-17.49474608937631
 10
14.50314574832734
 20
-17.52650986975031
 10
14.58060872031318
 20
-17.52650986975031
 10
14.72409694727383
 20
-17.52650986975031
 10
14.76853867903356
 20
-17.43507703557178
 10
14.76728121918144
 20
-17.36651963541531
 10
14.7660065338519
 20
-17.25097113284003
 10
14.66187852281022
 20
-17.20143065976214
 10
14.55394368125734
 20
-17.20143065976214
 10
14.55394368125734
 20
-17.20143065976214
 10
14.49172525679373
 20
-17.20143065976214
 10
14.49172525679373
 20
-17.20143065976214
 10
14.49172525679373
 20
-17.20143065976214
 10
14.49172525679373
 20
-17.11761148660601
 10
14.49172525679373
 20
-17.11761148660601
 10
14.49172525679373
 20
-17.11761148660601
 10
14.55394368125734
 20
-17.11761148660601
 10
14.55394368125734
 20
-17.11761148660601
 10
14.63521348375439
 20
-17.11761148660601
 10
14.73806680946652
 20
-17.07571912550537
 10
14.73806680946652
 20
-16.97791286467913
 10
14.73806680946652
 20
-16.91190483518174
 10
14.69615722288846
 20
-16.85347601575191
 10
14.59330389717632
 20
-16.85347601575191
 10
14.52727864220151
 20
-16.85347601575191
 10
14.46378553240836
 20
-16.88269042546682
 10
14.42823214700058
 20
-16.90811523014797
 10
14.42823214700058
 20
-16.90811523014797
 10
14.39901773728566
 20
-16.82681097669607
 10
14.39901773728566
 20
-16.82681097669607
 10
14.44220200919327
 20
-16.79508164727692
 10
14.52600395687197
 20
-16.76335231785777
 10
14.61488742039141
 20
-16.76335231785777
 10
14.7774270253855
 20
-16.76335231785777
 10
14.85108316686014
 20
-16.85984944239962
 10
14.85108316686014
 20
-16.96013617197524
 10
14.85108316686014
 20
-17.04523003046091
 10
14.80028523393013
 20
-17.11761148660601
 10
14.69870659354754
 20
-17.15443955734333
 10
14.69870659354754
 20
-17.15443955734333
 10
14.69870659354754
 20
-17.15698892800242
 10
14.69870659354754
 20
-17.15698892800242
 10
14.80028523393013
 20
-17.17731499136539
 10
14.88282972175672
 20
-17.25348605254426
 10
14.88282972175672
 20
-17.3690690060744
 10
14.88282972175672
 20
-17.50108506506917
 10
14.77997639604459
 20
-17.6166680185993
 10
14.58188340564272
 20
-17.6166680185993
 10
14.48917588613465
 20
-17.6166680185993
 10
14.4079060836376
 20
-17.58745360888438
 10
14.36727118238908
 20
-17.56078856982855
 10
14.36727118238908
 20
-17.56078856982855
 10
14.39774305195612
 20
-17.47442002601333
 10
14.39774305195612
 20
-17.47442002601333
 97
        0
 97
        1
330
549
 75
     2
 76
     1
 98
        1
 10
0.0
 20
0.0
450
        0
451
        0
460
0.0
461
0.0
452
        0
462
0.0
453
        0
470

  0
ENDBLK
  5
543
330
540
100
AcDbEntity
  8
0
100
AcDbBlockEnd
  0
BLOCK
  5
54D
330
54B
100
AcDbEntity
  8
0
100
AcDbBlockBegin
  2
Block_6
 70
     0
 10
0.0
 20
0.0
 30
0.0
  3
Block_6
  1

  0
INSERT
  5
550
330
54B
100
AcDbEntity
  8
Livello 3
100
AcDbBlockReference
  2
Block_7
 10
0.0
 20
0.0
 30
0.0
  0
ENDBLK
  5
54E
330
54B
100
AcDbEntity
  8
0
100
AcDbBlockEnd
  0
BLOCK
  5
551
330
54F
100
AcDbEntity
  8
0
100
AcDbBlockBegin
  2
Block_7
 70
     0
 10
0.0
 20
0.0
 30
0.0
  3
Block_7
  1

  0
SPLINE
  5
553
330
54F
100
AcDbEntity
  8
Livello 3
100
AcDbSpline
210
0.0
220
0.0
230
1.0
 70
    11
 71
     3
 72
    29
 73
    25
 74
     0
 42
0.000000001
 43
0.0000000001
 40
0.0
 40
0.0
 40
0.0
 40
0.0
 40
1.0
 40
1.0
 40
1.0
 40
2.0
 40
2.0
 40
2.0
 40
3.0
 40
3.0
 40
3.0
 40
4.0
 40
4.0
 40
4.0
 40
5.0
 40
5.0
 40
5.0
 40
6.0
 40
6.0
 40
6.0
 40
7.0
 40
7.0
 40
7.0
 40
8.0
 40
8.0
 40
8.0
 40
8.0
 10
24.35772080554251
 20
-14.7822846100197
 30
0.0
 10
24.35772080554251
 20
-14.7822846100197
 30
0.0
 10
24.35772080554251
 20
-14.78483398067879
 30
0.0
 10
24.35772080554251
 20
-14.78483398067879
 30
0.0
 10
24.35772080554251
 20
-14.78483398067879
 30
0.0
 10
24.43516655205093
 20
-14.92832220763945
 30
0.0
 10
24.43516655205093
 20
-14.92832220763945
 30
0.0
 10
24.43516655205093
 20
-14.92832220763945
 30
0.0
 10
24.35007269356527
 20
-14.94992295633196
 30
0.0
 10
24.35007269356527
 20
-14.94992295633196
 30
0.0
 10
24.35007269356527
 20
-14.94992295633196
 30
0.0
 10
24.25357556902341
 20
-14.76960665863398
 30
0.0
 10
24.25357556902341
 20
-14.76960665863398
 30
0.0
 10
24.25357556902341
 20
-14.76960665863398
 30
0.0
 10
24.25357556902341
 20
-14.67434976846683
 30
0.0
 10
24.25357556902341
 20
-14.67434976846683
 30
0.0
 10
24.25357556902341
 20
-14.67434976846683
 30
0.0
 10
25.07898599633442
 20
-14.67434976846683
 30
0.0
 10
25.07898599633442
 20
-14.67434976846683
 30
0.0
 10
25.07898599633442
 20
-14.67434976846683
 30
0.0
 10
25.07898599633442
 20
-14.7822846100197
 30
0.0
 10
25.07898599633442
 20
-14.7822846100197
 30
0.0
 10
25.07898599633442
 20
-14.7822846100197
 30
0.0
 10
24.35772080554251
 20
-14.7822846100197
 30
0.0
 10
24.35772080554251
 20
-14.7822846100197
 30
0.0
  0
HATCH
  5
554
330
54F
100
AcDbEntity
  8
Livello 3
 62
   250
420
  1907995
440
 33554687
100
AcDbHatch
 10
0.0
 20
0.0
 30
0.0
210
0.0
220
0.0
230
1.0
  2
SOLID
 70
     1
 71
     1
 91
        1
 92
        1
 93
        1
 72
     4
 94
        3
 73
     0
 74
     0
 95
       29
 96
       25
 40
0.0
 40
0.0
 40
0.0
 40
0.0
 40
1.0
 40
1.0
 40
1.0
 40
2.0
 40
2.0
 40
2.0
 40
3.0
 40
3.0
 40
3.0
 40
4.0
 40
4.0
 40
4.0
 40
5.0
 40
5.0
 40
5.0
 40
6.0
 40
6.0
 40
6.0
 40
7.0
 40
7.0
 40
7.0
 40
8.0
 40
8.0
 40
8.0
 40
8.0
 10
24.35772080554251
 20
-14.7822846100197
 10
24.35772080554251
 20
-14.7822846100197
 10
24.35772080554251
 20
-14.78483398067879
 10
24.35772080554251
 20
-14.78483398067879
 10
24.35772080554251
 20
-14.78483398067879
 10
24.43516655205093
 20
-14.92832220763945
 10
24.43516655205093
 20
-14.92832220763945
 10
24.43516655205093
 20
-14.92832220763945
 10
24.35007269356527
 20
-14.94992295633196
 10
24.35007269356527
 20
-14.94992295633196
 10
24.35007269356527
 20
-14.94992295633196
 10
24.25357556902341
 20
-14.76960665863398
 10
24.25357556902341
 20
-14.76960665863398
 10
24.25357556902341
 20
-14.76960665863398
 10
24.25357556902341
 20
-14.67434976846683
 10
24.25357556902341
 20
-14.67434976846683
 10
24.25357556902341
 20
-14.67434976846683
 10
25.07898599633442
 20
-14.67434976846683
 10
25.07898599633442
 20
-14.67434976846683
 10
25.07898599633442
 20
-14.67434976846683
 10
25.07898599633442
 20
-14.7822846100197
 10
25.07898599633442
 20
-14.7822846100197
 10
25.07898599633442
 20
-14.7822846100197
 10
24.35772080554251
 20
-14.7822846100197
 10
24.35772080554251
 20
-14.7822846100197
 97
        0
 97
        1
330
553
 75
     2
 76
     1
 98
        1
 10
0.0
 20
0.0
450
        0
451
        0
460
0.0
461
0.0
452
        0
462
0.0
453
        0
470

  0
SPLINE
  5
555
330
54F
100
AcDbEntity
  8
Livello 3
100
AcDbSpline
210
0.0
220
0.0
230
1.0
 70
    11
 71
     3
 72
    26
 73
    22
 74
     0
 42
0.000000001
 43
0.0000000001
 40
0.0
 40
0.0
 40
0.0
 40
0.0
 40
1.0
 40
1.0
 40
1.0
 40
2.0
 40
2.0
 40
2.0
 40
3.0
 40
3.0
 40
3.0
 40
4.0
 40
4.0
 40
4.0
 40
5.0
 40
5.0
 40
5.0
 40
6.0
 40
6.0
 40
6.0
 40
7.0
 40
7.0
 40
7.0
 40
7.0
 10
24.76658473773197
 20
-14.0279465025694
 30
0.0
 10
24.76658473773197
 20
-14.0279465025694
 30
0.0
 10
24.49104600082168
 20
-14.0279465025694
 30
0.0
 10
24.49104600082168
 20
-14.0279465025694
 30
0.0
 10
24.4478789543915
 20
-14.0279465025694
 30
0.0
 10
24.40467745700647
 20
-14.02667181723986
 30
0.0
 10
24.36151041057629
 20
-14.02415689753562
 30
0.0
 10
24.36151041057629
 20
-14.02415689753562
 30
0.0
 10
24.36151041057629
 20
-14.0279465025694
 30
0.0
 10
24.36151041057629
 20
-14.0279465025694
 30
0.0
 10
24.40977619832465
 20
-14.05337130725054
 30
0.0
 10
24.44532958373243
 20
-14.07366291965866
 30
0.0
 10
24.48343233979928
 20
-14.09650390272586
 30
0.0
 10
24.48343233979928
 20
-14.09650390272586
 30
0.0
 10
24.76406981802773
 20
-14.29842094911636
 30
0.0
 10
24.76406981802773
 20
-14.29842094911636
 30
0.0
 10
24.76406981802773
 20
-14.29842094911636
 30
0.0
 10
24.76658473773197
 20
-14.29842094911636
 30
0.0
 10
24.76658473773197
 20
-14.29842094911636
 30
0.0
 10
24.76658473773197
 20
-14.29842094911636
 30
0.0
 10
24.76658473773197
 20
-14.0279465025694
 30
0.0
 10
24.76658473773197
 20
-14.0279465025694
 30
0.0
  0
SPLINE
  5
556
330
54F
100
AcDbEntity
  8
Livello 3
100
AcDbSpline
210
0.0
220
0.0
230
1.0
 70
    11
 71
     3
 72
    38
 73
    34
 74
     0
 42
0.000000001
 43
0.0000000001
 40
0.0
 40
0.0
 40
0.0
 40
0.0
 40
1.0
 40
1.0
 40
1.0
 40
2.0
 40
2.0
 40
2.0
 40
3.0
 40
3.0
 40
3.0
 40
4.0
 40
4.0
 40
4.0
 40
5.0
 40
5.0
 40
5.0
 40
6.0
 40
6.0
 40
6.0
 40
7.0
 40
7.0
 40
7.0
 40
8.0
 40
8.0
 40
8.0
 40
9.0
 40
9.0
 40
9.0
 40
10.0
 40
10.0
 40
10.0
 40
11.0
 40
11.0
 40
11.0
 40
11.0
 10
25.07898599633442
 20
-14.0279465025694
 30
0.0
 10
25.07898599633442
 20
-14.0279465025694
 30
0.0
 10
24.85422796687672
 20
-14.0279465025694
 30
0.0
 10
24.85422796687672
 20
-14.0279465025694
 30
0.0
 10
24.85422796687672
 20
-14.0279465025694
 30
0.0
 10
24.85422796687672
 20
-14.41145453198741
 30
0.0
 10
24.85422796687672
 20
-14.41145453198741
 30
0.0
 10
24.85422796687672
 20
-14.41145453198741
 30
0.0
 10
24.78057182540208
 20
-14.41145453198741
 30
0.0
 10
24.78057182540208
 20
-14.41145453198741
 30
0.0
 10
24.78057182540208
 20
-14.41145453198741
 30
0.0
 10
24.25357556902341
 20
-14.0431738246142
 30
0.0
 10
24.25357556902341
 20
-14.0431738246142
 30
0.0
 10
24.25357556902341
 20
-14.0431738246142
 30
0.0
 10
24.25357556902341
 20
-13.92256103167561
 30
0.0
 10
24.25357556902341
 20
-13.92256103167561
 30
0.0
 10
24.25357556902341
 20
-13.92256103167561
 30
0.0
 10
24.76658473773197
 20
-13.92256103167561
 30
0.0
 10
24.76658473773197
 20
-13.92256103167561
 30
0.0
 10
24.76658473773197
 20
-13.92256103167561
 30
0.0
 10
24.76658473773197
 20
-13.80697807814547
 30
0.0
 10
24.76658473773197
 20
-13.80697807814547
 30
0.0
 10
24.76658473773197
 20
-13.80697807814547
 30
0.0
 10
24.85422796687672
 20
-13.80697807814547
 30
0.0
 10
24.85422796687672
 20
-13.80697807814547
 30
0.0
 10
24.85422796687672
 20
-13.80697807814547
 30
0.0
 10
24.85422796687672
 20
-13.92256103167561
 30
0.0
 10
24.85422796687672
 20
-13.92256103167561
 30
0.0
 10
24.85422796687672
 20
-13.92256103167561
 30
0.0
 10
25.07898599633442
 20
-13.92256103167561
 30
0.0
 10
25.07898599633442
 20
-13.92256103167561
 30
0.0
 10
25.07898599633442
 20
-13.92256103167561
 30
0.0
 10
25.07898599633442
 20
-14.0279465025694
 30
0.0
 10
25.07898599633442
 20
-14.0279465025694
 30
0.0
  0
HATCH
  5
557
330
54F
100
AcDbEntity
  8
Livello 3
 62
   250
420
  1907995
440
 33554687
100
AcDbHatch
 10
0.0
 20
0.0
 30
0.0
210
0.0
220
0.0
230
1.0
  2
SOLID
 70
     1
 71
     1
 91
        2
 92
        1
 93
        1
 72
     4
 94
        3
 73
     0
 74
     0
 95
       26
 96
       22
 40
0.0
 40
0.0
 40
0.0
 40
0.0
 40
1.0
 40
1.0
 40
1.0
 40
2.0
 40
2.0
 40
2.0
 40
3.0
 40
3.0
 40
3.0
 40
4.0
 40
4.0
 40
4.0
 40
5.0
 40
5.0
 40
5.0
 40
6.0
 40
6.0
 40
6.0
 40
7.0
 40
7.0
 40
7.0
 40
7.0
 10
24.76658473773197
 20
-14.0279465025694
 10
24.76658473773197
 20
-14.0279465025694
 10
24.49104600082168
 20
-14.0279465025694
 10
24.49104600082168
 20
-14.0279465025694
 10
24.4478789543915
 20
-14.0279465025694
 10
24.40467745700647
 20
-14.02667181723986
 10
24.36151041057629
 20
-14.02415689753562
 10
24.36151041057629
 20
-14.02415689753562
 10
24.36151041057629
 20
-14.0279465025694
 10
24.36151041057629
 20
-14.0279465025694
 10
24.40977619832465
 20
-14.05337130725054
 10
24.44532958373243
 20
-14.07366291965866
 10
24.48343233979928
 20
-14.09650390272586
 10
24.48343233979928
 20
-14.09650390272586
 10
24.76406981802773
 20
-14.29842094911636
 10
24.76406981802773
 20
-14.29842094911636
 10
24.76406981802773
 20
-14.29842094911636
 10
24.76658473773197
 20
-14.29842094911636
 10
24.76658473773197
 20
-14.29842094911636
 10
24.76658473773197
 20
-14.29842094911636
 10
24.76658473773197
 20
-14.0279465025694
 10
24.76658473773197
 20
-14.0279465025694
 97
        0
 97
        1
330
555
 92
        1
 93
        1
 72
     4
 94
        3
 73
     0
 74
     0
 95
       38
 96
       34
 40
0.0
 40
0.0
 40
0.0
 40
0.0
 40
1.0
 40
1.0
 40
1.0
 40
2.0
 40
2.0
 40
2.0
 40
3.0
 40
3.0
 40
3.0
 40
4.0
 40
4.0
 40
4.0
 40
5.0
 40
5.0
 40
5.0
 40
6.0
 40
6.0
 40
6.0
 40
7.0
 40
7.0
 40
7.0
 40
8.0
 40
8.0
 40
8.0
 40
9.0
 40
9.0
 40
9.0
 40
10.0
 40
10.0
 40
10.0
 40
11.0
 40
11.0
 40
11.0
 40
11.0
 10
25.07898599633442
 20
-14.0279465025694
 10
25.07898599633442
 20
-14.0279465025694
 10
24.85422796687672
 20
-14.0279465025694
 10
24.85422796687672
 20
-14.0279465025694
 10
24.85422796687672
 20
-14.0279465025694
 10
24.85422796687672
 20
-14.41145453198741
 10
24.85422796687672
 20
-14.41145453198741
 10
24.85422796687672
 20
-14.41145453198741
 10
24.78057182540208
 20
-14.41145453198741
 10
24.78057182540208
 20
-14.41145453198741
 10
24.78057182540208
 20
-14.41145453198741
 10
24.25357556902341
 20
-14.0431738246142
 10
24.25357556902341
 20
-14.0431738246142
 10
24.25357556902341
 20
-14.0431738246142
 10
24.25357556902341
 20
-13.92256103167561
 10
24.25357556902341
 20
-13.92256103167561
 10
24.25357556902341
 20
-13.92256103167561
 10
24.76658473773197
 20
-13.92256103167561
 10
24.76658473773197
 20
-13.92256103167561
 10
24.76658473773197
 20
-13.92256103167561
 10
24.76658473773197
 20
-13.80697807814547
 10
24.76658473773197
 20
-13.80697807814547
 10
24.76658473773197
 20
-13.80697807814547
 10
24.85422796687672
 20
-13.80697807814547
 10
24.85422796687672
 20
-13.80697807814547
 10
24.85422796687672
 20
-13.80697807814547
 10
24.85422796687672
 20
-13.92256103167561
 10
24.85422796687672
 20
-13.92256103167561
 10
24.85422796687672
 20
-13.92256103167561
 10
25.07898599633442
 20
-13.92256103167561
 10
25.07898599633442
 20
-13.92256103167561
 10
25.07898599633442
 20
-13.92256103167561
 10
25.07898599633442
 20
-14.0279465025694
 10
25.07898599633442
 20
-14.0279465025694
 97
        0
 97
        1
330
556
 75
     2
 76
     1
 98
        1
 10
0.0
 20
0.0
450
        0
451
        0
460
0.0
461
0.0
452
        0
462
0.0
453
        0
470

  0
ENDBLK
  5
552
330
54F
100
AcDbEntity
  8
0
100
AcDbBlockEnd
  0
ENDSEC
  0
SECTION
  2
ENTITIES
  0
SPLINE
  5
7AF
330
70
100
AcDbEntity
  8
Livello 1
100
AcDbSpline
210
0.0
220
0.0
230
1.0
 70
     9
 71
     3
 72
    17
 73
    13
 74
     0
 42
0.000000001
 43
0.0000000001
 40
0.0
 40
0.0
 40
0.0
 40
0.0
 40
1.0
 40
1.0
 40
1.0
 40
2.0
 40
2.0
 40
2.0
 40
3.0
 40
3.0
 40
3.0
 40
4.0
 40
4.0
 40
4.0
 40
4.0
 10
76.12747394089078
 20
36.32033991900057
 30
0.0
 10
76.12747394089078
 20
35.45913880810467
 30
0.0
 10
75.42936201425667
 20
34.76099158605729
 30
0.0
 10
74.5681609251167
 20
34.76099158605729
 30
0.0
 10
73.70695983597665
 20
34.76099158605729
 30
0.0
 10
73.00884790934249
 20
35.45913880810467
 30
0.0
 10
73.00884790934249
 20
36.32033991900057
 30
0.0
 10
73.00884790934249
 20
37.18150575211867
 30
0.0
 10
73.70695983597665
 20
37.87965297416638
 30
0.0
 10
74.5681609251167
 20
37.87965297416638
 30
0.0
 10
75.42936201425667
 20
37.87965297416638
 30
0.0
 10
76.12747394089078
 20
37.18150575211867
 30
0.0
 10
76.12747394089078
 20
36.32033991900057
 30
0.0
  0
LINE
  5
7B0
330
70
100
AcDbEntity
  8
Livello 1
100
AcDbLine
 10
43.70352810142795
 20
0.3020815946720745
 30
0.0
 11
10.92825142735938
 21
0.3020815946720745
 31
0.0
  0
LINE
  5
7B1
330
70
100
AcDbEntity
  8
Livello 1
100
AcDbLine
 10
43.70352810142795
 20
2.491032427458463
 30
0.0
 11
10.92825142735938
 21
2.491032427458463
 31
0.0
  0
LINE
  5
7B2
330
70
100
AcDbEntity
  8
Livello 1
100
AcDbLine
 10
43.70352810142795
 20
2.850901038478866
 30
0.0
 11
10.92825142735938
 21
2.850901038478866
 31
0.0
  0
LINE
  5
7B3
330
70
100
AcDbEntity
  8
Livello 1
100
AcDbLine
 10
7.000000317230444
 20
24.71102297745819
 30
0.0
 11
7.000000317230444
 21
53.82796019240167
 31
0.0
  0
LINE
  5
7B4
330
70
100
AcDbEntity
  8
Livello 1
100
AcDbLine
 10
9.368938372193881
 20
2.131199094214878
 30
0.0
 11
9.368938372193881
 21
22.91185631124179
 31
0.0
  0
LINE
  5
7B5
330
70
100
AcDbEntity
  8
Livello 1
100
AcDbLine
 10
9.668799483229832
 20
4.320149927001182
 30
0.0
 11
9.668799483229832
 21
22.91185631124179
 31
0.0
  0
LINE
  5
7B6
330
70
100
AcDbEntity
  8
Livello 1
100
AcDbLine
 10
9.878737538733069
 20
25.79055825496687
 30
0.0
 11
9.878737538733069
 21
52.74838963711598
 31
0.0
  0
LINE
  5
7B7
330
70
100
AcDbEntity
  8
Livello 1
100
AcDbLine
 10
12.21768948259289
 20
28.12947492104817
 30
0.0
 11
12.21768948259289
 21
50.43942380435978
 31
0.0
  0
LINE
  5
7B8
330
70
100
AcDbEntity
  8
Livello 1
100
AcDbLine
 10
45.80259110343193
 20
22.91185631124179
 30
0.0
 11
8.82915309455106
 21
22.91185631124179
 31
0.0
  0
LINE
  5
7B9
330
70
100
AcDbEntity
  8
Livello 1
100
AcDbLine
 10
44.72305585319539
 20
25.79055825496687
 30
0.0
 11
9.878737538733069
 21
25.79055825496687
 31
0.0
  0
LINE
  5
7BA
330
70
100
AcDbEntity
  8
Livello 1
100
AcDbLine
 10
42.41405480099182
 20
28.12947492104817
 30
0.0
 11
12.21768948259289
 21
28.12947492104817
 31
0.0
  0
LINE
  5
7BB
330
70
100
AcDbEntity
  8
Livello 1
100
AcDbLine
 10
9.878737538733069
 20
52.74838963711598
 30
0.0
 11
12.21768948259289
 21
50.43942380435978
 31
0.0
  0
LINE
  5
7BC
330
70
100
AcDbEntity
  8
Livello 1
100
AcDbLine
 10
9.878737538733069
 20
25.79055825496687
 30
0.0
 11
12.21768948259289
 21
28.12947492104817
 31
0.0
  0
LINE
  5
7BD
330
70
100
AcDbEntity
  8
Livello 1
100
AcDbLine
 10
42.41405480099182
 20
28.12947492104817
 30
0.0
 11
44.72305585319539
 21
25.79055825496687
 31
0.0
  0
LINE
  5
7BE
330
70
100
AcDbEntity
  8
Livello 1
100
AcDbLine
 10
42.41405480099182
 20
50.43942380435978
 30
0.0
 11
44.72305585319539
 21
52.74838963711598
 31
0.0
  0
LINE
  5
7BF
330
70
100
AcDbEntity
  8
Livello 1
100
AcDbLine
 10
12.21768948259289
 20
50.43942380435978
 30
0.0
 11
42.41405480099182
 21
50.43942380435978
 31
0.0
  0
LINE
  5
7C0
330
70
100
AcDbEntity
  8
Livello 1
100
AcDbLine
 10
42.41405480099182
 20
50.43942380435978
 30
0.0
 11
42.41405480099182
 21
28.12947492104817
 31
0.0
  0
LINE
  5
7C1
330
70
100
AcDbEntity
  8
Livello 1
100
AcDbLine
 10
9.878737538733069
 20
52.74838963711598
 30
0.0
 11
44.72305585319539
 21
52.74838963711598
 31
0.0
  0
LINE
  5
7C2
330
70
100
AcDbEntity
  8
Livello 1
100
AcDbLine
 10
8.82915309455106
 20
55.50714713642628
 30
0.0
 11
45.80259110343193
 21
55.50714713642628
 31
0.0
  0
LINE
  5
7C3
330
70
100
AcDbEntity
  8
Livello 1
100
AcDbLine
 10
44.72305585319539
 20
52.74838963711598
 30
0.0
 11
44.72305585319539
 21
25.79055825496687
 31
0.0
  0
LINE
  5
7C4
330
70
100
AcDbEntity
  8
Livello 1
100
AcDbLine
 10
44.9629800137411
 20
4.320149927001182
 30
0.0
 11
44.9629800137411
 21
22.91185631124179
 31
0.0
  0
LINE
  5
7C5
330
70
100
AcDbEntity
  8
Livello 1
100
AcDbLine
 10
45.26280583942522
 20
2.131199094214878
 30
0.0
 11
45.26280583942522
 21
22.91185631124179
 31
0.0
  0
LINE
  5
7C6
330
70
100
AcDbEntity
  8
Livello 1
100
AcDbLine
 10
47.57173633607505
 20
53.82796019240167
 30
0.0
 11
47.57173633607505
 21
24.71102297745819
 31
0.0
  0
LINE
  5
7C7
330
70
100
AcDbEntity
  8
Livello 1
100
AcDbLine
 10
54.29730338671378
 20
33.32162297530596
 30
0.0
 11
54.29730338671378
 21
29.24347658743636
 31
0.0
  0
LINE
  5
7C8
330
70
100
AcDbEntity
  8
Livello 1
100
AcDbLine
 10
55.22687280744293
 20
34.28124908617709
 30
0.0
 11
55.22687280744293
 21
28.28392103212099
 31
0.0
  0
LINE
  5
7C9
330
70
100
AcDbEntity
  8
Livello 1
100
AcDbLine
 10
80.38557216559098
 20
22.85636436681096
 30
0.0
 11
78.34644610650236
 21
22.79642742238187
 31
0.0
  0
LINE
  5
7CA
330
70
100
AcDbEntity
  8
Livello 1
100
AcDbLine
 10
60.2645764150255
 20
28.13402575438067
 30
0.0
 11
60.2645764150255
 21
34.43114436391737
 31
0.0
  0
LINE
  5
7CB
330
70
100
AcDbEntity
  8
Livello 1
100
AcDbLine
 10
60.2645764150255
 20
34.43114436391737
 30
0.0
 11
60.29459601148786
 21
34.46116575279888
 31
0.0
  0
LINE
  5
7CC
330
70
100
AcDbEntity
  8
Livello 1
100
AcDbLine
 10
60.29459601148786
 20
34.46116575279888
 30
0.0
 11
60.29459601148786
 21
34.49111658612458
 31
0.0
  0
LINE
  5
7CD
330
70
100
AcDbEntity
  8
Livello 1
100
AcDbLine
 10
60.29459601148786
 20
34.49111658612458
 30
0.0
 11
60.29459601148786
 21
34.52113797500608
 31
0.0
  0
LINE
  5
7CE
330
70
100
AcDbEntity
  8
Livello 1
100
AcDbLine
 10
60.29459601148786
 20
34.52113797500608
 30
0.0
 11
60.29459601148786
 21
34.55105353055409
 31
0.0
  0
LINE
  5
7CF
330
70
100
AcDbEntity
  8
Livello 1
100
AcDbLine
 10
60.29459601148786
 20
34.55105353055409
 30
0.0
 11
60.32461739961084
 21
34.58107491943547
 31
0.0
  0
LINE
  5
7D0
330
70
100
AcDbEntity
  8
Livello 1
100
AcDbLine
 10
60.32461739961084
 20
34.58107491943547
 30
0.0
 11
60.32461739961084
 21
34.61109630831697
 31
0.0
  0
LINE
  5
7D1
330
70
100
AcDbEntity
  8
Livello 1
100
AcDbLine
 10
60.32461739961084
 20
34.61109630831697
 30
0.0
 11
60.35453474833639
 21
34.64101186386488
 31
0.0
  0
LINE
  5
7D2
330
70
100
AcDbEntity
  8
Livello 1
100
AcDbLine
 10
60.35453474833639
 20
34.64101186386488
 30
0.0
 11
60.38455434252615
 21
34.64101186386488
 31
0.0
  0
LINE
  5
7D3
330
70
100
AcDbEntity
  8
Livello 1
100
AcDbLine
 10
60.38455434252615
 20
34.64101186386488
 30
0.0
 11
60.38455434252615
 21
34.67103325274637
 31
0.0
  0
LINE
  5
7D4
330
70
100
AcDbEntity
  8
Livello 1
100
AcDbLine
 10
60.38455434252615
 20
34.67103325274637
 30
0.0
 11
60.41457573064916
 21
34.67103325274637
 31
0.0
  0
LINE
  5
7D5
330
70
100
AcDbEntity
  8
Livello 1
100
AcDbLine
 10
60.41457573064916
 20
34.67103325274637
 30
0.0
 11
60.44449308164725
 21
34.70105464162787
 31
0.0
  0
LINE
  5
7D6
330
70
100
AcDbEntity
  8
Livello 1
100
AcDbLine
 10
60.44449308164725
 20
34.70105464162787
 30
0.0
 11
60.47451267356447
 21
34.70105464162787
 31
0.0
  0
LINE
  5
7D7
330
70
100
AcDbEntity
  8
Livello 1
100
AcDbLine
 10
60.47451267356447
 20
34.70105464162787
 30
0.0
 11
60.47451267356447
 21
34.73097019717577
 31
0.0
  0
LINE
  5
7D8
330
70
100
AcDbEntity
  8
Livello 1
100
AcDbLine
 10
60.47451267356447
 20
34.73097019717577
 30
0.0
 11
60.50446530385419
 21
34.73097019717577
 31
0.0
  0
LINE
  5
7D9
330
70
100
AcDbEntity
  8
Livello 1
100
AcDbLine
 10
60.50446530385419
 20
34.73097019717577
 30
0.0
 11
60.53448489425668
 21
34.73097019717577
 31
0.0
  0
LINE
  5
7DA
330
70
100
AcDbEntity
  8
Livello 1
100
AcDbLine
 10
60.53448489425668
 20
34.73097019717577
 30
0.0
 11
60.56447100460276
 21
34.73097019717577
 31
0.0
  0
LINE
  5
7DB
330
70
100
AcDbEntity
  8
Livello 1
100
AcDbLine
 10
60.56447100460276
 20
34.73097019717577
 30
0.0
 11
60.59442363716508
 21
34.73097019717577
 31
0.0
  0
LINE
  5
7DC
330
70
100
AcDbEntity
  8
Livello 1
100
AcDbLine
 10
78.10655722373358
 20
26.24483019929738
 30
0.0
 11
78.13657861185648
 21
26.24483019929738
 31
0.0
  0
LINE
  5
7DD
330
70
100
AcDbEntity
  8
Livello 1
100
AcDbLine
 10
78.13657861185648
 20
26.24483019929738
 30
0.0
 11
78.13657861185648
 21
26.27485158817828
 31
0.0
  0
LINE
  5
7DE
330
70
100
AcDbEntity
  8
Livello 1
100
AcDbLine
 10
78.34644610650236
 20
24.59559408859826
 30
0.0
 11
81.49509585416216
 21
24.59559408859826
 31
0.0
  0
LINE
  5
7DF
330
70
100
AcDbEntity
  8
Livello 1
100
AcDbLine
 10
76.45732115469797
 20
26.27485158817828
 30
0.0
 11
78.10655722373358
 21
26.24483019929738
 31
0.0
  0
LINE
  5
7E0
330
70
100
AcDbEntity
  8
Livello 1
100
AcDbLine
 10
72.46913320088953
 20
51.43351630411126
 30
0.0
 11
72.49915458901252
 21
51.43351630411126
 31
0.0
  0
LINE
  5
7E1
330
70
100
AcDbEntity
  8
Livello 1
100
AcDbLine
 10
72.49915458901252
 20
51.43351630411126
 30
0.0
 11
72.55909153192785
 21
51.46353769299278
 31
0.0
  0
LINE
  5
7E2
330
70
100
AcDbEntity
  8
Livello 1
100
AcDbLine
 10
72.55909153192785
 20
51.46353769299278
 30
0.0
 11
72.58900708672022
 21
51.46353769299278
 31
0.0
  0
LINE
  5
7E3
330
70
100
AcDbEntity
  8
Livello 1
100
AcDbLine
 10
72.58900708672022
 20
51.46353769299278
 30
0.0
 11
72.61902847484318
 21
51.49348852631857
 31
0.0
  0
LINE
  5
7E4
330
70
100
AcDbEntity
  8
Livello 1
100
AcDbLine
 10
72.61902847484318
 20
51.49348852631857
 30
0.0
 11
72.64904986296617
 21
51.49348852631857
 31
0.0
  0
LINE
  5
7E5
330
70
100
AcDbEntity
  8
Livello 1
100
AcDbLine
 10
70.5199654728392
 20
27.65417742116728
 30
0.0
 11
71.74946655258314
 21
27.65417742116728
 31
0.0
  0
LINE
  5
7E6
330
70
100
AcDbEntity
  8
Livello 1
100
AcDbLine
 10
71.74946655258314
 20
27.65417742116728
 30
0.0
 11
72.67900069553537
 21
27.65417742116728
 31
0.0
  0
LINE
  5
7E7
330
70
100
AcDbEntity
  8
Livello 1
100
AcDbLine
 10
67.22149333476799
 20
27.83409408778908
 30
0.0
 11
60.59442363716508
 21
27.83409408778908
 31
0.0
  0
LINE
  5
7E8
330
70
100
AcDbEntity
  8
Livello 1
100
AcDbLine
 10
60.59442363716508
 20
27.83409408778908
 30
0.0
 11
66.74171556923036
 21
27.83409408778908
 31
0.0
  0
LINE
  5
7E9
330
70
100
AcDbEntity
  8
Livello 1
100
AcDbLine
 10
70.5199654728392
 20
27.98402464330687
 30
0.0
 11
69.26051356052607
 21
27.98402464330687
 31
0.0
  0
LINE
  5
7EA
330
70
100
AcDbEntity
  8
Livello 1
100
AcDbLine
 10
68.63084052103477
 20
27.98402464330687
 30
0.0
 11
67.37138860872163
 21
27.98402464330687
 31
0.0
  0
LINE
  5
7EB
330
70
100
AcDbEntity
  8
Livello 1
100
AcDbLine
 10
67.37138860872163
 20
27.98402464330687
 30
0.0
 11
68.63084052103477
 21
27.98402464330687
 31
0.0
  0
LINE
  5
7EC
330
70
100
AcDbEntity
  8
Livello 1
100
AcDbLine
 10
69.26051356052607
 20
27.98402464330687
 30
0.0
 11
70.5199654728392
 21
27.98402464330687
 31
0.0
  0
LINE
  5
7ED
330
70
100
AcDbEntity
  8
Livello 1
100
AcDbLine
 10
69.26051356052607
 20
28.76369880977867
 30
0.0
 11
68.63084052103477
 21
28.76369880977867
 31
0.0
  0
LINE
  5
7EE
330
70
100
AcDbEntity
  8
Livello 1
100
AcDbLine
 10
60.59442363716508
 20
27.83409408778908
 30
0.0
 11
60.56447100460276
 21
27.83409408778908
 31
0.0
  0
LINE
  5
7EF
330
70
100
AcDbEntity
  8
Livello 1
100
AcDbLine
 10
60.56447100460276
 20
27.83409408778908
 30
0.0
 11
60.53448489425668
 21
27.83409408778908
 31
0.0
  0
LINE
  5
7F0
330
70
100
AcDbEntity
  8
Livello 1
100
AcDbLine
 10
60.53448489425668
 20
27.83409408778908
 30
0.0
 11
60.50446530385419
 21
27.83409408778908
 31
0.0
  0
LINE
  5
7F1
330
70
100
AcDbEntity
  8
Livello 1
100
AcDbLine
 10
60.50446530385419
 20
27.83409408778908
 30
0.0
 11
60.47451267356447
 21
27.86411547667018
 31
0.0
  0
LINE
  5
7F2
330
70
100
AcDbEntity
  8
Livello 1
100
AcDbLine
 10
60.47451267356447
 20
27.86411547667018
 30
0.0
 11
60.44449308164725
 21
27.86411547667018
 31
0.0
  0
LINE
  5
7F3
330
70
100
AcDbEntity
  8
Livello 1
100
AcDbLine
 10
60.44449308164725
 20
27.86411547667018
 30
0.0
 11
60.41457573064916
 21
27.89406630999628
 31
0.0
  0
LINE
  5
7F4
330
70
100
AcDbEntity
  8
Livello 1
100
AcDbLine
 10
60.41457573064916
 20
27.89406630999628
 30
0.0
 11
60.38455434252615
 21
27.89406630999628
 31
0.0
  0
LINE
  5
7F5
330
70
100
AcDbEntity
  8
Livello 1
100
AcDbLine
 10
60.38455434252615
 20
27.89406630999628
 30
0.0
 11
60.38455434252615
 21
27.92408769887738
 31
0.0
  0
LINE
  5
7F6
330
70
100
AcDbEntity
  8
Livello 1
100
AcDbLine
 10
60.38455434252615
 20
27.92408769887738
 30
0.0
 11
60.35453474833639
 21
27.95410908775887
 31
0.0
  0
LINE
  5
7F7
330
70
100
AcDbEntity
  8
Livello 1
100
AcDbLine
 10
60.35453474833639
 20
27.95410908775887
 30
0.0
 11
60.32461739961084
 21
27.95410908775887
 31
0.0
  0
LINE
  5
7F8
330
70
100
AcDbEntity
  8
Livello 1
100
AcDbLine
 10
60.32461739961084
 20
27.95410908775887
 30
0.0
 11
60.32461739961084
 21
27.98402464330687
 31
0.0
  0
LINE
  5
7F9
330
70
100
AcDbEntity
  8
Livello 1
100
AcDbLine
 10
60.32461739961084
 20
27.98402464330687
 30
0.0
 11
60.29459601148786
 21
28.01404603218827
 31
0.0
  0
LINE
  5
7FA
330
70
100
AcDbEntity
  8
Livello 1
100
AcDbLine
 10
60.29459601148786
 20
28.01404603218827
 30
0.0
 11
60.29459601148786
 21
28.04406742106977
 31
0.0
  0
LINE
  5
7FB
330
70
100
AcDbEntity
  8
Livello 1
100
AcDbLine
 10
60.29459601148786
 20
28.04406742106977
 30
0.0
 11
60.29459601148786
 21
28.07398297661766
 31
0.0
  0
LINE
  5
7FC
330
70
100
AcDbEntity
  8
Livello 1
100
AcDbLine
 10
60.29459601148786
 20
28.07398297661766
 30
0.0
 11
60.29459601148786
 21
28.10400436549918
 31
0.0
  0
LINE
  5
7FD
330
70
100
AcDbEntity
  8
Livello 1
100
AcDbLine
 10
60.29459601148786
 20
28.10400436549918
 30
0.0
 11
60.2645764150255
 21
28.13402575438067
 31
0.0
  0
LINE
  5
7FE
330
70
100
AcDbEntity
  8
Livello 1
100
AcDbLine
 10
78.19651555477188
 20
26.24483019929738
 30
0.0
 11
78.16649416664886
 21
26.24483019929738
 31
0.0
  0
LINE
  5
7FF
330
70
100
AcDbEntity
  8
Livello 1
100
AcDbLine
 10
78.16649416664886
 20
26.24483019929738
 30
0.0
 11
78.13657861185648
 21
26.27485158817828
 31
0.0
  0
LINE
  5
800
330
70
100
AcDbEntity
  8
Livello 1
100
AcDbLine
 10
78.25648777546398
 20
26.2148793659716
 30
0.0
 11
78.19651555477188
 21
26.24483019929738
 31
0.0
  0
LINE
  5
801
330
70
100
AcDbEntity
  8
Livello 1
100
AcDbLine
 10
67.37138860872163
 20
27.98402464330687
 30
0.0
 11
67.37138860872163
 21
34.58107491943547
 31
0.0
  0
LINE
  5
802
330
70
100
AcDbEntity
  8
Livello 1
100
AcDbLine
 10
68.63084052103477
 20
27.98402464330687
 30
0.0
 11
68.63084052103477
 21
34.58107491943547
 31
0.0
  0
LINE
  5
803
330
70
100
AcDbEntity
  8
Livello 1
100
AcDbLine
 10
69.26051356052607
 20
33.80140075296367
 30
0.0
 11
68.63084052103477
 21
33.80140075296367
 31
0.0
  0
LINE
  5
804
330
70
100
AcDbEntity
  8
Livello 1
100
AcDbLine
 10
70.5199654728392
 20
34.58107491943547
 30
0.0
 11
69.26051356052607
 21
34.58107491943547
 31
0.0
  0
LINE
  5
805
330
70
100
AcDbEntity
  8
Livello 1
100
AcDbLine
 10
68.63084052103477
 20
34.58107491943547
 30
0.0
 11
67.37138860872163
 21
34.58107491943547
 31
0.0
  0
LINE
  5
806
330
70
100
AcDbEntity
  8
Livello 1
100
AcDbLine
 10
70.5199654728392
 20
34.58107491943547
 30
0.0
 11
69.26051356052607
 21
34.58107491943547
 31
0.0
  0
LINE
  5
807
330
70
100
AcDbEntity
  8
Livello 1
100
AcDbLine
 10
68.63084052103477
 20
34.58107491943547
 30
0.0
 11
67.37138860872163
 21
34.58107491943547
 31
0.0
  0
LINE
  5
808
330
70
100
AcDbEntity
  8
Livello 1
100
AcDbLine
 10
66.74171556923036
 20
34.73097019717577
 30
0.0
 11
60.59442363716508
 21
34.73097019717577
 31
0.0
  0
LINE
  5
809
330
70
100
AcDbEntity
  8
Livello 1
100
AcDbLine
 10
67.22149333476799
 20
34.76099158605729
 30
0.0
 11
60.59442363716508
 21
34.76099158605729
 31
0.0
  0
LINE
  5
80A
330
70
100
AcDbEntity
  8
Livello 1
100
AcDbLine
 10
78.31649527393316
 20
26.15487186598688
 30
0.0
 11
78.28650916358697
 21
26.18485797709016
 31
0.0
  0
LINE
  5
80B
330
70
100
AcDbEntity
  8
Livello 1
100
AcDbLine
 10
78.28650916358697
 20
26.18485797709016
 30
0.0
 11
78.25648777546398
 21
26.2148793659716
 31
0.0
  0
LINE
  5
80C
330
70
100
AcDbEntity
  8
Livello 1
100
AcDbLine
 10
69.26051356052607
 20
27.98402464330687
 30
0.0
 11
69.26051356052607
 21
34.58107491943547
 31
0.0
  0
LINE
  5
80D
330
70
100
AcDbEntity
  8
Livello 1
100
AcDbLine
 10
70.5199654728392
 20
27.65417742116728
 30
0.0
 11
70.5199654728392
 21
34.91092214157537
 31
0.0
  0
LINE
  5
80E
330
70
100
AcDbEntity
  8
Livello 1
100
AcDbLine
 10
71.59950072307573
 20
49.75425880453096
 30
0.0
 11
71.59950072307573
 21
46.90550769413227
 31
0.0
  0
LINE
  5
80F
330
70
100
AcDbEntity
  8
Livello 1
100
AcDbLine
 10
71.59950072307573
 20
46.90550769413227
 30
0.0
 11
71.59950072307573
 21
44.62659852803507
 31
0.0
  0
LINE
  5
810
330
70
100
AcDbEntity
  8
Livello 1
100
AcDbLine
 10
71.59950072307573
 20
44.62659852803507
 30
0.0
 11
71.59950072307573
 21
36.80004714110296
 31
0.0
  0
LINE
  5
811
330
70
100
AcDbEntity
  8
Livello 1
100
AcDbLine
 10
71.59950072307573
 20
36.80004714110296
 30
0.0
 11
71.59950072307573
 21
34.91092214157537
 31
0.0
  0
LINE
  5
812
330
70
100
AcDbEntity
  8
Livello 1
100
AcDbLine
 10
71.59950072307573
 20
34.91092214157537
 30
0.0
 11
70.5199654728392
 21
34.91092214157537
 31
0.0
  0
LINE
  5
813
330
70
100
AcDbEntity
  8
Livello 1
100
AcDbLine
 10
71.59950072307573
 20
49.75425880453096
 30
0.0
 11
71.59950072307573
 21
49.90415408227128
 31
0.0
  0
LINE
  5
814
330
70
100
AcDbEntity
  8
Livello 1
100
AcDbLine
 10
71.59950072307573
 20
49.90415408227128
 30
0.0
 11
71.59950072307573
 21
50.02413380446357
 31
0.0
  0
LINE
  5
815
330
70
100
AcDbEntity
  8
Livello 1
100
AcDbLine
 10
71.59950072307573
 20
50.02413380446357
 30
0.0
 11
71.62948683342179
 21
50.14404297110027
 31
0.0
  0
LINE
  5
816
330
70
100
AcDbEntity
  8
Livello 1
100
AcDbLine
 10
71.62948683342179
 20
50.14404297110027
 30
0.0
 11
71.65950822154481
 21
50.29397352661838
 31
0.0
  0
LINE
  5
817
330
70
100
AcDbEntity
  8
Livello 1
100
AcDbLine
 10
71.65950822154481
 20
50.29397352661838
 30
0.0
 11
71.68945905411401
 21
50.41395324881046
 31
0.0
  0
LINE
  5
818
330
70
100
AcDbEntity
  8
Livello 1
100
AcDbLine
 10
71.68945905411401
 20
50.41395324881046
 30
0.0
 11
71.74946655258314
 21
50.53393297100278
 31
0.0
  0
LINE
  5
819
330
70
100
AcDbEntity
  8
Livello 1
100
AcDbLine
 10
71.74946655258314
 20
50.53393297100278
 30
0.0
 11
71.80943877327532
 21
50.65384213763947
 31
0.0
  0
LINE
  5
81A
330
70
100
AcDbEntity
  8
Livello 1
100
AcDbLine
 10
71.80943877327532
 20
50.65384213763947
 30
0.0
 11
71.86937571619066
 21
50.77382185983177
 31
0.0
  0
LINE
  5
81B
330
70
100
AcDbEntity
  8
Livello 1
100
AcDbLine
 10
71.86937571619066
 20
50.77382185983177
 30
0.0
 11
71.92934793688285
 21
50.86378019314266
 31
0.0
  0
LINE
  5
81C
330
70
100
AcDbEntity
  8
Livello 1
100
AcDbLine
 10
71.92934793688285
 20
50.86378019314266
 30
0.0
 11
71.98928487979816
 21
50.98368935977937
 31
0.0
  0
LINE
  5
81D
330
70
100
AcDbEntity
  8
Livello 1
100
AcDbLine
 10
71.98928487979816
 20
50.98368935977937
 30
0.0
 11
72.07924321083648
 21
51.07364769309029
 31
0.0
  0
LINE
  5
81E
330
70
100
AcDbEntity
  8
Livello 1
100
AcDbLine
 10
72.07924321083648
 20
51.07364769309029
 30
0.0
 11
72.16920154187478
 21
51.19362741528229
 31
0.0
  0
LINE
  5
81F
330
70
100
AcDbEntity
  8
Livello 1
100
AcDbLine
 10
72.16920154187478
 20
51.19362741528229
 30
0.0
 11
72.25915987291308
 21
51.28358574859318
 31
0.0
  0
LINE
  5
820
330
70
100
AcDbEntity
  8
Livello 1
100
AcDbLine
 10
72.25915987291308
 20
51.28358574859318
 30
0.0
 11
72.34915348172828
 21
51.34355797080037
 31
0.0
  0
LINE
  5
821
330
70
100
AcDbEntity
  8
Livello 1
100
AcDbLine
 10
72.34915348172828
 20
51.34355797080037
 30
0.0
 11
72.46913320088953
 21
51.43351630411126
 31
0.0
  0
LINE
  5
822
330
70
100
AcDbEntity
  8
Livello 1
100
AcDbLine
 10
73.45867484231092
 20
51.64338380405887
 30
0.0
 11
73.45867484231092
 21
51.64338380405887
 31
0.0
  0
LINE
  5
823
330
70
100
AcDbEntity
  8
Livello 1
100
AcDbLine
 10
72.67900069553537
 20
0.186652705812179
 30
0.0
 11
72.67900069553537
 21
36.32026936344528
 31
0.0
  0
LINE
  5
824
330
70
100
AcDbEntity
  8
Livello 1
100
AcDbLine
 10
73.1288276285038
 20
49.75425880453096
 30
0.0
 11
73.1288276285038
 21
37.54969991869328
 31
0.0
  0
LINE
  5
825
330
70
100
AcDbEntity
  8
Livello 1
100
AcDbLine
 10
78.10655722373358
 20
38.20939436297278
 30
0.0
 11
75.25780618530008
 21
38.08952047411397
 31
0.0
  0
LINE
  5
826
330
70
100
AcDbEntity
  8
Livello 1
100
AcDbLine
 10
77.53682112715757
 20
39.01908991832608
 30
0.0
 11
78.34644610650236
 21
39.01908991832608
 31
0.0
  0
LINE
  5
827
330
70
100
AcDbEntity
  8
Livello 1
100
AcDbLine
 10
78.34644610650236
 20
26.09489964377897
 30
0.0
 11
78.31649527393316
 21
26.12492103266038
 31
0.0
  0
LINE
  5
828
330
70
100
AcDbEntity
  8
Livello 1
100
AcDbLine
 10
78.31649527393316
 20
26.12492103266038
 30
0.0
 11
78.31649527393316
 21
26.15487186598688
 31
0.0
  0
LINE
  5
829
330
70
100
AcDbEntity
  8
Livello 1
100
AcDbLine
 10
76.45732115469797
 20
2.375603538598454
 30
0.0
 11
76.45732115469797
 21
36.32026936344528
 31
0.0
  0
LINE
  5
82A
330
70
100
AcDbEntity
  8
Livello 1
100
AcDbLine
 10
78.34644610650236
 20
34.43114436391737
 30
0.0
 11
78.34644610650236
 21
34.40115825281377
 31
0.0
  0
LINE
  5
82B
330
70
100
AcDbEntity
  8
Livello 1
100
AcDbLine
 10
78.34644610650236
 20
34.40115825281377
 30
0.0
 11
78.34644610650236
 21
34.37120741948798
 31
0.0
  0
LINE
  5
82C
330
70
100
AcDbEntity
  8
Livello 1
100
AcDbLine
 10
78.34644610650236
 20
34.37120741948798
 30
0.0
 11
78.34644610650236
 21
34.34118603060646
 31
0.0
  0
LINE
  5
82D
330
70
100
AcDbEntity
  8
Livello 1
100
AcDbLine
 10
78.34644610650236
 20
26.06487825489745
 30
0.0
 11
78.34644610650236
 21
26.09489964377897
 31
0.0
  0
LINE
  5
82E
330
70
100
AcDbEntity
  8
Livello 1
100
AcDbLine
 10
77.53682112715757
 20
39.01908991832608
 30
0.0
 11
77.53682112715757
 21
43.72694463937128
 31
0.0
  0
LINE
  5
82F
330
70
100
AcDbEntity
  8
Livello 1
100
AcDbLine
 10
78.10655722373358
 20
38.20939436297278
 30
0.0
 11
78.10655722373358
 21
38.50932602956448
 31
0.0
  0
LINE
  5
830
330
70
100
AcDbEntity
  8
Livello 1
100
AcDbLine
 10
78.10655722373358
 20
38.50932602956448
 30
0.0
 11
78.10655722373358
 21
39.01908991832608
 31
0.0
  0
LINE
  5
831
330
70
100
AcDbEntity
  8
Livello 1
100
AcDbLine
 10
78.34644610650236
 20
22.79642742238187
 30
0.0
 11
78.34644610650236
 21
55.54161352530638
 31
0.0
  0
LINE
  5
832
330
70
100
AcDbEntity
  8
Livello 1
100
AcDbLine
 10
78.34644610650236
 20
38.20939436297278
 30
0.0
 11
78.34644610650236
 21
38.23941575185428
 31
0.0
  0
LINE
  5
833
330
70
100
AcDbEntity
  8
Livello 1
100
AcDbLine
 10
78.34644610650236
 20
38.23941575185428
 30
0.0
 11
78.34644610650236
 21
38.26943714073578
 31
0.0
  0
LINE
  5
834
330
70
100
AcDbEntity
  8
Livello 1
100
AcDbLine
 10
78.34644610650236
 20
38.26943714073578
 30
0.0
 11
78.34644610650236
 21
38.29938797406159
 31
0.0
  0
LINE
  5
835
330
70
100
AcDbEntity
  8
Livello 1
100
AcDbLine
 10
78.34644610650236
 20
43.72694463937128
 30
0.0
 11
77.53682112715757
 21
43.72694463937128
 31
0.0
  0
LINE
  5
836
330
70
100
AcDbEntity
  8
Livello 1
100
AcDbLine
 10
80.59543966023687
 20
22.94632270012158
 30
0.0
 11
80.59543966023687
 21
55.39168296978847
 31
0.0
  0
LINE
  5
837
330
70
100
AcDbEntity
  8
Livello 1
100
AcDbLine
 10
81.49509585416216
 20
54.46218408113178
 30
0.0
 11
81.49509585416216
 21
23.84590603323039
 31
0.0
  0
LINE
  5
838
330
70
100
AcDbEntity
  8
Livello 1
100
AcDbLine
 10
72.67900069553537
 20
51.49348852631857
 30
0.0
 11
72.64904986296617
 21
51.49348852631857
 31
0.0
  0
LINE
  5
839
330
70
100
AcDbEntity
  8
Livello 1
100
AcDbLine
 10
73.51861178522621
 20
50.20401519330757
 30
0.0
 11
73.48859039710326
 21
50.20401519330757
 31
0.0
  0
LINE
  5
83A
330
70
100
AcDbEntity
  8
Livello 1
100
AcDbLine
 10
73.48859039710326
 20
50.20401519330757
 30
0.0
 11
73.45867484231092
 21
50.17406435998179
 31
0.0
  0
LINE
  5
83B
330
70
100
AcDbEntity
  8
Livello 1
100
AcDbLine
 10
73.45867484231092
 20
50.17406435998179
 30
0.0
 11
73.42865345418792
 21
50.17406435998179
 31
0.0
  0
LINE
  5
83C
330
70
100
AcDbEntity
  8
Livello 1
100
AcDbLine
 10
73.42865345418792
 20
50.17406435998179
 30
0.0
 11
73.39873789939557
 21
50.17406435998179
 31
0.0
  0
LINE
  5
83D
330
70
100
AcDbEntity
  8
Livello 1
100
AcDbLine
 10
73.39873789939557
 20
50.17406435998179
 30
0.0
 11
73.36871651127262
 21
50.14404297110027
 31
0.0
  0
LINE
  5
83E
330
70
100
AcDbEntity
  8
Livello 1
100
AcDbLine
 10
73.36871651127262
 20
50.14404297110027
 30
0.0
 11
73.33869512314961
 21
50.14404297110027
 31
0.0
  0
LINE
  5
83F
330
70
100
AcDbEntity
  8
Livello 1
100
AcDbLine
 10
73.33869512314961
 20
50.14404297110027
 30
0.0
 11
73.33869512314961
 21
50.11412741555227
 31
0.0
  0
LINE
  5
840
330
70
100
AcDbEntity
  8
Livello 1
100
AcDbLine
 10
73.33869512314961
 20
50.11412741555227
 30
0.0
 11
73.30874429058038
 21
50.11412741555227
 31
0.0
  0
LINE
  5
841
330
70
100
AcDbEntity
  8
Livello 1
100
AcDbLine
 10
73.30874429058038
 20
50.11412741555227
 30
0.0
 11
73.27875818023429
 21
50.08410602667088
 31
0.0
  0
LINE
  5
842
330
70
100
AcDbEntity
  8
Livello 1
100
AcDbLine
 10
73.27875818023429
 20
50.08410602667088
 30
0.0
 11
73.24880734766509
 21
50.05408463778936
 31
0.0
  0
LINE
  5
843
330
70
100
AcDbEntity
  8
Livello 1
100
AcDbLine
 10
73.24880734766509
 20
50.05408463778936
 30
0.0
 11
73.21878595954207
 21
50.05408463778936
 31
0.0
  0
LINE
  5
844
330
70
100
AcDbEntity
  8
Livello 1
100
AcDbLine
 10
73.21878595954207
 20
50.05408463778936
 30
0.0
 11
73.21878595954207
 21
50.02413380446357
 31
0.0
  0
LINE
  5
845
330
70
100
AcDbEntity
  8
Livello 1
100
AcDbLine
 10
73.21878595954207
 20
50.02413380446357
 30
0.0
 11
73.18876457141914
 21
49.99414769335996
 31
0.0
  0
LINE
  5
846
330
70
100
AcDbEntity
  8
Livello 1
100
AcDbLine
 10
73.18876457141914
 20
49.99414769335996
 30
0.0
 11
73.18876457141914
 21
49.96419686003417
 31
0.0
  0
LINE
  5
847
330
70
100
AcDbEntity
  8
Livello 1
100
AcDbLine
 10
73.18876457141914
 20
49.96419686003417
 30
0.0
 11
73.15884901662677
 21
49.96419686003417
 31
0.0
  0
LINE
  5
848
330
70
100
AcDbEntity
  8
Livello 1
100
AcDbLine
 10
73.15884901662677
 20
49.96419686003417
 30
0.0
 11
73.15884901662677
 21
49.93417547115278
 31
0.0
  0
LINE
  5
849
330
70
100
AcDbEntity
  8
Livello 1
100
AcDbLine
 10
73.15884901662677
 20
49.93417547115278
 30
0.0
 11
73.15884901662677
 21
49.90415408227128
 31
0.0
  0
LINE
  5
84A
330
70
100
AcDbEntity
  8
Livello 1
100
AcDbLine
 10
73.15884901662677
 20
49.90415408227128
 30
0.0
 11
73.15884901662677
 21
49.87423852672328
 31
0.0
  0
LINE
  5
84B
330
70
100
AcDbEntity
  8
Livello 1
100
AcDbLine
 10
73.15884901662677
 20
49.87423852672328
 30
0.0
 11
73.1288276285038
 21
49.87423852672328
 31
0.0
  0
LINE
  5
84C
330
70
100
AcDbEntity
  8
Livello 1
100
AcDbLine
 10
73.1288276285038
 20
49.87423852672328
 30
0.0
 11
73.1288276285038
 21
49.84421713784188
 31
0.0
  0
LINE
  5
84D
330
70
100
AcDbEntity
  8
Livello 1
100
AcDbLine
 10
73.1288276285038
 20
49.84421713784188
 30
0.0
 11
73.1288276285038
 21
49.81419574896039
 31
0.0
  0
LINE
  5
84E
330
70
100
AcDbEntity
  8
Livello 1
100
AcDbLine
 10
73.1288276285038
 20
49.81419574896039
 30
0.0
 11
73.1288276285038
 21
49.78428019341247
 31
0.0
  0
LINE
  5
84F
330
70
100
AcDbEntity
  8
Livello 1
100
AcDbLine
 10
73.1288276285038
 20
49.78428019341247
 30
0.0
 11
73.1288276285038
 21
49.75425880453096
 31
0.0
  0
LINE
  5
850
330
70
100
AcDbEntity
  8
Livello 1
100
AcDbLine
 10
78.10655722373358
 20
50.59390519321006
 30
0.0
 11
73.51861178522621
 21
50.20401519330757
 31
0.0
  0
LINE
  5
851
330
70
100
AcDbEntity
  8
Livello 1
100
AcDbLine
 10
78.34644610650236
 20
50.59390519321006
 30
0.0
 11
78.10655722373358
 21
50.59390519321006
 31
0.0
  0
LINE
  5
852
330
70
100
AcDbEntity
  8
Livello 1
100
AcDbLine
 10
72.67900069553537
 20
51.49348852631857
 30
0.0
 11
72.7389376384507
 21
51.52347463742216
 31
0.0
  0
LINE
  5
853
330
70
100
AcDbEntity
  8
Livello 1
100
AcDbLine
 10
72.7389376384507
 20
51.52347463742216
 30
0.0
 11
72.76895902657369
 21
51.52347463742216
 31
0.0
  0
LINE
  5
854
330
70
100
AcDbEntity
  8
Livello 1
100
AcDbLine
 10
72.76895902657369
 20
51.52347463742216
 30
0.0
 11
72.79898041469667
 21
51.52347463742216
 31
0.0
  0
LINE
  5
855
330
70
100
AcDbEntity
  8
Livello 1
100
AcDbLine
 10
72.79898041469667
 20
51.52347463742216
 30
0.0
 11
72.82889596948901
 21
51.55342547074797
 31
0.0
  0
LINE
  5
856
330
70
100
AcDbEntity
  8
Livello 1
100
AcDbLine
 10
72.82889596948901
 20
51.55342547074797
 30
0.0
 11
72.858917357612
 21
51.55342547074797
 31
0.0
  0
LINE
  5
857
330
70
100
AcDbEntity
  8
Livello 1
100
AcDbLine
 10
72.858917357612
 20
51.55342547074797
 30
0.0
 11
72.88893874573497
 21
51.55342547074797
 31
0.0
  0
LINE
  5
858
330
70
100
AcDbEntity
  8
Livello 1
100
AcDbLine
 10
72.88893874573497
 20
51.55342547074797
 30
0.0
 11
72.9188895783042
 21
51.55342547074797
 31
0.0
  0
LINE
  5
859
330
70
100
AcDbEntity
  8
Livello 1
100
AcDbLine
 10
72.9188895783042
 20
51.55342547074797
 30
0.0
 11
72.94891096642716
 21
51.55342547074797
 31
0.0
  0
LINE
  5
85A
330
70
100
AcDbEntity
  8
Livello 1
100
AcDbLine
 10
72.94891096642716
 20
51.55342547074797
 30
0.0
 11
72.97889707677329
 21
51.58344685962946
 31
0.0
  0
LINE
  5
85B
330
70
100
AcDbEntity
  8
Livello 1
100
AcDbLine
 10
72.97889707677329
 20
51.58344685962946
 30
0.0
 11
73.00884790934249
 21
51.58344685962946
 31
0.0
  0
LINE
  5
85C
330
70
100
AcDbEntity
  8
Livello 1
100
AcDbLine
 10
73.00884790934249
 20
51.58344685962946
 30
0.0
 11
73.0388692974655
 21
51.58344685962946
 31
0.0
  0
LINE
  5
85D
330
70
100
AcDbEntity
  8
Livello 1
100
AcDbLine
 10
73.0388692974655
 20
51.58344685962946
 30
0.0
 11
73.06885540781158
 21
51.58344685962946
 31
0.0
  0
LINE
  5
85E
330
70
100
AcDbEntity
  8
Livello 1
100
AcDbLine
 10
73.06885540781158
 20
51.58344685962946
 30
0.0
 11
73.1288276285038
 21
51.61343297073307
 31
0.0
  0
LINE
  5
85F
330
70
100
AcDbEntity
  8
Livello 1
100
AcDbLine
 10
73.1288276285038
 20
51.61343297073307
 30
0.0
 11
73.15884901662677
 21
51.61343297073307
 31
0.0
  0
LINE
  5
860
330
70
100
AcDbEntity
  8
Livello 1
100
AcDbLine
 10
73.15884901662677
 20
51.61343297073307
 30
0.0
 11
73.18876457141914
 21
51.61343297073307
 31
0.0
  0
LINE
  5
861
330
70
100
AcDbEntity
  8
Livello 1
100
AcDbLine
 10
73.18876457141914
 20
51.61343297073307
 30
0.0
 11
73.24880734766509
 21
51.61343297073307
 31
0.0
  0
LINE
  5
862
330
70
100
AcDbEntity
  8
Livello 1
100
AcDbLine
 10
73.24880734766509
 20
51.61343297073307
 30
0.0
 11
73.27875818023429
 21
51.61343297073307
 31
0.0
  0
LINE
  5
863
330
70
100
AcDbEntity
  8
Livello 1
100
AcDbLine
 10
73.27875818023429
 20
51.61343297073307
 30
0.0
 11
73.33869512314961
 21
51.64338380405887
 31
0.0
  0
LINE
  5
864
330
70
100
AcDbEntity
  8
Livello 1
100
AcDbLine
 10
73.33869512314961
 20
51.64338380405887
 30
0.0
 11
73.36871651127262
 21
51.64338380405887
 31
0.0
  0
LINE
  5
865
330
70
100
AcDbEntity
  8
Livello 1
100
AcDbLine
 10
73.36871651127262
 20
51.64338380405887
 30
0.0
 11
73.42865345418792
 21
51.64338380405887
 31
0.0
  0
LINE
  5
866
330
70
100
AcDbEntity
  8
Livello 1
100
AcDbLine
 10
73.42865345418792
 20
51.64338380405887
 30
0.0
 11
73.45867484231092
 21
51.64338380405887
 31
0.0
  0
LINE
  5
867
330
70
100
AcDbEntity
  8
Livello 1
100
AcDbLine
 10
73.45867484231092
 20
51.64338380405887
 30
0.0
 11
78.34644610650236
 21
52.00533380396828
 31
0.0
  0
LINE
  5
868
330
70
100
AcDbEntity
  8
Livello 1
100
AcDbLine
 10
78.34644610650236
 20
53.71253130354137
 30
0.0
 11
81.49509585416216
 21
53.71253130354137
 31
0.0
  0
LINE
  5
869
330
70
100
AcDbEntity
  8
Livello 1
100
AcDbLine
 10
81.49509585416216
 20
23.84590603323039
 30
0.0
 11
80.59543966023687
 21
22.94632270012158
 31
0.0
  0
LINE
  5
86A
330
70
100
AcDbEntity
  8
Livello 1
100
AcDbLine
 10
80.38557216559098
 20
55.48164130309936
 30
0.0
 11
78.34644610650236
 21
55.54161352530638
 31
0.0
  0
LINE
  5
86B
330
70
100
AcDbEntity
  8
Livello 1
100
AcDbLine
 10
81.49509585416216
 20
54.46218408113178
 30
0.0
 11
80.59543966023687
 21
55.39168296978847
 31
0.0
  0
LINE
  5
86C
330
70
100
AcDbEntity
  8
Livello 1
100
AcDbLine
 10
72.67900069553537
 20
2.015734927576772
 30
0.0
 11
76.45732115469797
 21
4.204685760363076
 31
0.0
  0
LINE
  5
86D
330
70
100
AcDbEntity
  8
Livello 1
100
AcDbLine
 10
72.67900069553537
 20
0.186652705812179
 30
0.0
 11
76.45732115469797
 21
2.375603538598454
 31
0.0
  0
LINE
  5
86E
330
70
100
AcDbEntity
  8
Livello 1
100
AcDbLine
 10
8.82915309455106
 20
55.62712685861828
 30
0.0
 11
8.439368927981753
 21
55.56708408085568
 31
0.0
  0
LINE
  5
86F
330
70
100
AcDbEntity
  8
Livello 1
100
AcDbLine
 10
8.439368927981753
 20
55.56708408085568
 30
0.0
 11
8.049549483634926
 21
55.44721019199688
 31
0.0
  0
LINE
  5
870
330
70
100
AcDbEntity
  8
Livello 1
100
AcDbLine
 10
8.049549483634926
 20
55.44721019199688
 30
0.0
 11
7.719702261495015
 21
55.23730741427147
 31
0.0
  0
LINE
  5
871
330
70
100
AcDbEntity
  8
Livello 1
100
AcDbLine
 10
7.719702261495015
 20
55.23730741427147
 30
0.0
 11
7.419805872681223
 21
54.93741102545738
 31
0.0
  0
LINE
  5
872
330
70
100
AcDbEntity
  8
Livello 1
100
AcDbLine
 10
7.419805872681223
 20
54.93741102545738
 30
0.0
 11
7.209938372733674
 21
54.60756380331777
 31
0.0
  0
LINE
  5
873
330
70
100
AcDbEntity
  8
Livello 1
100
AcDbLine
 10
7.209938372733674
 20
54.60756380331777
 30
0.0
 11
7.089958650541319
 21
54.21774435897066
 31
0.0
  0
LINE
  5
874
330
70
100
AcDbEntity
  8
Livello 1
100
AcDbLine
 10
7.089958650541319
 20
54.21774435897066
 30
0.0
 11
7.030021706111909
 21
53.82796019240167
 31
0.0
  0
LINE
  5
875
330
70
100
AcDbEntity
  8
Livello 1
100
AcDbLine
 10
45.80259110343193
 20
22.91185631124179
 30
0.0
 11
46.19237526015439
 21
22.97182853344907
 31
0.0
  0
LINE
  5
876
330
70
100
AcDbEntity
  8
Livello 1
100
AcDbLine
 10
46.19237526015439
 20
22.97182853344907
 30
0.0
 11
46.58219469465372
 21
23.09173770008607
 31
0.0
  0
LINE
  5
877
330
70
100
AcDbEntity
  8
Livello 1
100
AcDbLine
 10
46.58219469465372
 20
23.09173770008607
 30
0.0
 11
46.91204190846081
 21
23.30167575558866
 31
0.0
  0
LINE
  5
878
330
70
100
AcDbEntity
  8
Livello 1
100
AcDbLine
 10
46.91204190846081
 20
23.30167575558866
 30
0.0
 11
47.21193828969873
 21
23.60150158884739
 31
0.0
  0
LINE
  5
879
330
70
100
AcDbEntity
  8
Livello 1
100
AcDbLine
 10
47.21193828969873
 20
23.60150158884739
 30
0.0
 11
47.42180578434456
 21
23.93134881098695
 31
0.0
  0
LINE
  5
87A
330
70
100
AcDbEntity
  8
Livello 1
100
AcDbLine
 10
47.42180578434456
 20
23.93134881098695
 30
0.0
 11
47.54178550350583
 21
24.32123881088947
 31
0.0
  0
LINE
  5
87B
330
70
100
AcDbEntity
  8
Livello 1
100
AcDbLine
 10
47.54178550350583
 20
24.32123881088947
 30
0.0
 11
47.60175772419802
 21
24.71102297745819
 31
0.0
  0
LINE
  5
87C
330
70
100
AcDbEntity
  8
Livello 1
100
AcDbLine
 10
7.030021706111909
 20
24.71102297745819
 30
0.0
 11
7.089958650541319
 21
24.32123881088947
 31
0.0
  0
LINE
  5
87D
330
70
100
AcDbEntity
  8
Livello 1
100
AcDbLine
 10
7.089958650541319
 20
24.32123881088947
 30
0.0
 11
7.209938372733674
 21
23.93134881098695
 31
0.0
  0
LINE
  5
87E
330
70
100
AcDbEntity
  8
Livello 1
100
AcDbLine
 10
7.209938372733674
 20
23.93134881098695
 30
0.0
 11
7.419805872681223
 21
23.60150158884739
 31
0.0
  0
LINE
  5
87F
330
70
100
AcDbEntity
  8
Livello 1
100
AcDbLine
 10
7.419805872681223
 20
23.60150158884739
 30
0.0
 11
7.719702261495015
 21
23.30167575558866
 31
0.0
  0
LINE
  5
880
330
70
100
AcDbEntity
  8
Livello 1
100
AcDbLine
 10
7.719702261495015
 20
23.30167575558866
 30
0.0
 11
8.049549483634926
 21
23.09173770008607
 31
0.0
  0
LINE
  5
881
330
70
100
AcDbEntity
  8
Livello 1
100
AcDbLine
 10
8.049549483634926
 20
23.09173770008607
 30
0.0
 11
8.439368927981753
 21
22.97182853344907
 31
0.0
  0
LINE
  5
882
330
70
100
AcDbEntity
  8
Livello 1
100
AcDbLine
 10
8.439368927981753
 20
22.97182853344907
 30
0.0
 11
8.82915309455106
 21
22.91185631124179
 31
0.0
  0
LINE
  5
883
330
70
100
AcDbEntity
  8
Livello 1
100
AcDbLine
 10
47.54178550350583
 20
53.82796019240167
 30
0.0
 11
47.51179939315973
 21
54.21774435897066
 31
0.0
  0
LINE
  5
884
330
70
100
AcDbEntity
  8
Livello 1
100
AcDbLine
 10
47.51179939315973
 20
54.21774435897066
 30
0.0
 11
47.36186884142923
 21
54.57764824776987
 31
0.0
  0
LINE
  5
885
330
70
100
AcDbEntity
  8
Livello 1
100
AcDbLine
 10
47.36186884142923
 20
54.57764824776987
 30
0.0
 11
47.15189551345275
 21
54.90738963657617
 31
0.0
  0
LINE
  5
886
330
70
100
AcDbEntity
  8
Livello 1
100
AcDbLine
 10
47.15189551345275
 20
54.90738963657617
 30
0.0
 11
46.88209107589161
 21
55.17729991428637
 31
0.0
  0
LINE
  5
887
330
70
100
AcDbEntity
  8
Livello 1
100
AcDbLine
 10
46.88209107589161
 20
55.17729991428637
 30
0.0
 11
46.55224386208447
 21
55.38723796978958
 31
0.0
  0
LINE
  5
888
330
70
100
AcDbEntity
  8
Livello 1
100
AcDbLine
 10
46.55224386208447
 20
55.38723796978958
 30
0.0
 11
46.19237526015439
 21
55.53716852530746
 31
0.0
  0
LINE
  5
889
330
70
100
AcDbEntity
  8
Livello 1
100
AcDbLine
 10
46.19237526015439
 20
55.53716852530746
 30
0.0
 11
45.80259110343193
 21
55.56708408085568
 31
0.0
  0
LINE
  5
88A
330
70
100
AcDbEntity
  8
Livello 1
100
AcDbLine
 10
55.22687280744293
 20
34.25122769729558
 30
0.0
 11
54.92697642620503
 21
34.19129075286618
 31
0.0
  0
LINE
  5
88B
330
70
100
AcDbEntity
  8
Livello 1
100
AcDbLine
 10
54.92697642620503
 20
34.19129075286618
 30
0.0
 11
54.68708754343622
 21
34.07131103067417
 31
0.0
  0
LINE
  5
88C
330
70
100
AcDbEntity
  8
Livello 1
100
AcDbLine
 10
54.68708754343622
 20
34.07131103067417
 30
0.0
 11
54.47722004879039
 21
33.86140825294878
 31
0.0
  0
LINE
  5
88D
330
70
100
AcDbEntity
  8
Livello 1
100
AcDbLine
 10
54.47722004879039
 20
33.86140825294878
 30
0.0
 11
54.35724032962912
 21
33.62155464189758
 31
0.0
  0
LINE
  5
88E
330
70
100
AcDbEntity
  8
Livello 1
100
AcDbLine
 10
54.35724032962912
 20
33.62155464189758
 30
0.0
 11
54.29730338671378
 21
33.32162297530596
 31
0.0
  0
LINE
  5
88F
330
70
100
AcDbEntity
  8
Livello 1
100
AcDbLine
 10
54.29730338671378
 20
29.24347658743636
 30
0.0
 11
54.35724032962912
 21
28.94365075417827
 31
0.0
  0
LINE
  5
890
330
70
100
AcDbEntity
  8
Livello 1
100
AcDbLine
 10
54.35724032962912
 20
28.94365075417827
 30
0.0
 11
54.47722004879039
 21
28.70376186534926
 31
0.0
  0
LINE
  5
891
330
70
100
AcDbEntity
  8
Livello 1
100
AcDbLine
 10
54.47722004879039
 20
28.70376186534926
 30
0.0
 11
54.68708754343622
 21
28.49378853206847
 31
0.0
  0
LINE
  5
892
330
70
100
AcDbEntity
  8
Livello 1
100
AcDbLine
 10
54.68708754343622
 20
28.49378853206847
 30
0.0
 11
54.92697642620503
 21
28.37391464320939
 31
0.0
  0
LINE
  5
893
330
70
100
AcDbEntity
  8
Livello 1
100
AcDbLine
 10
54.92697642620503
 20
28.37391464320939
 30
0.0
 11
55.22687280744293
 21
28.31387186544677
 31
0.0
  0
LINE
  5
894
330
70
100
AcDbEntity
  8
Livello 1
100
AcDbLine
 10
60.29459601148786
 20
28.13402575438067
 30
0.0
 11
60.32461739961084
 21
27.98402464330687
 31
0.0
  0
LINE
  5
895
330
70
100
AcDbEntity
  8
Livello 1
100
AcDbLine
 10
60.32461739961084
 20
27.98402464330687
 30
0.0
 11
60.44449308164725
 21
27.86411547667018
 31
0.0
  0
LINE
  5
896
330
70
100
AcDbEntity
  8
Livello 1
100
AcDbLine
 10
60.44449308164725
 20
27.86411547667018
 30
0.0
 11
60.59442363716508
 21
27.83409408778908
 31
0.0
  0
LINE
  5
897
330
70
100
AcDbEntity
  8
Livello 1
100
AcDbLine
 10
60.59442363716508
 20
34.73097019717577
 30
0.0
 11
60.44449308164725
 21
34.70105464162787
 31
0.0
  0
LINE
  5
898
330
70
100
AcDbEntity
  8
Livello 1
100
AcDbLine
 10
60.44449308164725
 20
34.70105464162787
 30
0.0
 11
60.32461739961084
 21
34.58107491943547
 31
0.0
  0
LINE
  5
899
330
70
100
AcDbEntity
  8
Livello 1
100
AcDbLine
 10
60.32461739961084
 20
34.58107491943547
 30
0.0
 11
60.29459601148786
 21
34.43114436391737
 31
0.0
  0
LINE
  5
89A
330
70
100
AcDbEntity
  8
Livello 1
100
AcDbLine
 10
67.22149333476799
 20
27.83409408778908
 30
0.0
 11
67.34136722059865
 21
27.86411547667018
 31
0.0
  0
LINE
  5
89B
330
70
100
AcDbEntity
  8
Livello 1
100
AcDbLine
 10
67.34136722059865
 20
27.86411547667018
 30
0.0
 11
67.37138860872163
 21
27.98402464330687
 31
0.0
  0
LINE
  5
89C
330
70
100
AcDbEntity
  8
Livello 1
100
AcDbLine
 10
67.37138860872163
 20
34.58107491943547
 30
0.0
 11
67.34136722059865
 21
34.70105464162787
 31
0.0
  0
LINE
  5
89D
330
70
100
AcDbEntity
  8
Livello 1
100
AcDbLine
 10
67.34136722059865
 20
34.70105464162787
 30
0.0
 11
67.22149333476799
 21
34.73097019717577
 31
0.0
  0
LINE
  5
89E
330
70
100
AcDbEntity
  8
Livello 1
100
AcDbLine
 10
76.45732115469797
 20
36.32026936344528
 30
0.0
 11
76.42729976657498
 21
36.71015936334779
 31
0.0
  0
LINE
  5
89F
330
70
100
AcDbEntity
  8
Livello 1
100
AcDbLine
 10
76.42729976657498
 20
36.71015936334779
 30
0.0
 11
76.30739060296737
 21
37.09997880769457
 31
0.0
  0
LINE
  5
8A0
330
70
100
AcDbEntity
  8
Livello 1
100
AcDbLine
 10
76.30739060296737
 20
37.09997880769457
 30
0.0
 11
76.09745255276786
 21
37.42979075205667
 31
0.0
  0
LINE
  5
8A1
330
70
100
AcDbEntity
  8
Livello 1
100
AcDbLine
 10
76.09745255276786
 20
37.42979075205667
 30
0.0
 11
75.82757755965288
 21
37.72961658531507
 31
0.0
  0
LINE
  5
8A2
330
70
100
AcDbEntity
  8
Livello 1
100
AcDbLine
 10
75.82757755965288
 20
37.72961658531507
 30
0.0
 11
75.52775173396877
 21
37.96961130747728
 31
0.0
  0
LINE
  5
8A3
330
70
100
AcDbEntity
  8
Livello 1
100
AcDbLine
 10
75.52775173396877
 20
37.96961130747728
 30
0.0
 11
75.13793229946948
 21
38.11950658521758
 31
0.0
  0
LINE
  5
8A4
330
70
100
AcDbEntity
  8
Livello 1
100
AcDbLine
 10
75.13793229946948
 20
38.11950658521758
 30
0.0
 11
74.77806369753936
 21
38.20939436297278
 31
0.0
  0
LINE
  5
8A5
330
70
100
AcDbEntity
  8
Livello 1
100
AcDbLine
 10
74.77806369753936
 20
38.20939436297278
 30
0.0
 11
74.35825815269398
 21
38.20939436297278
 31
0.0
  0
LINE
  5
8A6
330
70
100
AcDbEntity
  8
Livello 1
100
AcDbLine
 10
74.35825815269398
 20
38.20939436297278
 30
0.0
 11
73.99846010631764
 21
38.11950658521758
 31
0.0
  0
LINE
  5
8A7
330
70
100
AcDbEntity
  8
Livello 1
100
AcDbLine
 10
73.99846010631764
 20
38.11950658521758
 30
0.0
 11
73.60857011626453
 21
37.96961130747728
 31
0.0
  0
LINE
  5
8A8
330
70
100
AcDbEntity
  8
Livello 1
100
AcDbLine
 10
73.60857011626453
 20
37.96961130747728
 30
0.0
 11
73.30874429058038
 21
37.72961658531507
 31
0.0
  0
LINE
  5
8A9
330
70
100
AcDbEntity
  8
Livello 1
100
AcDbLine
 10
73.30874429058038
 20
37.72961658531507
 30
0.0
 11
73.0388692974655
 21
37.42979075205667
 31
0.0
  0
LINE
  5
8AA
330
70
100
AcDbEntity
  8
Livello 1
100
AcDbLine
 10
73.0388692974655
 20
37.42979075205667
 30
0.0
 11
72.82889596948901
 21
37.09997880769457
 31
0.0
  0
LINE
  5
8AB
330
70
100
AcDbEntity
  8
Livello 1
100
AcDbLine
 10
72.82889596948901
 20
37.09997880769457
 30
0.0
 11
72.7089868058815
 21
36.71015936334779
 31
0.0
  0
LINE
  5
8AC
330
70
100
AcDbEntity
  8
Livello 1
100
AcDbLine
 10
72.7089868058815
 20
36.71015936334779
 30
0.0
 11
72.67900069553537
 21
36.32026936344528
 31
0.0
  0
LINE
  5
8AD
330
70
100
AcDbEntity
  8
Livello 1
100
AcDbLine
 10
80.38557216559098
 20
22.85636436681096
 30
0.0
 11
80.59543966023687
 21
22.94632270012158
 31
0.0
  0
LINE
  5
8AE
330
70
100
AcDbEntity
  8
Livello 1
100
AcDbLine
 10
78.34644610650236
 20
26.00494131046839
 30
0.0
 11
78.28650916358697
 21
26.15487186598688
 31
0.0
  0
LINE
  5
8AF
330
70
100
AcDbEntity
  8
Livello 1
100
AcDbLine
 10
78.28650916358697
 20
26.15487186598688
 30
0.0
 11
78.13657861185648
 21
26.24483019929738
 31
0.0
  0
LINE
  5
8B0
330
70
100
AcDbEntity
  8
Livello 1
100
AcDbLine
 10
80.59543966023687
 20
55.36176741424029
 30
0.0
 11
80.38557216559098
 21
55.45165519199577
 31
0.0
  0
LINE
  5
8B1
330
70
100
AcDbEntity
  8
Livello 1
100
AcDbLine
 10
9.368938372193881
 20
2.131199094214878
 30
0.0
 11
9.398959761075033
 21
1.831373260956183
 31
0.0
  0
LINE
  5
8B2
330
70
100
AcDbEntity
  8
Livello 1
100
AcDbLine
 10
9.398959761075033
 20
1.831373260956183
 30
0.0
 11
9.458896705504763
 21
1.501420205482787
 31
0.0
  0
LINE
  5
8B3
330
70
100
AcDbEntity
  8
Livello 1
100
AcDbLine
 10
9.458896705504763
 20
1.501420205482787
 30
0.0
 11
9.57884114991895
 21
1.231509927773487
 31
0.0
  0
LINE
  5
8B4
330
70
100
AcDbEntity
  8
Livello 1
100
AcDbLine
 10
9.57884114991895
 20
1.231509927773487
 30
0.0
 11
9.72880698321493
 21
0.9617760389512852
 31
0.0
  0
LINE
  5
8B5
330
70
100
AcDbEntity
  8
Livello 1
100
AcDbLine
 10
9.72880698321493
 20
0.9617760389512852
 30
0.0
 11
9.908758927614542
 21
0.7517674278923892
 31
0.0
  0
LINE
  5
8B6
330
70
100
AcDbEntity
  8
Livello 1
100
AcDbLine
 10
9.908758927614542
 20
0.7517674278923892
 30
0.0
 11
10.14864781644324
 21
0.5718154834930545
 31
0.0
  0
LINE
  5
8B7
330
70
100
AcDbEntity
  8
Livello 1
100
AcDbLine
 10
10.14864781644324
 20
0.5718154834930545
 30
0.0
 11
10.38850142749442
 21
0.4219907613084502
 31
0.0
  0
LINE
  5
8B8
330
70
100
AcDbEntity
  8
Livello 1
100
AcDbLine
 10
10.38850142749442
 20
0.4219907613084502
 30
0.0
 11
10.6584117052049
 21
0.3320324279985698
 31
0.0
  0
LINE
  5
8B9
330
70
100
AcDbEntity
  8
Livello 1
100
AcDbLine
 10
10.6584117052049
 20
0.3320324279985698
 30
0.0
 11
10.92825142735938
 21
0.3020815946720745
 31
0.0
  0
LINE
  5
8BA
330
70
100
AcDbEntity
  8
Livello 1
100
AcDbLine
 10
43.70352810142795
 20
0.3020815946720745
 30
0.0
 11
43.97340309454285
 21
0.3320324279985698
 31
0.0
  0
LINE
  5
8BB
330
70
100
AcDbEntity
  8
Livello 1
100
AcDbLine
 10
43.97340309454285
 20
0.3320324279985698
 30
0.0
 11
44.24320753210402
 21
0.4219907613084502
 31
0.0
  0
LINE
  5
8BC
330
70
100
AcDbEntity
  8
Livello 1
100
AcDbLine
 10
44.24320753210402
 20
0.4219907613084502
 30
0.0
 11
44.48309641487283
 21
0.5718154834930545
 31
0.0
  0
LINE
  5
8BD
330
70
100
AcDbEntity
  8
Livello 1
100
AcDbLine
 10
44.48309641487283
 20
0.5718154834930545
 30
0.0
 11
44.6930697428493
 21
0.7517674278923892
 31
0.0
  0
LINE
  5
8BE
330
70
100
AcDbEntity
  8
Livello 1
100
AcDbLine
 10
44.6930697428493
 20
0.7517674278923892
 30
0.0
 11
44.90293723749513
 21
0.9617760389512852
 31
0.0
  0
LINE
  5
8BF
330
70
100
AcDbEntity
  8
Livello 1
100
AcDbLine
 10
44.90293723749513
 20
0.9617760389512852
 30
0.0
 11
45.05293834477939
 21
1.231509927773487
 31
0.0
  0
LINE
  5
8C0
330
70
100
AcDbEntity
  8
Livello 1
100
AcDbLine
 10
45.05293834477939
 20
1.231509927773487
 30
0.0
 11
45.17281223061004
 21
1.501420205482787
 31
0.0
  0
LINE
  5
8C1
330
70
100
AcDbEntity
  8
Livello 1
100
AcDbLine
 10
45.17281223061004
 20
1.501420205482787
 30
0.0
 11
45.23278445130225
 21
1.831373260956183
 31
0.0
  0
LINE
  5
8C2
330
70
100
AcDbEntity
  8
Livello 1
100
AcDbLine
 10
45.23278445130225
 20
1.831373260956183
 30
0.0
 11
45.26280583942522
 21
2.131199094214878
 31
0.0
  0
LINE
  5
8C3
330
70
100
AcDbEntity
  8
Livello 1
100
AcDbLine
 10
9.668799483229832
 20
4.320149927001182
 30
0.0
 11
9.698820872111298
 21
4.050416038178951
 31
0.0
  0
LINE
  5
8C4
330
70
100
AcDbEntity
  8
Livello 1
100
AcDbLine
 10
9.698820872111298
 20
4.050416038178951
 30
0.0
 11
9.758757816540715
 21
3.8104213160168
 31
0.0
  0
LINE
  5
8C5
330
70
100
AcDbEntity
  8
Livello 1
100
AcDbLine
 10
9.758757816540715
 20
3.8104213160168
 30
0.0
 11
9.848716149851604
 21
3.600589093847361
 31
0.0
  0
LINE
  5
8C6
330
70
100
AcDbEntity
  8
Livello 1
100
AcDbLine
 10
9.848716149851604
 20
3.600589093847361
 30
0.0
 11
9.968695872043952
 21
3.390545205011562
 31
0.0
  0
LINE
  5
8C7
330
70
100
AcDbEntity
  8
Livello 1
100
AcDbLine
 10
9.968695872043952
 20
3.390545205011562
 30
0.0
 11
10.11862642756208
 21
3.210769649500463
 31
0.0
  0
LINE
  5
8C8
330
70
100
AcDbEntity
  8
Livello 1
100
AcDbLine
 10
10.11862642756208
 20
3.210769649500463
 30
0.0
 11
10.29854309418353
 21
3.060768538426373
 31
0.0
  0
LINE
  5
8C9
330
70
100
AcDbEntity
  8
Livello 1
100
AcDbLine
 10
10.29854309418353
 20
3.060768538426373
 30
0.0
 11
10.50841059413108
 21
2.940859371790054
 31
0.0
  0
LINE
  5
8CA
330
70
100
AcDbEntity
  8
Livello 1
100
AcDbLine
 10
10.50841059413108
 20
2.940859371790054
 30
0.0
 11
10.71834864963431
 21
2.880851871805276
 31
0.0
  0
LINE
  5
8CB
330
70
100
AcDbEntity
  8
Livello 1
100
AcDbLine
 10
10.71834864963431
 20
2.880851871805276
 30
0.0
 11
10.92825142735938
 21
2.850901038478866
 31
0.0
  0
LINE
  5
8CC
330
70
100
AcDbEntity
  8
Livello 1
100
AcDbLine
 10
43.70352810142795
 20
2.850901038478866
 30
0.0
 11
43.91339559607378
 21
2.880851871805276
 31
0.0
  0
LINE
  5
8CD
330
70
100
AcDbEntity
  8
Livello 1
100
AcDbLine
 10
43.91339559607378
 20
2.880851871805276
 30
0.0
 11
44.12333364627336
 21
2.940859371790054
 31
0.0
  0
LINE
  5
8CE
330
70
100
AcDbEntity
  8
Livello 1
100
AcDbLine
 10
44.12333364627336
 20
2.940859371790054
 30
0.0
 11
44.3332011409192
 21
3.060768538426373
 31
0.0
  0
LINE
  5
8CF
330
70
100
AcDbEntity
  8
Livello 1
100
AcDbLine
 10
44.3332011409192
 20
3.060768538426373
 30
0.0
 11
44.5131178029958
 21
3.210769649500463
 31
0.0
  0
LINE
  5
8D0
330
70
100
AcDbEntity
  8
Livello 1
100
AcDbLine
 10
44.5131178029958
 20
3.210769649500463
 30
0.0
 11
44.66304835472631
 21
3.390545205011562
 31
0.0
  0
LINE
  5
8D1
330
70
100
AcDbEntity
  8
Livello 1
100
AcDbLine
 10
44.66304835472631
 20
3.390545205011562
 30
0.0
 11
44.7830280738876
 21
3.600589093847361
 31
0.0
  0
LINE
  5
8D2
330
70
100
AcDbEntity
  8
Livello 1
100
AcDbLine
 10
44.7830280738876
 20
3.600589093847361
 30
0.0
 11
44.87298640492591
 21
3.8104213160168
 31
0.0
  0
LINE
  5
8D3
330
70
100
AcDbEntity
  8
Livello 1
100
AcDbLine
 10
44.87298640492591
 20
3.8104213160168
 30
0.0
 11
44.93295862561811
 21
4.050416038178951
 31
0.0
  0
LINE
  5
8D4
330
70
100
AcDbEntity
  8
Livello 1
100
AcDbLine
 10
44.93295862561811
 20
4.050416038178951
 30
0.0
 11
44.9629800137411
 21
4.320149927001182
 31
0.0
  0
LINE
  5
8D5
330
70
100
AcDbEntity
  8
Livello 1
100
AcDbLine
 10
43.70352810142795
 20
2.491032427458463
 30
0.0
 11
43.97340309454285
 21
2.520983260783566
 31
0.0
  0
LINE
  5
8D6
330
70
100
AcDbEntity
  8
Livello 1
100
AcDbLine
 10
43.97340309454285
 20
2.520983260783566
 30
0.0
 11
44.24320753210402
 21
2.610941594094782
 31
0.0
  0
LINE
  5
8D7
330
70
100
AcDbEntity
  8
Livello 1
100
AcDbLine
 10
44.24320753210402
 20
2.610941594094782
 30
0.0
 11
44.48309641487283
 21
2.730850760731073
 31
0.0
  0
LINE
  5
8D8
330
70
100
AcDbEntity
  8
Livello 1
100
AcDbLine
 10
44.48309641487283
 20
2.730850760731073
 30
0.0
 11
44.6930697428493
 21
2.910767427353448
 31
0.0
  0
LINE
  5
8D9
330
70
100
AcDbEntity
  8
Livello 1
100
AcDbLine
 10
44.6930697428493
 20
2.910767427353448
 30
0.0
 11
44.90293723749513
 21
3.15076214951577
 31
0.0
  0
LINE
  5
8DA
330
70
100
AcDbEntity
  8
Livello 1
100
AcDbLine
 10
44.90293723749513
 20
3.15076214951577
 30
0.0
 11
45.05293834477939
 21
3.420637149448054
 31
0.0
  0
LINE
  5
8DB
330
70
100
AcDbEntity
  8
Livello 1
100
AcDbLine
 10
45.05293834477939
 20
3.420637149448054
 30
0.0
 11
45.17281223061004
 21
3.690547427158577
 31
0.0
  0
LINE
  5
8DC
330
70
100
AcDbEntity
  8
Livello 1
100
AcDbLine
 10
45.17281223061004
 20
3.690547427158577
 30
0.0
 11
45.23278445130225
 21
3.990373260416077
 31
0.0
  0
LINE
  5
8DD
330
70
100
AcDbEntity
  8
Livello 1
100
AcDbLine
 10
45.23278445130225
 20
3.990373260416077
 30
0.0
 11
45.26280583942522
 21
4.320149927001182
 31
0.0
  0
LINE
  5
8DE
330
70
100
AcDbEntity
  8
Livello 1
100
AcDbLine
 10
9.368938372193881
 20
4.320149927001182
 30
0.0
 11
9.398959761075033
 21
3.990373260416077
 31
0.0
  0
LINE
  5
8DF
330
70
100
AcDbEntity
  8
Livello 1
100
AcDbLine
 10
9.398959761075033
 20
3.990373260416077
 30
0.0
 11
9.458896705504763
 21
3.690547427158577
 31
0.0
  0
LINE
  5
8E0
330
70
100
AcDbEntity
  8
Livello 1
100
AcDbLine
 10
9.458896705504763
 20
3.690547427158577
 30
0.0
 11
9.57884114991895
 21
3.420637149448054
 31
0.0
  0
LINE
  5
8E1
330
70
100
AcDbEntity
  8
Livello 1
100
AcDbLine
 10
9.57884114991895
 20
3.420637149448054
 30
0.0
 11
9.72880698321493
 21
3.15076214951577
 31
0.0
  0
LINE
  5
8E2
330
70
100
AcDbEntity
  8
Livello 1
100
AcDbLine
 10
9.72880698321493
 20
3.15076214951577
 30
0.0
 11
9.908758927614542
 21
2.910767427353448
 31
0.0
  0
LINE
  5
8E3
330
70
100
AcDbEntity
  8
Livello 1
100
AcDbLine
 10
9.908758927614542
 20
2.910767427353448
 30
0.0
 11
10.14864781644324
 21
2.730850760731073
 31
0.0
  0
LINE
  5
8E4
330
70
100
AcDbEntity
  8
Livello 1
100
AcDbLine
 10
10.14864781644324
 20
2.730850760731073
 30
0.0
 11
10.38850142749442
 21
2.610941594094782
 31
0.0
  0
LINE
  5
8E5
330
70
100
AcDbEntity
  8
Livello 1
100
AcDbLine
 10
10.38850142749442
 20
2.610941594094782
 30
0.0
 11
10.6584117052049
 21
2.520983260783566
 31
0.0
  0
LINE
  5
8E6
330
70
100
AcDbEntity
  8
Livello 1
100
AcDbLine
 10
10.6584117052049
 20
2.520983260783566
 30
0.0
 11
10.92825142735938
 21
2.491032427458463
 31
0.0
  0
LINE
  5
8E7
330
70
100
AcDbEntity
  8
Livello 1
100
AcDbLine
 10
55.22687280744293
 20
27.95410908775887
 30
0.0
 11
58.85522919315566
 21
27.95410908775887
 31
0.0
  0
LINE
  5
8E8
330
70
100
AcDbEntity
  8
Livello 1
100
AcDbLine
 10
58.85522919315566
 20
27.95410908775887
 30
0.0
 11
58.85522919315566
 21
34.76099158605729
 31
0.0
  0
LINE
  5
8E9
330
70
100
AcDbEntity
  8
Livello 1
100
AcDbLine
 10
58.85522919315566
 20
34.76099158605729
 30
0.0
 11
55.22687280744293
 21
34.76099158605729
 31
0.0
  0
LINE
  5
8EA
330
70
100
AcDbEntity
  8
Livello 1
100
AcDbLine
 10
55.22687280744293
 20
34.76099158605729
 30
0.0
 11
55.22687280744293
 21
27.95410908775887
 31
0.0
  0
LINE
  5
8EB
330
70
100
AcDbEntity
  8
Livello 1
100
AcDbLine
 10
58.88524882522109
 20
28.91362936529677
 30
0.0
 11
60.2496168459687
 21
28.91362936529677
 31
0.0
  0
LINE
  5
8EC
330
70
100
AcDbEntity
  8
Livello 1
100
AcDbLine
 10
60.2496168459687
 20
28.91362936529677
 30
0.0
 11
60.2496168459687
 21
33.68149158632696
 31
0.0
  0
LINE
  5
8ED
330
70
100
AcDbEntity
  8
Livello 1
100
AcDbLine
 10
60.2496168459687
 20
33.68149158632696
 30
0.0
 11
58.88524882522109
 21
33.68149158632696
 31
0.0
  0
LINE
  5
8EE
330
70
100
AcDbEntity
  8
Livello 1
100
AcDbLine
 10
58.88524882522109
 20
33.68149158632696
 30
0.0
 11
58.88524882522109
 21
28.91362936529677
 31
0.0
  0
LINE
  5
8EF
330
70
100
AcDbEntity
  8
Livello 1
100
AcDbLine
 10
17.3125767035412
 20
14.88912520213597
 30
0.0
 11
17.3125767035412
 21
21.00255242282998
 31
0.0
  0
LINE
  5
8F0
330
70
100
AcDbEntity
  8
Livello 1
100
AcDbLine
 10
17.33533087020233
 20
14.88912520213597
 30
0.0
 11
17.35808503686311
 21
14.61642797998218
 31
0.0
  0
LINE
  5
8F1
330
70
100
AcDbEntity
  8
Livello 1
100
AcDbLine
 10
17.35808503686311
 20
14.61642797998218
 30
0.0
 11
17.44896059239594
 21
14.36648492448947
 31
0.0
  0
LINE
  5
8F2
330
70
100
AcDbEntity
  8
Livello 1
100
AcDbLine
 10
17.44896059239594
 20
14.36648492448947
 30
0.0
 11
17.58530920347314
 21
14.11643603566298
 31
0.0
  0
LINE
  5
8F3
330
70
100
AcDbEntity
  8
Livello 1
100
AcDbLine
 10
17.58530920347314
 20
14.11643603566298
 30
0.0
 11
17.76713087009411
 21
13.91189548015879
 31
0.0
  0
LINE
  5
8F4
330
70
100
AcDbEntity
  8
Livello 1
100
AcDbLine
 10
17.76713087009411
 20
13.91189548015879
 30
0.0
 11
17.97167142559869
 21
13.75282798019796
 31
0.0
  0
LINE
  5
8F5
330
70
100
AcDbEntity
  8
Livello 1
100
AcDbLine
 10
17.97167142559869
 20
13.75282798019796
 30
0.0
 11
18.22168503664734
 21
13.63912770244869
 31
0.0
  0
LINE
  5
8F6
330
70
100
AcDbEntity
  8
Livello 1
100
AcDbLine
 10
18.22168503664734
 20
13.63912770244869
 30
0.0
 11
18.49441753657896
 21
13.57107686913235
 31
0.0
  0
LINE
  5
8F7
330
70
100
AcDbEntity
  8
Livello 1
100
AcDbLine
 10
18.49441753657896
 20
22.32074186694496
 30
0.0
 11
18.22168503664734
 21
22.25254992251729
 31
0.0
  0
LINE
  5
8F8
330
70
100
AcDbEntity
  8
Livello 1
100
AcDbLine
 10
18.22168503664734
 20
22.25254992251729
 30
0.0
 11
17.97167142559869
 21
22.13884964476796
 31
0.0
  0
LINE
  5
8F9
330
70
100
AcDbEntity
  8
Livello 1
100
AcDbLine
 10
17.97167142559869
 20
22.13884964476796
 30
0.0
 11
17.76713087009411
 21
21.97981742258597
 31
0.0
  0
LINE
  5
8FA
330
70
100
AcDbEntity
  8
Livello 1
100
AcDbLine
 10
17.76713087009411
 20
21.97981742258597
 30
0.0
 11
17.58530920347314
 21
21.77527686708166
 31
0.0
  0
LINE
  5
8FB
330
70
100
AcDbEntity
  8
Livello 1
100
AcDbLine
 10
17.58530920347314
 20
21.77527686708166
 30
0.0
 11
17.44896059239594
 21
21.52533381158847
 31
0.0
  0
LINE
  5
8FC
330
70
100
AcDbEntity
  8
Livello 1
100
AcDbLine
 10
17.44896059239594
 20
21.52533381158847
 30
0.0
 11
17.35808503686311
 21
21.27528492276187
 31
0.0
  0
LINE
  5
8FD
330
70
100
AcDbEntity
  8
Livello 1
100
AcDbLine
 10
17.35808503686311
 20
21.27528492276187
 30
0.0
 11
17.33533087020233
 21
21.00255242282998
 31
0.0
  0
LINE
  5
8FE
330
70
100
AcDbEntity
  8
Livello 1
100
AcDbLine
 10
36.72099772401158
 20
13.54825214691618
 30
0.0
 11
36.72099772401158
 21
13.57107686913235
 31
0.0
  0
LINE
  5
8FF
330
70
100
AcDbEntity
  8
Livello 1
100
AcDbLine
 10
36.72099772401158
 20
13.57107686913235
 30
0.0
 11
36.72099772401158
 21
13.59376048023776
 31
0.0
  0
LINE
  5
900
330
70
100
AcDbEntity
  8
Livello 1
100
AcDbLine
 10
36.72099772401158
 20
13.59376048023776
 30
0.0
 11
36.69824355792542
 21
13.6164440913432
 31
0.0
  0
LINE
  5
901
330
70
100
AcDbEntity
  8
Livello 1
100
AcDbLine
 10
36.69824355792542
 20
13.6164440913432
 30
0.0
 11
36.69824355792542
 21
13.63912770244869
 31
0.0
  0
LINE
  5
902
330
70
100
AcDbEntity
  8
Livello 1
100
AcDbLine
 10
37.9027679716399
 20
21.00255242282998
 30
0.0
 11
37.9027679716399
 21
14.88912520213597
 31
0.0
  0
LINE
  5
903
330
70
100
AcDbEntity
  8
Livello 1
100
AcDbLine
 10
36.72099772401158
 20
22.34342547805036
 30
0.0
 11
34.13019779010839
 21
22.59347436687688
 31
0.0
  0
LINE
  5
904
330
70
100
AcDbEntity
  8
Livello 1
100
AcDbLine
 10
34.13019779010839
 20
22.59347436687688
 30
0.0
 11
31.51660841234217
 21
22.77522547794246
 31
0.0
  0
LINE
  5
905
330
70
100
AcDbEntity
  8
Livello 1
100
AcDbLine
 10
31.51660841234217
 20
22.77522547794246
 30
0.0
 11
28.90312486790658
 21
22.86610103347496
 31
0.0
  0
LINE
  5
906
330
70
100
AcDbEntity
  8
Livello 1
100
AcDbLine
 10
28.90312486790658
 20
22.86610103347496
 30
0.0
 11
26.3122896562265
 21
22.86610103347496
 31
0.0
  0
LINE
  5
907
330
70
100
AcDbEntity
  8
Livello 1
100
AcDbLine
 10
26.3122896562265
 20
22.86610103347496
 30
0.0
 11
23.69873642416687
 21
22.77522547794246
 31
0.0
  0
LINE
  5
908
330
70
100
AcDbEntity
  8
Livello 1
100
AcDbLine
 10
23.69873642416687
 20
22.77522547794246
 30
0.0
 11
21.08521753593128
 21
22.59347436687688
 31
0.0
  0
LINE
  5
909
330
70
100
AcDbEntity
  8
Livello 1
100
AcDbLine
 10
21.08521753593128
 20
22.59347436687688
 30
0.0
 11
18.49441753657896
 21
22.34342547805036
 31
0.0
  0
LINE
  5
90A
330
70
100
AcDbEntity
  8
Livello 1
100
AcDbLine
 10
18.49441753657896
 20
13.54825214691618
 30
0.0
 11
21.08521753593128
 21
13.29834436920106
 31
0.0
  0
LINE
  5
90B
330
70
100
AcDbEntity
  8
Livello 1
100
AcDbLine
 10
21.08521753593128
 20
13.29834436920106
 30
0.0
 11
23.69873642416687
 21
13.11648742480156
 31
0.0
  0
LINE
  5
90C
330
70
100
AcDbEntity
  8
Livello 1
100
AcDbLine
 10
23.69873642416687
 20
13.11648742480156
 30
0.0
 11
26.3122896562265
 21
13.02561186926849
 31
0.0
  0
LINE
  5
90D
330
70
100
AcDbEntity
  8
Livello 1
100
AcDbLine
 10
26.3122896562265
 20
13.02561186926849
 30
0.0
 11
28.90312486790658
 21
13.02561186926849
 31
0.0
  0
LINE
  5
90E
330
70
100
AcDbEntity
  8
Livello 1
100
AcDbLine
 10
28.90312486790658
 20
13.02561186926849
 30
0.0
 11
31.51660841234217
 21
13.11648742480156
 31
0.0
  0
LINE
  5
90F
330
70
100
AcDbEntity
  8
Livello 1
100
AcDbLine
 10
31.51660841234217
 20
13.11648742480156
 30
0.0
 11
34.13019779010839
 21
13.29834436920106
 31
0.0
  0
LINE
  5
910
330
70
100
AcDbEntity
  8
Livello 1
100
AcDbLine
 10
34.13019779010839
 20
13.29834436920106
 30
0.0
 11
36.72099772401158
 21
13.54825214691618
 31
0.0
  0
LINE
  5
911
330
70
100
AcDbEntity
  8
Livello 1
100
AcDbLine
 10
27.60765434540122
 20
21.27528492276187
 30
0.0
 11
27.17588963419425
 21
21.25260131165646
 31
0.0
  0
LINE
  5
912
330
70
100
AcDbEntity
  8
Livello 1
100
AcDbLine
 10
27.17588963419425
 20
21.25260131165646
 30
0.0
 11
26.74408964521037
 21
21.16158464501265
 31
0.0
  0
LINE
  5
913
330
70
100
AcDbEntity
  8
Livello 1
100
AcDbLine
 10
26.74408964521037
 20
21.16158464501265
 30
0.0
 11
26.33504382231268
 21
21.02523603393547
 31
0.0
  0
LINE
  5
914
330
70
100
AcDbEntity
  8
Livello 1
100
AcDbLine
 10
26.33504382231268
 20
21.02523603393547
 30
0.0
 11
25.92592744386121
 21
20.82080131176437
 31
0.0
  0
LINE
  5
915
330
70
100
AcDbEntity
  8
Livello 1
100
AcDbLine
 10
25.92592744386121
 20
20.82080131176437
 30
0.0
 11
25.58500300811447
 21
20.59343603404398
 31
0.0
  0
LINE
  5
916
330
70
100
AcDbEntity
  8
Livello 1
100
AcDbLine
 10
25.58500300811447
 20
20.59343603404398
 30
0.0
 11
25.24414912792148
 21
20.29801992300656
 31
0.0
  0
LINE
  5
917
330
70
100
AcDbEntity
  8
Livello 1
100
AcDbLine
 10
25.24414912792148
 20
20.29801992300656
 30
0.0
 11
24.94866246879333
 21
19.95709547864698
 31
0.0
  0
LINE
  5
918
330
70
100
AcDbEntity
  8
Livello 1
100
AcDbLine
 10
24.94866246879333
 20
19.95709547864698
 30
0.0
 11
24.72143830792361
 21
19.61631214539869
 31
0.0
  0
LINE
  5
919
330
70
100
AcDbEntity
  8
Livello 1
100
AcDbLine
 10
24.72143830792361
 20
19.61631214539869
 30
0.0
 11
24.51686336840668
 21
19.20719575661195
 31
0.0
  0
LINE
  5
91A
330
70
100
AcDbEntity
  8
Livello 1
100
AcDbLine
 10
24.51686336840668
 20
19.20719575661195
 30
0.0
 11
24.38051475732979
 21
18.79807936782538
 31
0.0
  0
LINE
  5
91B
330
70
100
AcDbEntity
  8
Livello 1
100
AcDbLine
 10
24.38051475732979
 20
18.79807936782538
 30
0.0
 11
24.28963920179699
 21
18.36631464571147
 31
0.0
  0
LINE
  5
91C
330
70
100
AcDbEntity
  8
Livello 1
100
AcDbLine
 10
24.28963920179699
 20
18.36631464571147
 30
0.0
 11
24.26688503513587
 21
17.93451464581929
 31
0.0
  0
LINE
  5
91D
330
70
100
AcDbEntity
  8
Livello 1
100
AcDbLine
 10
24.26688503513587
 20
17.93451464581929
 30
0.0
 11
24.28963920179699
 21
17.50271464592728
 31
0.0
  0
LINE
  5
91E
330
70
100
AcDbEntity
  8
Livello 1
100
AcDbLine
 10
24.28963920179699
 20
17.50271464592728
 30
0.0
 11
24.38051475732979
 21
17.07091464603505
 31
0.0
  0
LINE
  5
91F
330
70
100
AcDbEntity
  8
Livello 1
100
AcDbLine
 10
24.38051475732979
 20
17.07091464603505
 30
0.0
 11
24.51686336840668
 21
16.66183353502657
 31
0.0
  0
LINE
  5
920
330
70
100
AcDbEntity
  8
Livello 1
100
AcDbLine
 10
24.51686336840668
 20
16.66183353502657
 30
0.0
 11
24.72143830792361
 21
16.25271714623997
 31
0.0
  0
LINE
  5
921
330
70
100
AcDbEntity
  8
Livello 1
100
AcDbLine
 10
24.72143830792361
 20
16.25271714623997
 30
0.0
 11
24.94866246879333
 21
15.91179270188027
 31
0.0
  0
LINE
  5
922
330
70
100
AcDbEntity
  8
Livello 1
100
AcDbLine
 10
24.94866246879333
 20
15.91179270188027
 30
0.0
 11
25.24414912792148
 21
15.57097409085457
 31
0.0
  0
LINE
  5
923
330
70
100
AcDbEntity
  8
Livello 1
100
AcDbLine
 10
25.24414912792148
 20
15.57097409085457
 30
0.0
 11
25.58500300811447
 21
15.27555797981776
 31
0.0
  0
LINE
  5
924
330
70
100
AcDbEntity
  8
Livello 1
100
AcDbLine
 10
25.58500300811447
 20
15.27555797981776
 30
0.0
 11
25.92592744386121
 21
15.04819270209606
 31
0.0
  0
LINE
  5
925
330
70
100
AcDbEntity
  8
Livello 1
100
AcDbLine
 10
25.92592744386121
 20
15.04819270209606
 30
0.0
 11
26.33504382231268
 21
14.84365214659186
 31
0.0
  0
LINE
  5
926
330
70
100
AcDbEntity
  8
Livello 1
100
AcDbLine
 10
26.33504382231268
 20
14.84365214659186
 30
0.0
 11
26.74408964521037
 21
14.70740936884846
 31
0.0
  0
LINE
  5
927
330
70
100
AcDbEntity
  8
Livello 1
100
AcDbLine
 10
26.74408964521037
 20
14.70740936884846
 30
0.0
 11
27.17588963419425
 21
14.61642797998218
 31
0.0
  0
LINE
  5
928
330
70
100
AcDbEntity
  8
Livello 1
100
AcDbLine
 10
27.17588963419425
 20
14.61642797998218
 30
0.0
 11
27.60765434540122
 21
14.59370909109856
 31
0.0
  0
LINE
  5
929
330
70
100
AcDbEntity
  8
Livello 1
100
AcDbLine
 10
27.60765434540122
 20
14.59370909109856
 30
0.0
 11
28.03952488993886
 21
14.61642797998218
 31
0.0
  0
LINE
  5
92A
330
70
100
AcDbEntity
  8
Livello 1
100
AcDbLine
 10
28.03952488993886
 20
14.61642797998218
 30
0.0
 11
28.47132487892272
 21
14.70740936884846
 31
0.0
  0
LINE
  5
92B
330
70
100
AcDbEntity
  8
Livello 1
100
AcDbLine
 10
28.47132487892272
 20
14.70740936884846
 30
0.0
 11
28.88037070182043
 21
14.84365214659186
 31
0.0
  0
LINE
  5
92C
330
70
100
AcDbEntity
  8
Livello 1
100
AcDbLine
 10
28.88037070182043
 20
14.84365214659186
 30
0.0
 11
29.289451802495
 21
15.04819270209606
 31
0.0
  0
LINE
  5
92D
330
70
100
AcDbEntity
  8
Livello 1
100
AcDbLine
 10
29.289451802495
 20
15.04819270209606
 30
0.0
 11
29.63030568268798
 21
15.27555797981776
 31
0.0
  0
LINE
  5
92E
330
70
100
AcDbEntity
  8
Livello 1
100
AcDbLine
 10
29.63030568268798
 20
15.27555797981776
 30
0.0
 11
29.97123011843472
 21
15.57097409085457
 31
0.0
  0
LINE
  5
92F
330
70
100
AcDbEntity
  8
Livello 1
100
AcDbLine
 10
29.97123011843472
 20
15.57097409085457
 30
0.0
 11
30.26668149978601
 21
15.91179270188027
 31
0.0
  0
LINE
  5
930
330
70
100
AcDbEntity
  8
Livello 1
100
AcDbLine
 10
30.26668149978601
 20
15.91179270188027
 30
0.0
 11
30.49397621620946
 21
16.25271714623997
 31
0.0
  0
LINE
  5
931
330
70
100
AcDbEntity
  8
Livello 1
100
AcDbLine
 10
30.49397621620946
 20
16.25271714623997
 30
0.0
 11
30.69848148876989
 21
16.66183353502657
 31
0.0
  0
LINE
  5
932
330
70
100
AcDbEntity
  8
Livello 1
100
AcDbLine
 10
30.69848148876989
 20
16.66183353502657
 30
0.0
 11
30.83483009640246
 21
17.07091464603505
 31
0.0
  0
LINE
  5
933
330
70
100
AcDbEntity
  8
Livello 1
100
AcDbLine
 10
30.83483009640246
 20
17.07091464603505
 30
0.0
 11
30.92577620519334
 21
17.50271464592728
 31
0.0
  0
LINE
  5
934
330
70
100
AcDbEntity
  8
Livello 1
100
AcDbLine
 10
30.92577620519334
 20
17.50271464592728
 30
0.0
 11
30.94845981572574
 21
17.93451464581929
 31
0.0
  0
LINE
  5
935
330
70
100
AcDbEntity
  8
Livello 1
100
AcDbLine
 10
30.94845981572574
 20
17.93451464581929
 30
0.0
 11
30.92577620519334
 21
18.36631464571147
 31
0.0
  0
LINE
  5
936
330
70
100
AcDbEntity
  8
Livello 1
100
AcDbLine
 10
30.92577620519334
 20
18.36631464571147
 30
0.0
 11
30.83483009640246
 21
18.79807936782538
 31
0.0
  0
LINE
  5
937
330
70
100
AcDbEntity
  8
Livello 1
100
AcDbLine
 10
30.83483009640246
 20
18.79807936782538
 30
0.0
 11
30.69848148876989
 21
19.20719575661195
 31
0.0
  0
LINE
  5
938
330
70
100
AcDbEntity
  8
Livello 1
100
AcDbLine
 10
30.69848148876989
 20
19.20719575661195
 30
0.0
 11
30.49397621620946
 21
19.61631214539869
 31
0.0
  0
LINE
  5
939
330
70
100
AcDbEntity
  8
Livello 1
100
AcDbLine
 10
30.49397621620946
 20
19.61631214539869
 30
0.0
 11
30.26668149978601
 21
19.95709547864698
 31
0.0
  0
LINE
  5
93A
330
70
100
AcDbEntity
  8
Livello 1
100
AcDbLine
 10
30.26668149978601
 20
19.95709547864698
 30
0.0
 11
29.97123011843472
 21
20.29801992300656
 31
0.0
  0
LINE
  5
93B
330
70
100
AcDbEntity
  8
Livello 1
100
AcDbLine
 10
29.97123011843472
 20
20.29801992300656
 30
0.0
 11
29.63030568268798
 21
20.59343603404398
 31
0.0
  0
LINE
  5
93C
330
70
100
AcDbEntity
  8
Livello 1
100
AcDbLine
 10
29.63030568268798
 20
20.59343603404398
 30
0.0
 11
29.289451802495
 21
20.82080131176437
 31
0.0
  0
LINE
  5
93D
330
70
100
AcDbEntity
  8
Livello 1
100
AcDbLine
 10
29.289451802495
 20
20.82080131176437
 30
0.0
 11
28.88037070182043
 21
21.02523603393547
 31
0.0
  0
LINE
  5
93E
330
70
100
AcDbEntity
  8
Livello 1
100
AcDbLine
 10
28.88037070182043
 20
21.02523603393547
 30
0.0
 11
28.47132487892272
 21
21.16158464501265
 31
0.0
  0
LINE
  5
93F
330
70
100
AcDbEntity
  8
Livello 1
100
AcDbLine
 10
28.47132487892272
 20
21.16158464501265
 30
0.0
 11
28.03952488993886
 21
21.25260131165646
 31
0.0
  0
LINE
  5
940
330
70
100
AcDbEntity
  8
Livello 1
100
AcDbLine
 10
28.03952488993886
 20
21.25260131165646
 30
0.0
 11
27.60765434540122
 21
21.27528492276187
 31
0.0
  0
LINE
  5
941
330
70
100
AcDbEntity
  8
Livello 1
100
AcDbLine
 10
37.88008436110748
 20
21.00255242282998
 30
0.0
 11
37.85733019502131
 21
21.27528492276187
 31
0.0
  0
LINE
  5
942
330
70
100
AcDbEntity
  8
Livello 1
100
AcDbLine
 10
37.85733019502131
 20
21.27528492276187
 30
0.0
 11
37.76638408623044
 21
21.52533381158847
 31
0.0
  0
LINE
  5
943
330
70
100
AcDbEntity
  8
Livello 1
100
AcDbLine
 10
37.76638408623044
 20
21.52533381158847
 30
0.0
 11
37.63007075637474
 21
21.77527686708166
 31
0.0
  0
LINE
  5
944
330
70
100
AcDbEntity
  8
Livello 1
100
AcDbLine
 10
37.63007075637474
 20
21.77527686708166
 30
0.0
 11
37.44821381656985
 21
21.97981742258597
 31
0.0
  0
LINE
  5
945
330
70
100
AcDbEntity
  8
Livello 1
100
AcDbLine
 10
37.44821381656985
 20
21.97981742258597
 30
0.0
 11
37.24370975411394
 21
22.13884964476796
 31
0.0
  0
LINE
  5
946
330
70
100
AcDbEntity
  8
Livello 1
100
AcDbLine
 10
37.24370975411394
 20
22.13884964476796
 30
0.0
 11
36.99373021705361
 21
22.25254992251729
 31
0.0
  0
LINE
  5
947
330
70
100
AcDbEntity
  8
Livello 1
100
AcDbLine
 10
36.99373021705361
 20
22.25254992251729
 30
0.0
 11
36.72099772401158
 21
22.32074186694496
 31
0.0
  0
LINE
  5
948
330
70
100
AcDbEntity
  8
Livello 1
100
AcDbLine
 10
36.72099772401158
 20
13.57107686913235
 30
0.0
 11
36.99373021705361
 21
13.63912770244869
 31
0.0
  0
LINE
  5
949
330
70
100
AcDbEntity
  8
Livello 1
100
AcDbLine
 10
36.99373021705361
 20
13.63912770244869
 30
0.0
 11
37.24370975411394
 21
13.75282798019796
 31
0.0
  0
LINE
  5
94A
330
70
100
AcDbEntity
  8
Livello 1
100
AcDbLine
 10
37.24370975411394
 20
13.75282798019796
 30
0.0
 11
37.44821381656985
 21
13.91189548015879
 31
0.0
  0
LINE
  5
94B
330
70
100
AcDbEntity
  8
Livello 1
100
AcDbLine
 10
37.44821381656985
 20
13.91189548015879
 30
0.0
 11
37.63007075637474
 21
14.11643603566298
 31
0.0
  0
LINE
  5
94C
330
70
100
AcDbEntity
  8
Livello 1
100
AcDbLine
 10
37.63007075637474
 20
14.11643603566298
 30
0.0
 11
37.76638408623044
 21
14.36648492448947
 31
0.0
  0
LINE
  5
94D
330
70
100
AcDbEntity
  8
Livello 1
100
AcDbLine
 10
37.76638408623044
 20
14.36648492448947
 30
0.0
 11
37.85733019502131
 21
14.61642797998218
 31
0.0
  0
LINE
  5
94E
330
70
100
AcDbEntity
  8
Livello 1
100
AcDbLine
 10
37.85733019502131
 20
14.61642797998218
 30
0.0
 11
37.88008436110748
 21
14.88912520213597
 31
0.0
  0
LINE
  5
94F
330
70
100
AcDbEntity
  8
Livello 1
100
AcDbLine
 10
81.98058629156546
 20
13.27865936920529
 30
0.0
 11
78.31720082947066
 21
13.27865936920529
 31
0.0
  0
LINE
  5
950
330
70
100
AcDbEntity
  8
Livello 1
100
AcDbLine
 10
81.98058629156546
 20
22.85636436681096
 30
0.0
 11
78.31720082947066
 21
22.85636436681096
 31
0.0
  0
LINE
  5
951
330
70
100
AcDbEntity
  8
Livello 1
100
AcDbLine
 10
77.78750500965097
 20
14.31586131339037
 30
0.0
 11
78.31720082947066
 21
13.27865936920529
 31
0.0
  0
LINE
  5
952
330
70
100
AcDbEntity
  8
Livello 1
100
AcDbLine
 10
77.78750500965097
 20
21.84131686706539
 30
0.0
 11
77.78750500965097
 21
14.31586131339037
 31
0.0
  0
LINE
  5
953
330
70
100
AcDbEntity
  8
Livello 1
100
AcDbLine
 10
78.31720082947066
 20
13.27865936920529
 30
0.0
 11
78.31720082947066
 21
22.85636436681096
 31
0.0
  0
LINE
  5
954
330
70
100
AcDbEntity
  8
Livello 1
100
AcDbLine
 10
77.78750500965097
 20
21.84131686706539
 30
0.0
 11
78.31720082947066
 21
22.85636436681096
 31
0.0
  0
LINE
  5
955
330
70
100
AcDbEntity
  8
Livello 1
100
AcDbLine
 10
82.24545418730809
 20
13.47716742471138
 30
0.0
 11
82.44406807614726
 21
14.62478881331327
 31
0.0
  0
LINE
  5
956
330
70
100
AcDbEntity
  8
Livello 1
100
AcDbLine
 10
82.44406807614726
 20
14.62478881331327
 30
0.0
 11
82.59854710913328
 21
15.77241020191528
 31
0.0
  0
LINE
  5
957
330
70
100
AcDbEntity
  8
Livello 1
100
AcDbLine
 10
82.59854710913328
 20
15.77241020191528
 30
0.0
 11
82.68677918719777
 21
16.91989047940646
 31
0.0
  0
LINE
  5
958
330
70
100
AcDbEntity
  8
Livello 1
100
AcDbLine
 10
82.68677918719777
 20
16.91989047940646
 30
0.0
 11
82.70893127298387
 21
18.06751186800847
 31
0.0
  0
LINE
  5
959
330
70
100
AcDbEntity
  8
Livello 1
100
AcDbLine
 10
82.70893127298387
 20
18.06751186800847
 30
0.0
 11
82.68677918719777
 21
19.21513325661038
 31
0.0
  0
LINE
  5
95A
330
70
100
AcDbEntity
  8
Livello 1
100
AcDbLine
 10
82.68677918719777
 20
19.21513325661038
 30
0.0
 11
82.59854710913328
 21
20.36264881187918
 31
0.0
  0
LINE
  5
95B
330
70
100
AcDbEntity
  8
Livello 1
100
AcDbLine
 10
82.59854710913328
 20
20.36264881187918
 30
0.0
 11
82.44406807614726
 21
21.51023492270358
 31
0.0
  0
LINE
  5
95C
330
70
100
AcDbEntity
  8
Livello 1
100
AcDbLine
 10
82.44406807614726
 20
21.51023492270358
 30
0.0
 11
82.24545418730809
 21
22.65785631130487
 31
0.0
  0
LINE
  5
95D
330
70
100
AcDbEntity
  8
Livello 1
100
AcDbLine
 10
82.51028211138516
 20
15.13233020207556
 30
0.0
 11
82.92959376735428
 21
15.19851131316989
 31
0.0
  0
LINE
  5
95E
330
70
100
AcDbEntity
  8
Livello 1
100
AcDbLine
 10
82.92959376735428
 20
15.19851131316989
 30
0.0
 11
83.32685681277476
 21
15.30893075758678
 31
0.0
  0
LINE
  5
95F
330
70
100
AcDbEntity
  8
Livello 1
100
AcDbLine
 10
83.32685681277476
 20
15.30893075758678
 30
0.0
 11
83.70196541431608
 21
15.48553131309856
 31
0.0
  0
LINE
  5
960
330
70
100
AcDbEntity
  8
Livello 1
100
AcDbLine
 10
83.70196541431608
 20
15.48553131309856
 30
0.0
 11
84.05506068308566
 21
15.72820714637086
 31
0.0
  0
LINE
  5
961
330
70
100
AcDbEntity
  8
Livello 1
100
AcDbLine
 10
84.05506068308566
 20
15.72820714637086
 30
0.0
 11
84.36409400853486
 21
15.99307270186017
 31
0.0
  0
LINE
  5
962
330
70
100
AcDbEntity
  8
Livello 1
100
AcDbLine
 10
84.36409400853486
 20
15.99307270186017
 30
0.0
 11
84.62878316844877
 21
16.32411936844369
 31
0.0
  0
LINE
  5
963
330
70
100
AcDbEntity
  8
Livello 1
100
AcDbLine
 10
84.62878316844877
 20
16.32411936844369
 30
0.0
 11
84.84958677392677
 21
16.67721464613356
 31
0.0
  0
LINE
  5
964
330
70
100
AcDbEntity
  8
Livello 1
100
AcDbLine
 10
84.84958677392677
 20
16.67721464613356
 30
0.0
 11
85.02608149164617
 21
17.05232325715079
 31
0.0
  0
LINE
  5
965
330
70
100
AcDbEntity
  8
Livello 1
100
AcDbLine
 10
85.02608149164617
 20
17.05232325715079
 30
0.0
 11
85.13646807547408
 21
17.44958631260746
 31
0.0
  0
LINE
  5
966
330
70
100
AcDbEntity
  8
Livello 1
100
AcDbLine
 10
85.13646807547408
 20
17.44958631260746
 30
0.0
 11
85.20268204269628
 21
17.86886270139169
 31
0.0
  0
LINE
  5
967
330
70
100
AcDbEntity
  8
Livello 1
100
AcDbLine
 10
85.20268204269628
 20
17.86886270139169
 30
0.0
 11
85.20268204269628
 21
18.26616103462527
 31
0.0
  0
LINE
  5
968
330
70
100
AcDbEntity
  8
Livello 1
100
AcDbLine
 10
85.20268204269628
 20
18.26616103462527
 30
0.0
 11
85.13646807547408
 21
18.68543742340935
 31
0.0
  0
LINE
  5
969
330
70
100
AcDbEntity
  8
Livello 1
100
AcDbLine
 10
85.13646807547408
 20
18.68543742340935
 30
0.0
 11
85.02608149164617
 21
19.08270047886606
 31
0.0
  0
LINE
  5
96A
330
70
100
AcDbEntity
  8
Livello 1
100
AcDbLine
 10
85.02608149164617
 20
19.08270047886606
 30
0.0
 11
84.84958677392677
 21
19.45784436766087
 31
0.0
  0
LINE
  5
96B
330
70
100
AcDbEntity
  8
Livello 1
100
AcDbLine
 10
84.84958677392677
 20
19.45784436766087
 30
0.0
 11
84.62878316844877
 21
19.81090436757256
 31
0.0
  0
LINE
  5
96C
330
70
100
AcDbEntity
  8
Livello 1
100
AcDbLine
 10
84.62878316844877
 20
19.81090436757256
 30
0.0
 11
84.36409400853486
 21
20.14198631193429
 31
0.0
  0
LINE
  5
96D
330
70
100
AcDbEntity
  8
Livello 1
100
AcDbLine
 10
84.36409400853486
 20
20.14198631193429
 30
0.0
 11
84.05506068308566
 21
20.40681658964536
 31
0.0
  0
LINE
  5
96E
330
70
100
AcDbEntity
  8
Livello 1
100
AcDbLine
 10
84.05506068308566
 20
20.40681658964536
 30
0.0
 11
83.70196541431608
 21
20.64949242291837
 31
0.0
  0
LINE
  5
96F
330
70
100
AcDbEntity
  8
Livello 1
100
AcDbLine
 10
83.70196541431608
 20
20.64949242291837
 30
0.0
 11
83.32685681277476
 21
20.82609297842947
 31
0.0
  0
LINE
  5
970
330
70
100
AcDbEntity
  8
Livello 1
100
AcDbLine
 10
83.32685681277476
 20
20.82609297842947
 30
0.0
 11
82.92959376735428
 21
20.93647714506886
 31
0.0
  0
LINE
  5
971
330
70
100
AcDbEntity
  8
Livello 1
100
AcDbLine
 10
82.92959376735428
 20
20.93647714506886
 30
0.0
 11
82.51028211138516
 21
21.00272881171887
 31
0.0
  0
LINE
  5
972
330
70
100
AcDbEntity
  8
Livello 1
100
AcDbLine
 10
81.98058629156546
 20
13.30067270253337
 30
0.0
 11
82.13506767651328
 21
13.34473464696705
 31
0.0
  0
LINE
  5
973
330
70
100
AcDbEntity
  8
Livello 1
100
AcDbLine
 10
82.13506767651328
 20
13.34473464696705
 30
0.0
 11
82.22340322981517
 21
13.49932186915077
 31
0.0
  0
LINE
  5
974
330
70
100
AcDbEntity
  8
Livello 1
100
AcDbLine
 10
82.22340322981517
 20
22.65785631130487
 30
0.0
 11
82.13506767651328
 21
22.81230242237729
 31
0.0
  0
LINE
  5
975
330
70
100
AcDbEntity
  8
Livello 1
100
AcDbLine
 10
82.13506767651328
 20
22.81230242237729
 30
0.0
 11
81.98058629156546
 21
22.85636436681096
 31
0.0
  0
LINE
  5
976
330
70
100
AcDbEntity
  8
Livello 1
100
AcDbLine
 10
8.82915309455106
 20
-9.754296493899147
 30
0.0
 11
44.33325405758451
 21
-9.754296493899147
 31
0.0
  0
LINE
  5
977
330
70
100
AcDbEntity
  8
Livello 1
100
AcDbLine
 10
55.22687280744293
 20
-9.754296493899147
 30
0.0
 11
83.85648207704077
 21
-9.754296493899147
 31
0.0
  0
LINE
  5
978
330
70
100
AcDbEntity
  8
Livello 1
100
AcDbLine
 10
91.91175207571928
 20
1.216640344443476
 30
0.0
 11
91.91175207571928
 21
55.62712685861828
 31
0.0
  0
SPLINE
  5
979
330
70
100
AcDbEntity
  8
Livello 1
100
AcDbSpline
210
0.0
220
0.0
230
1.0
 70
    11
 71
     3
 72
    29
 73
    25
 74
     0
 42
0.000000001
 43
0.0000000001
 40
0.0
 40
0.0
 40
0.0
 40
0.0
 40
1.0
 40
1.0
 40
1.0
 40
2.0
 40
2.0
 40
2.0
 40
3.0
 40
3.0
 40
3.0
 40
4.0
 40
4.0
 40
4.0
 40
5.0
 40
5.0
 40
5.0
 40
6.0
 40
6.0
 40
6.0
 40
7.0
 40
7.0
 40
7.0
 40
8.0
 40
8.0
 40
8.0
 40
8.0
 10
16.91736325983241
 20
-14.22568592420495
 30
0.0
 10
16.91736325983241
 20
-14.22568592420495
 30
0.0
 10
16.89186955324156
 20
-14.22568592420495
 30
0.0
 10
16.89186955324156
 20
-14.22568592420495
 30
0.0
 10
16.89186955324156
 20
-14.22568592420495
 30
0.0
 10
15.45698728363501
 20
-15.00014338928901
 30
0.0
 10
15.45698728363501
 20
-15.00014338928901
 30
0.0
 10
15.45698728363501
 20
-15.00014338928901
 30
0.0
 10
15.24115205148411
 20
-14.14920480443228
 30
0.0
 10
15.24115205148411
 20
-14.14920480443228
 30
0.0
 10
15.24115205148411
 20
-14.14920480443228
 30
0.0
 10
17.04431502846388
 20
-13.18423355901382
 30
0.0
 10
17.04431502846388
 20
-13.18423355901382
 30
0.0
 10
17.04431502846388
 20
-13.18423355901382
 30
0.0
 10
17.99671167536121
 20
-13.18423355901382
 30
0.0
 10
17.99671167536121
 20
-13.18423355901382
 30
0.0
 10
17.99671167536121
 20
-13.18423355901382
 30
0.0
 10
17.99671167536121
 20
-21.43833783212395
 30
0.0
 10
17.99671167536121
 20
-21.43833783212395
 30
0.0
 10
17.99671167536121
 20
-21.43833783212395
 30
0.0
 10
16.91736325983241
 20
-21.43833783212395
 30
0.0
 10
16.91736325983241
 20
-21.43833783212395
 30
0.0
 10
16.91736325983241
 20
-21.43833783212395
 30
0.0
 10
16.91736325983241
 20
-14.22568592420495
 30
0.0
 10
16.91736325983241
 20
-14.22568592420495
 30
0.0
  0
HATCH
  5
97A
330
70
100
AcDbEntity
  8
Livello 1
440
 33554687
100
AcDbHatch
 10
0.0
 20
0.0
 30
0.0
210
0.0
220
0.0
230
1.0
  2
SOLID
 70
     1
 71
     0
 91
        1
 92
        1
 93
        1
 72
     4
 94
        3
 73
     0
 74
     0
 95
       29
 96
       25
 40
0.0
 40
0.0
 40
0.0
 40
0.0
 40
1.0
 40
1.0
 40
1.0
 40
2.0
 40
2.0
 40
2.0
 40
3.0
 40
3.0
 40
3.0
 40
4.0
 40
4.0
 40
4.0
 40
5.0
 40
5.0
 40
5.0
 40
6.0
 40
6.0
 40
6.0
 40
7.0
 40
7.0
 40
7.0
 40
8.0
 40
8.0
 40
8.0
 40
8.0
 10
16.91736325983241
 20
-14.22568592420495
 10
16.91736325983241
 20
-14.22568592420495
 10
16.89186955324156
 20
-14.22568592420495
 10
16.89186955324156
 20
-14.22568592420495
 10
16.89186955324156
 20
-14.22568592420495
 10
15.45698728363501
 20
-15.00014338928901
 10
15.45698728363501
 20
-15.00014338928901
 10
15.45698728363501
 20
-15.00014338928901
 10
15.24115205148411
 20
-14.14920480443228
 10
15.24115205148411
 20
-14.14920480443228
 10
15.24115205148411
 20
-14.14920480443228
 10
17.04431502846388
 20
-13.18423355901382
 10
17.04431502846388
 20
-13.18423355901382
 10
17.04431502846388
 20
-13.18423355901382
 10
17.99671167536121
 20
-13.18423355901382
 10
17.99671167536121
 20
-13.18423355901382
 10
17.99671167536121
 20
-13.18423355901382
 10
17.99671167536121
 20
-21.43833783212395
 10
17.99671167536121
 20
-21.43833783212395
 10
17.99671167536121
 20
-21.43833783212395
 10
16.91736325983241
 20
-21.43833783212395
 10
16.91736325983241
 20
-21.43833783212395
 10
16.91736325983241
 20
-21.43833783212395
 10
16.91736325983241
 20
-14.22568592420495
 10
16.91736325983241
 20
-14.22568592420495
 97
        0
 97
        0
 75
     2
 76
     1
 98
        1
 10
-25.21047011722243
 20
161.6957034632384
450
        0
451
        0
460
0.0
461
0.0
452
        0
462
0.0
453
        0
470

  0
SPLINE
  5
97B
330
70
100
AcDbEntity
  8
Livello 1
100
AcDbSpline
210
0.0
220
0.0
230
1.0
 70
    11
 71
     3
 72
    26
 73
    22
 74
     0
 42
0.000000001
 43
0.0000000001
 40
0.0
 40
0.0
 40
0.0
 40
0.0
 40
1.0
 40
1.0
 40
1.0
 40
2.0
 40
2.0
 40
2.0
 40
3.0
 40
3.0
 40
3.0
 40
4.0
 40
4.0
 40
4.0
 40
5.0
 40
5.0
 40
5.0
 40
6.0
 40
6.0
 40
6.0
 40
7.0
 40
7.0
 40
7.0
 40
7.0
 10
24.46074433433547
 20
-18.31432524609931
 30
0.0
 10
24.46074433433547
 20
-18.31432524609931
 30
0.0
 10
24.46074433433547
 20
-15.55893787699654
 30
0.0
 10
24.46074433433547
 20
-15.55893787699654
 30
0.0
 10
24.46074433433547
 20
-15.12726741269469
 30
0.0
 10
24.4734911876309
 20
-14.69525243884445
 30
0.0
 10
24.49881263944747
 20
-14.2635819745426
 30
0.0
 10
24.49881263944747
 20
-14.2635819745426
 30
0.0
 10
24.46074433433547
 20
-14.2635819745426
 30
0.0
 10
24.46074433433547
 20
-14.2635819745426
 30
0.0
 10
24.20666854229828
 20
-14.74623985202615
 30
0.0
 10
24.00358016344282
 20
-15.10177370610392
 30
0.0
 10
23.77499807799648
 20
-15.48280126677252
 30
0.0
 10
23.77499807799648
 20
-15.48280126677252
 30
0.0
 10
21.75599986886582
 20
-18.28917604905703
 30
0.0
 10
21.75599986886582
 20
-18.28917604905703
 30
0.0
 10
21.75599986886582
 20
-18.28917604905703
 30
0.0
 10
21.75599986886582
 20
-18.31432524609931
 30
0.0
 10
21.75599986886582
 20
-18.31432524609931
 30
0.0
 10
21.75599986886582
 20
-18.31432524609931
 30
0.0
 10
24.46074433433547
 20
-18.31432524609931
 30
0.0
 10
24.46074433433547
 20
-18.31432524609931
 30
0.0
  0
SPLINE
  5
97C
330
70
100
AcDbEntity
  8
Livello 1
100
AcDbSpline
210
0.0
220
0.0
230
1.0
 70
    11
 71
     3
 72
    38
 73
    34
 74
     0
 42
0.000000001
 43
0.0000000001
 40
0.0
 40
0.0
 40
0.0
 40
0.0
 40
1.0
 40
1.0
 40
1.0
 40
2.0
 40
2.0
 40
2.0
 40
3.0
 40
3.0
 40
3.0
 40
4.0
 40
4.0
 40
4.0
 40
5.0
 40
5.0
 40
5.0
 40
6.0
 40
6.0
 40
6.0
 40
7.0
 40
7.0
 40
7.0
 40
8.0
 40
8.0
 40
8.0
 40
9.0
 40
9.0
 40
9.0
 40
10.0
 40
10.0
 40
10.0
 40
11.0
 40
11.0
 40
11.0
 40
11.0
 10
24.46074433433547
 20
-21.43833783212395
 30
0.0
 10
24.46074433433547
 20
-21.43833783212395
 30
0.0
 10
24.46074433433547
 20
-19.19075753754691
 30
0.0
 10
24.46074433433547
 20
-19.19075753754691
 30
0.0
 10
24.46074433433547
 20
-19.19075753754691
 30
0.0
 10
20.6258362949296
 20
-19.19075753754691
 30
0.0
 10
20.6258362949296
 20
-19.19075753754691
 30
0.0
 10
20.6258362949296
 20
-19.19075753754691
 30
0.0
 10
20.6258362949296
 20
-18.45419612280051
 30
0.0
 10
20.6258362949296
 20
-18.45419612280051
 30
0.0
 10
20.6258362949296
 20
-18.45419612280051
 30
0.0
 10
24.30829885911316
 20
-13.18423355901382
 30
0.0
 10
24.30829885911316
 20
-13.18423355901382
 30
0.0
 10
24.30829885911316
 20
-13.18423355901382
 30
0.0
 10
25.51477129804766
 20
-13.18423355901382
 30
0.0
 10
25.51477129804766
 20
-13.18423355901382
 30
0.0
 10
25.51477129804766
 20
-13.18423355901382
 30
0.0
 10
25.51477129804766
 20
-18.31432524609931
 30
0.0
 10
25.51477129804766
 20
-18.31432524609931
 30
0.0
 10
25.51477129804766
 20
-18.31432524609931
 30
0.0
 10
26.67025632380044
 20
-18.31432524609931
 30
0.0
 10
26.67025632380044
 20
-18.31432524609931
 30
0.0
 10
26.67025632380044
 20
-18.31432524609931
 30
0.0
 10
26.67025632380044
 20
-19.19075753754691
 30
0.0
 10
26.67025632380044
 20
-19.19075753754691
 30
0.0
 10
26.67025632380044
 20
-19.19075753754691
 30
0.0
 10
25.51477129804766
 20
-19.19075753754691
 30
0.0
 10
25.51477129804766
 20
-19.19075753754691
 30
0.0
 10
25.51477129804766
 20
-19.19075753754691
 30
0.0
 10
25.51477129804766
 20
-21.43833783212395
 30
0.0
 10
25.51477129804766
 20
-21.43833783212395
 30
0.0
 10
25.51477129804766
 20
-21.43833783212395
 30
0.0
 10
24.46074433433547
 20
-21.43833783212395
 30
0.0
 10
24.46074433433547
 20
-21.43833783212395
 30
0.0
  0
HATCH
  5
97D
330
70
100
AcDbEntity
  8
Livello 1
440
 33554687
100
AcDbHatch
 10
0.0
 20
0.0
 30
0.0
210
0.0
220
0.0
230
1.0
  2
SOLID
 70
     1
 71
     0
 91
        2
 92
        1
 93
        1
 72
     4
 94
        3
 73
     0
 74
     0
 95
       26
 96
       22
 40
0.0
 40
0.0
 40
0.0
 40
0.0
 40
1.0
 40
1.0
 40
1.0
 40
2.0
 40
2.0
 40
2.0
 40
3.0
 40
3.0
 40
3.0
 40
4.0
 40
4.0
 40
4.0
 40
5.0
 40
5.0
 40
5.0
 40
6.0
 40
6.0
 40
6.0
 40
7.0
 40
7.0
 40
7.0
 40
7.0
 10
24.46074433433547
 20
-18.31432524609931
 10
24.46074433433547
 20
-18.31432524609931
 10
24.46074433433547
 20
-15.55893787699654
 10
24.46074433433547
 20
-15.55893787699654
 10
24.46074433433547
 20
-15.12726741269469
 10
24.4734911876309
 20
-14.69525243884445
 10
24.49881263944747
 20
-14.2635819745426
 10
24.49881263944747
 20
-14.2635819745426
 10
24.46074433433547
 20
-14.2635819745426
 10
24.46074433433547
 20
-14.2635819745426
 10
24.20666854229828
 20
-14.74623985202615
 10
24.00358016344282
 20
-15.10177370610392
 10
23.77499807799648
 20
-15.48280126677252
 10
23.77499807799648
 20
-15.48280126677252
 10
21.75599986886582
 20
-18.28917604905703
 10
21.75599986886582
 20
-18.28917604905703
 10
21.75599986886582
 20
-18.28917604905703
 10
21.75599986886582
 20
-18.31432524609931
 10
21.75599986886582
 20
-18.31432524609931
 10
21.75599986886582
 20
-18.31432524609931
 10
24.46074433433547
 20
-18.31432524609931
 10
24.46074433433547
 20
-18.31432524609931
 97
        0
 97
        0
 92
        1
 93
        1
 72
     4
 94
        3
 73
     0
 74
     0
 95
       38
 96
       34
 40
0.0
 40
0.0
 40
0.0
 40
0.0
 40
1.0
 40
1.0
 40
1.0
 40
2.0
 40
2.0
 40
2.0
 40
3.0
 40
3.0
 40
3.0
 40
4.0
 40
4.0
 40
4.0
 40
5.0
 40
5.0
 40
5.0
 40
6.0
 40
6.0
 40
6.0
 40
7.0
 40
7.0
 40
7.0
 40
8.0
 40
8.0
 40
8.0
 40
9.0
 40
9.0
 40
9.0
 40
10.0
 40
10.0
 40
10.0
 40
11.0
 40
11.0
 40
11.0
 40
11.0
 10
24.46074433433547
 20
-21.43833783212395
 10
24.46074433433547
 20
-21.43833783212395
 10
24.46074433433547
 20
-19.19075753754691
 10
24.46074433433547
 20
-19.19075753754691
 10
24.46074433433547
 20
-19.19075753754691
 10
20.6258362949296
 20
-19.19075753754691
 10
20.6258362949296
 20
-19.19075753754691
 10
20.6258362949296
 20
-19.19075753754691
 10
20.6258362949296
 20
-18.45419612280051
 10
20.6258362949296
 20
-18.45419612280051
 10
20.6258362949296
 20
-18.45419612280051
 10
24.30829885911316
 20
-13.18423355901382
 10
24.30829885911316
 20
-13.18423355901382
 10
24.30829885911316
 20
-13.18423355901382
 10
25.51477129804766
 20
-13.18423355901382
 10
25.51477129804766
 20
-13.18423355901382
 10
25.51477129804766
 20
-13.18423355901382
 10
25.51477129804766
 20
-18.31432524609931
 10
25.51477129804766
 20
-18.31432524609931
 10
25.51477129804766
 20
-18.31432524609931
 10
26.67025632380044
 20
-18.31432524609931
 10
26.67025632380044
 20
-18.31432524609931
 10
26.67025632380044
 20
-18.31432524609931
 10
26.67025632380044
 20
-19.19075753754691
 10
26.67025632380044
 20
-19.19075753754691
 10
26.67025632380044
 20
-19.19075753754691
 10
25.51477129804766
 20
-19.19075753754691
 10
25.51477129804766
 20
-19.19075753754691
 10
25.51477129804766
 20
-19.19075753754691
 10
25.51477129804766
 20
-21.43833783212395
 10
25.51477129804766
 20
-21.43833783212395
 10
25.51477129804766
 20
-21.43833783212395
 10
24.46074433433547
 20
-21.43833783212395
 10
24.46074433433547
 20
-21.43833783212395
 97
        0
 97
        0
 75
     2
 76
     1
 98
        1
 10
-25.21047011722243
 20
161.6957034632384
450
        0
451
        0
460
0.0
461
0.0
452
        0
462
0.0
453
        0
470

  0
SPLINE
  5
97E
330
70
100
AcDbEntity
  8
Livello 1
100
AcDbSpline
210
0.0
220
0.0
230
1.0
 70
     9
 71
     3
 72
    17
 73
    13
 74
     0
 42
0.000000001
 43
0.0000000001
 40
0.0
 40
0.0
 40
0.0
 40
0.0
 40
1.0
 40
1.0
 40
1.0
 40
2.0
 40
2.0
 40
2.0
 40
3.0
 40
3.0
 40
3.0
 40
4.0
 40
4.0
 40
4.0
 40
4.0
 10
27.15325871083247
 20
-22.99999961558762
 30
0.0
 10
27.43265595468623
 20
-22.25103585709431
 30
0.0
 10
27.77561521024286
 20
-20.89229019771182
 30
0.0
 10
27.91531383216973
 20
-19.96521500263111
 30
0.0
 10
27.91531383216973
 20
-19.96521500263111
 30
0.0
 10
29.15968232144197
 20
-19.83809097922531
 30
0.0
 10
29.15968232144197
 20
-19.83809097922531
 30
0.0
 10
28.86771047906704
 20
-20.91778390430272
 30
0.0
 10
28.30891599135954
 20
-22.32717246731829
 30
0.0
 10
27.95338213728175
 20
-22.92386300536362
 30
0.0
 10
27.95338213728175
 20
-22.92386300536362
 30
0.0
 10
27.15325871083247
 20
-22.99999961558762
 30
0.0
 10
27.15325871083247
 20
-22.99999961558762
 30
0.0
  0
HATCH
  5
97F
330
70
100
AcDbEntity
  8
Livello 1
440
 33554687
100
AcDbHatch
 10
0.0
 20
0.0
 30
0.0
210
0.0
220
0.0
230
1.0
  2
SOLID
 70
     1
 71
     0
 91
        1
 92
        1
 93
        1
 72
     4
 94
        3
 73
     0
 74
     0
 95
       17
 96
       13
 40
0.0
 40
0.0
 40
0.0
 40
0.0
 40
1.0
 40
1.0
 40
1.0
 40
2.0
 40
2.0
 40
2.0
 40
3.0
 40
3.0
 40
3.0
 40
4.0
 40
4.0
 40
4.0
 40
4.0
 10
27.15325871083247
 20
-22.99999961558762
 10
27.43265595468623
 20
-22.25103585709431
 10
27.77561521024286
 20
-20.89229019771182
 10
27.91531383216973
 20
-19.96521500263111
 10
27.91531383216973
 20
-19.96521500263111
 10
29.15968232144197
 20
-19.83809097922531
 10
29.15968232144197
 20
-19.83809097922531
 10
28.86771047906704
 20
-20.91778390430272
 10
28.30891599135954
 20
-22.32717246731829
 10
27.95338213728175
 20
-22.92386300536362
 10
27.95338213728175
 20
-22.92386300536362
 10
27.15325871083247
 20
-22.99999961558762
 10
27.15325871083247
 20
-22.99999961558762
 97
        0
 97
        0
 75
     2
 76
     1
 98
        1
 10
-25.21047011722243
 20
161.6957034632384
450
        0
451
        0
460
0.0
461
0.0
452
        0
462
0.0
453
        0
470

  0
SPLINE
  5
980
330
70
100
AcDbEntity
  8
Livello 1
100
AcDbSpline
210
0.0
220
0.0
230
1.0
 70
    11
 71
     3
 72
    50
 73
    46
 74
     0
 42
0.000000001
 43
0.0000000001
 40
0.0
 40
0.0
 40
0.0
 40
0.0
 40
1.0
 40
1.0
 40
1.0
 40
2.0
 40
2.0
 40
2.0
 40
3.0
 40
3.0
 40
3.0
 40
4.0
 40
4.0
 40
4.0
 40
5.0
 40
5.0
 40
5.0
 40
6.0
 40
6.0
 40
6.0
 40
7.0
 40
7.0
 40
7.0
 40
8.0
 40
8.0
 40
8.0
 40
9.0
 40
9.0
 40
9.0
 40
10.0
 40
10.0
 40
10.0
 40
11.0
 40
11.0
 40
11.0
 40
12.0
 40
12.0
 40
12.0
 40
13.0
 40
13.0
 40
13.0
 40
14.0
 40
14.0
 40
14.0
 40
15.0
 40
15.0
 40
15.0
 40
15.0
 10
35.07732283645561
 20
-14.12405560739003
 30
0.0
 10
35.07732283645561
 20
-14.12405560739003
 30
0.0
 10
31.92816105338876
 20
-14.12405560739003
 30
0.0
 10
31.92816105338876
 20
-14.12405560739003
 30
0.0
 10
31.92816105338876
 20
-14.12405560739003
 30
0.0
 10
31.61069550442298
 20
-16.24451187856121
 30
0.0
 10
31.61069550442298
 20
-16.24451187856121
 30
0.0
 10
31.80120928475729
 20
-16.21936268151893
 30
0.0
 10
31.97897621179619
 20
-16.19386897492814
 30
0.0
 10
32.28369490746653
 20
-16.19386897492814
 30
0.0
 10
32.91862600539808
 20
-16.19386897492814
 30
0.0
 10
33.55355710332962
 20
-16.33339534208073
 30
0.0
 10
34.0615364326297
 20
-16.63828629252532
 30
0.0
 10
34.70904212908243
 20
-17.00656699989852
 30
0.0
 10
35.24251516497336
 20
-17.71763470805413
 30
0.0
 10
35.24251516497336
 20
-18.75874256369664
 30
0.0
 10
35.24251516497336
 20
-20.37173626989062
 30
0.0
 10
33.95990611581485
 20
-21.57786419927655
 30
0.0
 10
32.1694899921305
 20
-21.57786419927655
 30
0.0
 10
31.26790850364062
 20
-21.57786419927655
 30
0.0
 10
30.50585338230336
 20
-21.32396066201363
 30
0.0
 10
30.11225122311356
 20
-21.07005712475072
 30
0.0
 10
30.11225122311356
 20
-21.07005712475072
 30
0.0
 10
30.39164846696732
 20
-20.21911853989402
 30
0.0
 10
30.39164846696732
 20
-20.21911853989402
 30
0.0
 10
30.73443546774968
 20
-20.42237917352372
 30
0.0
 10
31.4076071255675
 20
-20.67628271078669
 30
0.0
 10
32.15674313883507
 20
-20.67628271078669
 30
0.0
 10
33.21077010254726
 20
-20.67628271078669
 30
0.0
 10
34.11235159103715
 20
-19.99070870922196
 30
0.0
 10
34.11235159103715
 20
-18.88586658710233
 30
0.0
 10
34.09960473774172
 20
-17.81926502486891
 30
0.0
 10
33.38853702958615
 20
-17.05720990353171
 30
0.0
 10
31.73764727305444
 20
-17.05720990353171
 30
0.0
 10
31.26790850364062
 20
-17.05720990353171
 30
0.0
 10
30.8996277962674
 20
-17.10819731671344
 30
0.0
 10
30.59490910059706
 20
-17.14609336705112
 30
0.0
 10
30.59490910059706
 20
-17.14609336705112
 30
0.0
 10
31.12820988171375
 20
-13.18423355901382
 30
0.0
 10
31.12820988171375
 20
-13.18423355901382
 30
0.0
 10
31.12820988171375
 20
-13.18423355901382
 30
0.0
 10
35.07732283645561
 20
-13.18423355901382
 30
0.0
 10
35.07732283645561
 20
-13.18423355901382
 30
0.0
 10
35.07732283645561
 20
-13.18423355901382
 30
0.0
 10
35.07732283645561
 20
-14.12405560739003
 30
0.0
 10
35.07732283645561
 20
-14.12405560739003
 30
0.0
  0
HATCH
  5
981
330
70
100
AcDbEntity
  8
Livello 1
440
 33554687
100
AcDbHatch
 10
0.0
 20
0.0
 30
0.0
210
0.0
220
0.0
230
1.0
  2
SOLID
 70
     1
 71
     0
 91
        1
 92
        1
 93
        1
 72
     4
 94
        3
 73
     0
 74
     0
 95
       50
 96
       46
 40
0.0
 40
0.0
 40
0.0
 40
0.0
 40
1.0
 40
1.0
 40
1.0
 40
2.0
 40
2.0
 40
2.0
 40
3.0
 40
3.0
 40
3.0
 40
4.0
 40
4.0
 40
4.0
 40
5.0
 40
5.0
 40
5.0
 40
6.0
 40
6.0
 40
6.0
 40
7.0
 40
7.0
 40
7.0
 40
8.0
 40
8.0
 40
8.0
 40
9.0
 40
9.0
 40
9.0
 40
10.0
 40
10.0
 40
10.0
 40
11.0
 40
11.0
 40
11.0
 40
12.0
 40
12.0
 40
12.0
 40
13.0
 40
13.0
 40
13.0
 40
14.0
 40
14.0
 40
14.0
 40
15.0
 40
15.0
 40
15.0
 40
15.0
 10
35.07732283645561
 20
-14.12405560739003
 10
35.07732283645561
 20
-14.12405560739003
 10
31.92816105338876
 20
-14.12405560739003
 10
31.92816105338876
 20
-14.12405560739003
 10
31.92816105338876
 20
-14.12405560739003
 10
31.61069550442298
 20
-16.24451187856121
 10
31.61069550442298
 20
-16.24451187856121
 10
31.80120928475729
 20
-16.21936268151893
 10
31.97897621179619
 20
-16.19386897492814
 10
32.28369490746653
 20
-16.19386897492814
 10
32.91862600539808
 20
-16.19386897492814
 10
33.55355710332962
 20
-16.33339534208073
 10
34.0615364326297
 20
-16.63828629252532
 10
34.70904212908243
 20
-17.00656699989852
 10
35.24251516497336
 20
-17.71763470805413
 10
35.24251516497336
 20
-18.75874256369664
 10
35.24251516497336
 20
-20.37173626989062
 10
33.95990611581485
 20
-21.57786419927655
 10
32.1694899921305
 20
-21.57786419927655
 10
31.26790850364062
 20
-21.57786419927655
 10
30.50585338230336
 20
-21.32396066201363
 10
30.11225122311356
 20
-21.07005712475072
 10
30.11225122311356
 20
-21.07005712475072
 10
30.39164846696732
 20
-20.21911853989402
 10
30.39164846696732
 20
-20.21911853989402
 10
30.73443546774968
 20
-20.42237917352372
 10
31.4076071255675
 20
-20.67628271078669
 10
32.15674313883507
 20
-20.67628271078669
 10
33.21077010254726
 20
-20.67628271078669
 10
34.11235159103715
 20
-19.99070870922196
 10
34.11235159103715
 20
-18.88586658710233
 10
34.09960473774172
 20
-17.81926502486891
 10
33.38853702958615
 20
-17.05720990353171
 10
31.73764727305444
 20
-17.05720990353171
 10
31.26790850364062
 20
-17.05720990353171
 10
30.8996277962674
 20
-17.10819731671344
 10
30.59490910059706
 20
-17.14609336705112
 10
30.59490910059706
 20
-17.14609336705112
 10
31.12820988171375
 20
-13.18423355901382
 10
31.12820988171375
 20
-13.18423355901382
 10
31.12820988171375
 20
-13.18423355901382
 10
35.07732283645561
 20
-13.18423355901382
 10
35.07732283645561
 20
-13.18423355901382
 10
35.07732283645561
 20
-13.18423355901382
 10
35.07732283645561
 20
-14.12405560739003
 10
35.07732283645561
 20
-14.12405560739003
 97
        0
 97
        0
 75
     2
 76
     1
 98
        1
 10
-25.21047011722243
 20
161.6957034632384
450
        0
451
        0
460
0.0
461
0.0
452
        0
462
0.0
453
        0
470

  0
SPLINE
  5
982
330
70
100
AcDbEntity
  8
Livello 1
100
AcDbSpline
210
0.0
220
0.0
230
1.0
 70
     9
 71
     3
 72
    17
 73
    13
 74
     0
 42
0.000000001
 43
0.0000000001
 40
0.0
 40
0.0
 40
0.0
 40
0.0
 40
1.0
 40
1.0
 40
1.0
 40
2.0
 40
2.0
 40
2.0
 40
3.0
 40
3.0
 40
3.0
 40
4.0
 40
4.0
 40
4.0
 40
4.0
 10
100.7744324662986
 20
20.25265743740127
 30
0.0
 10
99.77122066099397
 20
20.25265743740127
 30
0.0
 10
99.28856278351048
 20
19.55433658254105
 30
0.0
 10
98.97109723454468
 20
18.43674760712605
 30
0.0
 10
99.25049447839846
 20
17.47177636170755
 30
0.0
 10
99.88542557632996
 20
16.95105017911206
 30
0.0
 10
100.6728021494838
 20
16.95105017911206
 30
0.0
 10
101.5108216262708
 20
16.91298187400005
 30
0.0
 10
102.2473830410173
 20
17.54791297193157
 30
0.0
 10
102.2473830410173
 20
18.6019399356438
 30
0.0
 10
102.2473830410173
 20
19.60515174094857
 30
0.0
 10
101.6251987963811
 20
20.25265743740127
 30
0.0
 10
100.7744324662986
 20
20.25265743740127
 30
0.0
  0
SPLINE
  5
983
330
70
100
AcDbEntity
  8
Livello 1
100
AcDbSpline
210
0.0
220
0.0
230
1.0
 70
     9
 71
     3
 72
    17
 73
    13
 74
     0
 42
0.000000001
 43
0.0000000001
 40
0.0
 40
0.0
 40
0.0
 40
0.0
 40
1.0
 40
1.0
 40
1.0
 40
2.0
 40
2.0
 40
2.0
 40
3.0
 40
3.0
 40
3.0
 40
4.0
 40
4.0
 40
4.0
 40
4.0
 10
96.64738032974367
 20
17.17963226455836
 30
0.0
 10
97.47282520800949
 20
17.17963226455836
 30
0.0
 10
97.91724252560678
 20
17.80181650919448
 30
0.0
 10
98.17114606286965
 20
18.75421315609179
 30
0.0
 10
97.92998937890217
 20
19.46545311902167
 30
0.0
 10
97.42201004960207
 20
20.01132849865945
 30
0.0
 10
96.67270178156028
 20
20.01132849865945
 30
0.0
 10
96.01244923181207
 20
20.01132849865945
 30
0.0
 10
95.32670297547307
 20
19.61772633946967
 30
0.0
 10
95.32670297547307
 20
18.61451453416495
 30
0.0
 10
95.32670297547307
 20
17.68761159385846
 30
0.0
 10
95.93631262158806
 20
17.17963226455836
 30
0.0
 10
96.64738032974367
 20
17.17963226455836
 30
0.0
  0
SPLINE
  5
984
330
70
100
AcDbEntity
  8
Livello 1
100
AcDbSpline
210
0.0
220
0.0
230
1.0
 70
     9
 71
     3
 72
    35
 73
    31
 74
     0
 42
0.000000001
 43
0.0000000001
 40
0.0
 40
0.0
 40
0.0
 40
0.0
 40
1.0
 40
1.0
 40
1.0
 40
2.0
 40
2.0
 40
2.0
 40
3.0
 40
3.0
 40
3.0
 40
4.0
 40
4.0
 40
4.0
 40
5.0
 40
5.0
 40
5.0
 40
6.0
 40
6.0
 40
6.0
 40
7.0
 40
7.0
 40
7.0
 40
8.0
 40
8.0
 40
8.0
 40
9.0
 40
9.0
 40
9.0
 40
10.0
 40
10.0
 40
10.0
 40
10.0
 10
100.8250753699318
 20
15.80831200665469
 30
0.0
 10
99.78379525951508
 20
15.80831200665469
 30
0.0
 10
99.04740609954298
 20
16.43049625129077
 30
0.0
 10
98.61556338046689
 20
17.44628265511679
 30
0.0
 10
98.61556338046689
 20
17.44628265511679
 30
0.0
 10
98.57749507535487
 20
17.43370805659555
 30
0.0
 10
98.57749507535487
 20
17.43370805659555
 30
0.0
 10
98.1458246110531
 20
16.51937971481027
 30
0.0
 10
97.43458464812327
 20
16.12577755562046
 30
0.0
 10
96.72351693996766
 20
16.12577755562046
 30
0.0
 10
95.41558643899257
 20
16.12577755562046
 30
0.0
 10
94.52675180379808
 20
17.23044742296577
 30
0.0
 10
94.52675180379808
 20
18.67807654586778
 30
0.0
 10
94.52675180379808
 20
20.27815114399206
 30
0.0
 10
95.52996360910288
 20
21.07810231566708
 30
0.0
 10
96.55849686622417
 20
21.07810231566708
 30
0.0
 10
97.25681772108437
 20
21.07810231566708
 30
0.0
 10
98.00612598912616
 20
20.73514306011049
 30
0.0
 10
98.48861161183549
 20
19.71935665628456
 30
0.0
 10
98.48861161183549
 20
19.71935665628456
 30
0.0
 10
98.52667991694747
 20
19.71935665628456
 30
0.0
 10
98.52667991694747
 20
19.71935665628456
 30
0.0
 10
98.93302892943268
 20
20.74788991340589
 30
0.0
 10
99.65684349088368
 20
21.38282101133748
 30
0.0
 10
100.6600552961883
 20
21.38282101133748
 30
0.0
 10
102.0949375657949
 20
21.38282101133748
 30
0.0
 10
103.0600810659876
 20
20.15102712058638
 30
0.0
 10
103.0600810659876
 20
18.57644622905286
 30
0.0
 10
103.0600810659876
 20
16.84959211707147
 30
0.0
 10
102.0315478088663
 20
15.80831200665469
 30
0.0
 10
100.8250753699318
 20
15.80831200665469
 30
0.0
  0
HATCH
  5
985
330
70
100
AcDbEntity
  8
Livello 1
440
 33554687
100
AcDbHatch
 10
0.0
 20
0.0
 30
0.0
210
0.0
220
0.0
230
1.0
  2
SOLID
 70
     1
 71
     0
 91
        3
 92
        1
 93
        1
 72
     4
 94
        3
 73
     0
 74
     0
 95
       17
 96
       13
 40
0.0
 40
0.0
 40
0.0
 40
0.0
 40
1.0
 40
1.0
 40
1.0
 40
2.0
 40
2.0
 40
2.0
 40
3.0
 40
3.0
 40
3.0
 40
4.0
 40
4.0
 40
4.0
 40
4.0
 10
100.7744324662986
 20
20.25265743740127
 10
99.77122066099397
 20
20.25265743740127
 10
99.28856278351048
 20
19.55433658254105
 10
98.97109723454468
 20
18.43674760712605
 10
99.25049447839846
 20
17.47177636170755
 10
99.88542557632996
 20
16.95105017911206
 10
100.6728021494838
 20
16.95105017911206
 10
101.5108216262708
 20
16.91298187400005
 10
102.2473830410173
 20
17.54791297193157
 10
102.2473830410173
 20
18.6019399356438
 10
102.2473830410173
 20
19.60515174094857
 10
101.6251987963811
 20
20.25265743740127
 10
100.7744324662986
 20
20.25265743740127
 97
        0
 97
        0
 92
        1
 93
        1
 72
     4
 94
        3
 73
     0
 74
     0
 95
       17
 96
       13
 40
0.0
 40
0.0
 40
0.0
 40
0.0
 40
1.0
 40
1.0
 40
1.0
 40
2.0
 40
2.0
 40
2.0
 40
3.0
 40
3.0
 40
3.0
 40
4.0
 40
4.0
 40
4.0
 40
4.0
 10
96.64738032974367
 20
17.17963226455836
 10
97.47282520800949
 20
17.17963226455836
 10
97.91724252560678
 20
17.80181650919448
 10
98.17114606286965
 20
18.75421315609179
 10
97.92998937890217
 20
19.46545311902167
 10
97.42201004960207
 20
20.01132849865945
 10
96.67270178156028
 20
20.01132849865945
 10
96.01244923181207
 20
20.01132849865945
 10
95.32670297547307
 20
19.61772633946967
 10
95.32670297547307
 20
18.61451453416495
 10
95.32670297547307
 20
17.68761159385846
 10
95.93631262158806
 20
17.17963226455836
 10
96.64738032974367
 20
17.17963226455836
 97
        0
 97
        0
 92
        1
 93
        1
 72
     4
 94
        3
 73
     0
 74
     0
 95
       35
 96
       31
 40
0.0
 40
0.0
 40
0.0
 40
0.0
 40
1.0
 40
1.0
 40
1.0
 40
2.0
 40
2.0
 40
2.0
 40
3.0
 40
3.0
 40
3.0
 40
4.0
 40
4.0
 40
4.0
 40
5.0
 40
5.0
 40
5.0
 40
6.0
 40
6.0
 40
6.0
 40
7.0
 40
7.0
 40
7.0
 40
8.0
 40
8.0
 40
8.0
 40
9.0
 40
9.0
 40
9.0
 40
10.0
 40
10.0
 40
10.0
 40
10.0
 10
100.8250753699318
 20
15.80831200665469
 10
99.78379525951508
 20
15.80831200665469
 10
99.04740609954298
 20
16.43049625129077
 10
98.61556338046689
 20
17.44628265511679
 10
98.61556338046689
 20
17.44628265511679
 10
98.57749507535487
 20
17.43370805659555
 10
98.57749507535487
 20
17.43370805659555
 10
98.1458246110531
 20
16.51937971481027
 10
97.43458464812327
 20
16.12577755562046
 10
96.72351693996766
 20
16.12577755562046
 10
95.41558643899257
 20
16.12577755562046
 10
94.52675180379808
 20
17.23044742296577
 10
94.52675180379808
 20
18.67807654586778
 10
94.52675180379808
 20
20.27815114399206
 10
95.52996360910288
 20
21.07810231566708
 10
96.55849686622417
 20
21.07810231566708
 10
97.25681772108437
 20
21.07810231566708
 10
98.00612598912616
 20
20.73514306011049
 10
98.48861161183549
 20
19.71935665628456
 10
98.48861161183549
 20
19.71935665628456
 10
98.52667991694747
 20
19.71935665628456
 10
98.52667991694747
 20
19.71935665628456
 10
98.93302892943268
 20
20.74788991340589
 10
99.65684349088368
 20
21.38282101133748
 10
100.6600552961883
 20
21.38282101133748
 10
102.0949375657949
 20
21.38282101133748
 10
103.0600810659876
 20
20.15102712058638
 10
103.0600810659876
 20
18.57644622905286
 10
103.0600810659876
 20
16.84959211707147
 10
102.0315478088663
 20
15.80831200665469
 10
100.8250753699318
 20
15.80831200665469
 97
        0
 97
        0
 75
     2
 76
     1
 98
        1
 10
-25.21047011722243
 20
161.6957034632384
450
        0
451
        0
460
0.0
461
0.0
452
        0
462
0.0
453
        0
470

  0
SPLINE
  5
986
330
70
100
AcDbEntity
  8
Livello 1
100
AcDbSpline
210
0.0
220
0.0
230
1.0
 70
     9
 71
     3
 72
    17
 73
    13
 74
     0
 42
0.000000001
 43
0.0000000001
 40
0.0
 40
0.0
 40
0.0
 40
0.0
 40
1.0
 40
1.0
 40
1.0
 40
2.0
 40
2.0
 40
2.0
 40
3.0
 40
3.0
 40
3.0
 40
4.0
 40
4.0
 40
4.0
 40
4.0
 10
104.4822164822988
 20
22.05633717870378
 30
0.0
 10
103.7330804690313
 20
22.33573442255758
 30
0.0
 10
102.3743348096486
 20
22.67869367811417
 30
0.0
 10
101.4474318693423
 20
22.8183923000411
 30
0.0
 10
101.4474318693423
 20
22.8183923000411
 30
0.0
 10
101.3203078459365
 20
24.06276078931327
 30
0.0
 10
101.3203078459365
 20
24.06276078931327
 30
0.0
 10
102.3998285162396
 20
23.77078894693838
 30
0.0
 10
103.8092170792552
 20
23.21199445923088
 30
0.0
 10
104.4060798720747
 20
22.85646060515308
 30
0.0
 10
104.4060798720747
 20
22.85646060515308
 30
0.0
 10
104.4822164822988
 20
22.05633717870378
 30
0.0
 10
104.4822164822988
 20
22.05633717870378
 30
0.0
  0
HATCH
  5
987
330
70
100
AcDbEntity
  8
Livello 1
440
 33554687
100
AcDbHatch
 10
0.0
 20
0.0
 30
0.0
210
0.0
220
0.0
230
1.0
  2
SOLID
 70
     1
 71
     0
 91
        1
 92
        1
 93
        1
 72
     4
 94
        3
 73
     0
 74
     0
 95
       17
 96
       13
 40
0.0
 40
0.0
 40
0.0
 40
0.0
 40
1.0
 40
1.0
 40
1.0
 40
2.0
 40
2.0
 40
2.0
 40
3.0
 40
3.0
 40
3.0
 40
4.0
 40
4.0
 40
4.0
 40
4.0
 10
104.4822164822988
 20
22.05633717870378
 10
103.7330804690313
 20
22.33573442255758
 10
102.3743348096486
 20
22.67869367811417
 10
101.4474318693423
 20
22.8183923000411
 10
101.4474318693423
 20
22.8183923000411
 10
101.3203078459365
 20
24.06276078931327
 10
101.3203078459365
 20
24.06276078931327
 10
102.3998285162396
 20
23.77078894693838
 10
103.8092170792552
 20
23.21199445923088
 10
104.4060798720747
 20
22.85646060515308
 10
104.4060798720747
 20
22.85646060515308
 10
104.4822164822988
 20
22.05633717870378
 10
104.4822164822988
 20
22.05633717870378
 97
        0
 97
        0
 75
     2
 76
     1
 98
        1
 10
-25.21047011722243
 20
161.6957034632384
450
        0
451
        0
460
0.0
461
0.0
452
        0
462
0.0
453
        0
470

  0
SPLINE
  5
988
330
70
100
AcDbEntity
  8
Livello 1
100
AcDbSpline
210
0.0
220
0.0
230
1.0
 70
    11
 71
     3
 72
    50
 73
    46
 74
     0
 42
0.000000001
 43
0.0000000001
 40
0.0
 40
0.0
 40
0.0
 40
0.0
 40
1.0
 40
1.0
 40
1.0
 40
2.0
 40
2.0
 40
2.0
 40
3.0
 40
3.0
 40
3.0
 40
4.0
 40
4.0
 40
4.0
 40
5.0
 40
5.0
 40
5.0
 40
6.0
 40
6.0
 40
6.0
 40
7.0
 40
7.0
 40
7.0
 40
8.0
 40
8.0
 40
8.0
 40
9.0
 40
9.0
 40
9.0
 40
10.0
 40
10.0
 40
10.0
 40
11.0
 40
11.0
 40
11.0
 40
12.0
 40
12.0
 40
12.0
 40
13.0
 40
13.0
 40
13.0
 40
14.0
 40
14.0
 40
14.0
 40
15.0
 40
15.0
 40
15.0
 40
15.0
 10
95.60610021932687
 20
29.98040130432696
 30
0.0
 10
95.60610021932687
 20
29.98040130432696
 30
0.0
 10
95.60610021932687
 20
26.83123952126007
 30
0.0
 10
95.60610021932687
 20
26.83123952126007
 30
0.0
 10
95.60610021932687
 20
26.83123952126007
 30
0.0
 10
97.72672874527248
 20
26.51377397229428
 30
0.0
 10
97.72672874527248
 20
26.51377397229428
 30
0.0
 10
97.70140729345586
 20
26.70428775262858
 30
0.0
 10
97.67591358686498
 20
26.88205467966748
 30
0.0
 10
97.67591358686498
 20
27.18677337533788
 30
0.0
 10
97.67591358686498
 20
27.82170447326937
 30
0.0
 10
97.81561220879186
 20
28.45663557120096
 30
0.0
 10
98.12033090446217
 20
28.96461490050109
 30
0.0
 10
98.48861161183549
 20
29.61212059695379
 30
0.0
 10
99.19967931999098
 20
30.14559363284468
 30
0.0
 10
100.2409594304077
 20
30.14559363284468
 30
0.0
 10
101.8537808818275
 20
30.14559363284468
 30
0.0
 10
103.0600810659876
 20
28.86298458368617
 30
0.0
 10
103.0600810659876
 20
27.07256846000186
 30
0.0
 10
103.0600810659876
 20
26.1709869715119
 30
0.0
 10
102.8061775287248
 20
25.40893185017467
 30
0.0
 10
102.5521017366876
 20
25.01532969098489
 30
0.0
 10
102.5521017366876
 20
25.01532969098489
 30
0.0
 10
101.7013354066051
 20
25.29472693483868
 30
0.0
 10
101.7013354066051
 20
25.29472693483868
 30
0.0
 10
101.9045960402348
 20
25.63751393562097
 30
0.0
 10
102.1584995774978
 20
26.31068559343879
 30
0.0
 10
102.1584995774978
 20
27.05982160670638
 30
0.0
 10
102.1584995774978
 20
28.11384857041858
 30
0.0
 10
101.4727533211588
 20
29.01543005890847
 30
0.0
 10
100.3680834538134
 20
29.01543005890847
 30
0.0
 10
99.30130963680587
 20
29.00268320561307
 30
0.0
 10
98.53942677024289
 20
28.29161549745746
 30
0.0
 10
98.53942677024289
 20
26.64072574092577
 30
0.0
 10
98.53942677024289
 20
26.1709869715119
 30
0.0
 10
98.59024192865028
 20
25.80270626413867
 30
0.0
 10
98.62831023376228
 20
25.49798756846838
 30
0.0
 10
98.62831023376228
 20
25.49798756846838
 30
0.0
 10
94.66645042572498
 20
26.03128834958508
 30
0.0
 10
94.66645042572498
 20
26.03128834958508
 30
0.0
 10
94.66645042572498
 20
26.03128834958508
 30
0.0
 10
94.66645042572498
 20
29.98040130432696
 30
0.0
 10
94.66645042572498
 20
29.98040130432696
 30
0.0
 10
94.66645042572498
 20
29.98040130432696
 30
0.0
 10
95.60610021932687
 20
29.98040130432696
 30
0.0
 10
95.60610021932687
 20
29.98040130432696
 30
0.0
  0
HATCH
  5
989
330
70
100
AcDbEntity
  8
Livello 1
440
 33554687
100
AcDbHatch
 10
0.0
 20
0.0
 30
0.0
210
0.0
220
0.0
230
1.0
  2
SOLID
 70
     1
 71
     0
 91
        1
 92
        1
 93
        1
 72
     4
 94
        3
 73
     0
 74
     0
 95
       50
 96
       46
 40
0.0
 40
0.0
 40
0.0
 40
0.0
 40
1.0
 40
1.0
 40
1.0
 40
2.0
 40
2.0
 40
2.0
 40
3.0
 40
3.0
 40
3.0
 40
4.0
 40
4.0
 40
4.0
 40
5.0
 40
5.0
 40
5.0
 40
6.0
 40
6.0
 40
6.0
 40
7.0
 40
7.0
 40
7.0
 40
8.0
 40
8.0
 40
8.0
 40
9.0
 40
9.0
 40
9.0
 40
10.0
 40
10.0
 40
10.0
 40
11.0
 40
11.0
 40
11.0
 40
12.0
 40
12.0
 40
12.0
 40
13.0
 40
13.0
 40
13.0
 40
14.0
 40
14.0
 40
14.0
 40
15.0
 40
15.0
 40
15.0
 40
15.0
 10
95.60610021932687
 20
29.98040130432696
 10
95.60610021932687
 20
29.98040130432696
 10
95.60610021932687
 20
26.83123952126007
 10
95.60610021932687
 20
26.83123952126007
 10
95.60610021932687
 20
26.83123952126007
 10
97.72672874527248
 20
26.51377397229428
 10
97.72672874527248
 20
26.51377397229428
 10
97.70140729345586
 20
26.70428775262858
 10
97.67591358686498
 20
26.88205467966748
 10
97.67591358686498
 20
27.18677337533788
 10
97.67591358686498
 20
27.82170447326937
 10
97.81561220879186
 20
28.45663557120096
 10
98.12033090446217
 20
28.96461490050109
 10
98.48861161183549
 20
29.61212059695379
 10
99.19967931999098
 20
30.14559363284468
 10
100.2409594304077
 20
30.14559363284468
 10
101.8537808818275
 20
30.14559363284468
 10
103.0600810659876
 20
28.86298458368617
 10
103.0600810659876
 20
27.07256846000186
 10
103.0600810659876
 20
26.1709869715119
 10
102.8061775287248
 20
25.40893185017467
 10
102.5521017366876
 20
25.01532969098489
 10
102.5521017366876
 20
25.01532969098489
 10
101.7013354066051
 20
25.29472693483868
 10
101.7013354066051
 20
25.29472693483868
 10
101.9045960402348
 20
25.63751393562097
 10
102.1584995774978
 20
26.31068559343879
 10
102.1584995774978
 20
27.05982160670638
 10
102.1584995774978
 20
28.11384857041858
 10
101.4727533211588
 20
29.01543005890847
 10
100.3680834538134
 20
29.01543005890847
 10
99.30130963680587
 20
29.00268320561307
 10
98.53942677024289
 20
28.29161549745746
 10
98.53942677024289
 20
26.64072574092577
 10
98.53942677024289
 20
26.1709869715119
 10
98.59024192865028
 20
25.80270626413867
 10
98.62831023376228
 20
25.49798756846838
 10
98.62831023376228
 20
25.49798756846838
 10
94.66645042572498
 20
26.03128834958508
 10
94.66645042572498
 20
26.03128834958508
 10
94.66645042572498
 20
26.03128834958508
 10
94.66645042572498
 20
29.98040130432696
 10
94.66645042572498
 20
29.98040130432696
 10
94.66645042572498
 20
29.98040130432696
 10
95.60610021932687
 20
29.98040130432696
 10
95.60610021932687
 20
29.98040130432696
 97
        0
 97
        0
 75
     2
 76
     1
 98
        1
 10
-25.21047011722243
 20
161.6957034632384
450
        0
451
        0
460
0.0
461
0.0
452
        0
462
0.0
453
        0
470

  0
SPLINE
  5
98A
330
70
100
AcDbEntity
  8
Livello 1
100
AcDbSpline
210
0.0
220
0.0
230
1.0
 70
    11
 71
     3
 72
    29
 73
    25
 74
     0
 42
0.000000001
 43
0.0000000001
 40
0.0
 40
0.0
 40
0.0
 40
0.0
 40
1.0
 40
1.0
 40
1.0
 40
2.0
 40
2.0
 40
2.0
 40
3.0
 40
3.0
 40
3.0
 40
4.0
 40
4.0
 40
4.0
 40
5.0
 40
5.0
 40
5.0
 40
6.0
 40
6.0
 40
6.0
 40
7.0
 40
7.0
 40
7.0
 40
8.0
 40
8.0
 40
8.0
 40
8.0
 10
67.01835337317523
 20
-13.79539349809713
 30
0.0
 10
67.01835337317523
 20
-13.79539349809713
 30
0.0
 10
66.99285966658436
 20
-13.79539349809713
 30
0.0
 10
66.99285966658436
 20
-13.79539349809713
 30
0.0
 10
66.99285966658436
 20
-13.79539349809713
 30
0.0
 10
65.5579773969778
 20
-14.5701954727298
 30
0.0
 10
65.5579773969778
 20
-14.5701954727298
 30
0.0
 10
65.5579773969778
 20
-14.5701954727298
 30
0.0
 10
65.34214216482692
 20
-13.71925688787311
 30
0.0
 10
65.34214216482692
 20
-13.71925688787311
 30
0.0
 10
65.34214216482692
 20
-13.71925688787311
 30
0.0
 10
67.14530514180669
 20
-12.75428564245465
 30
0.0
 10
67.14530514180669
 20
-12.75428564245465
 30
0.0
 10
67.14530514180669
 20
-12.75428564245465
 30
0.0
 10
68.09770178870401
 20
-12.75428564245465
 30
0.0
 10
68.09770178870401
 20
-12.75428564245465
 30
0.0
 10
68.09770178870401
 20
-12.75428564245465
 30
0.0
 10
68.09770178870401
 20
-21.00804540601624
 30
0.0
 10
68.09770178870401
 20
-21.00804540601624
 30
0.0
 10
68.09770178870401
 20
-21.00804540601624
 30
0.0
 10
67.01835337317523
 20
-21.00804540601624
 30
0.0
 10
67.01835337317523
 20
-21.00804540601624
 30
0.0
 10
67.01835337317523
 20
-21.00804540601624
 30
0.0
 10
67.01835337317523
 20
-13.79539349809713
 30
0.0
 10
67.01835337317523
 20
-13.79539349809713
 30
0.0
  0
HATCH
  5
98B
330
70
100
AcDbEntity
  8
Livello 1
440
 33554687
100
AcDbHatch
 10
0.0
 20
0.0
 30
0.0
210
0.0
220
0.0
230
1.0
  2
SOLID
 70
     1
 71
     0
 91
        1
 92
        1
 93
        1
 72
     4
 94
        3
 73
     0
 74
     0
 95
       29
 96
       25
 40
0.0
 40
0.0
 40
0.0
 40
0.0
 40
1.0
 40
1.0
 40
1.0
 40
2.0
 40
2.0
 40
2.0
 40
3.0
 40
3.0
 40
3.0
 40
4.0
 40
4.0
 40
4.0
 40
5.0
 40
5.0
 40
5.0
 40
6.0
 40
6.0
 40
6.0
 40
7.0
 40
7.0
 40
7.0
 40
8.0
 40
8.0
 40
8.0
 40
8.0
 10
67.01835337317523
 20
-13.79539349809713
 10
67.01835337317523
 20
-13.79539349809713
 10
66.99285966658436
 20
-13.79539349809713
 10
66.99285966658436
 20
-13.79539349809713
 10
66.99285966658436
 20
-13.79539349809713
 10
65.5579773969778
 20
-14.5701954727298
 10
65.5579773969778
 20
-14.5701954727298
 10
65.5579773969778
 20
-14.5701954727298
 10
65.34214216482692
 20
-13.71925688787311
 10
65.34214216482692
 20
-13.71925688787311
 10
65.34214216482692
 20
-13.71925688787311
 10
67.14530514180669
 20
-12.75428564245465
 10
67.14530514180669
 20
-12.75428564245465
 10
67.14530514180669
 20
-12.75428564245465
 10
68.09770178870401
 20
-12.75428564245465
 10
68.09770178870401
 20
-12.75428564245465
 10
68.09770178870401
 20
-12.75428564245465
 10
68.09770178870401
 20
-21.00804540601624
 10
68.09770178870401
 20
-21.00804540601624
 10
68.09770178870401
 20
-21.00804540601624
 10
67.01835337317523
 20
-21.00804540601624
 10
67.01835337317523
 20
-21.00804540601624
 10
67.01835337317523
 20
-21.00804540601624
 10
67.01835337317523
 20
-13.79539349809713
 10
67.01835337317523
 20
-13.79539349809713
 97
        0
 97
        0
 75
     2
 76
     1
 98
        1
 10
-25.21047011722243
 20
161.6957034632384
450
        0
451
        0
460
0.0
461
0.0
452
        0
462
0.0
453
        0
470

  0
SPLINE
  5
98C
330
70
100
AcDbEntity
  8
Livello 1
100
AcDbSpline
210
0.0
220
0.0
230
1.0
 70
     9
 71
     3
 72
    20
 73
    16
 74
     0
 42
0.000000001
 43
0.0000000001
 40
0.0
 40
0.0
 40
0.0
 40
0.0
 40
1.0
 40
1.0
 40
1.0
 40
2.0
 40
2.0
 40
2.0
 40
3.0
 40
3.0
 40
3.0
 40
4.0
 40
4.0
 40
4.0
 40
5.0
 40
5.0
 40
5.0
 40
5.0
 10
72.16170867787899
 20
-15.47177696121972
 30
0.0
 10
72.16170867787899
 20
-16.50013796356683
 30
0.0
 10
72.78389292251508
 20
-17.22395252501781
 30
0.0
 10
73.7490364227078
 20
-17.22395252501781
 30
0.0
 10
74.49817243597542
 20
-17.22395252501781
 30
0.0
 10
75.08228837549947
 20
-16.8556718176446
 30
0.0
 10
75.37443247264867
 20
-16.36061159641423
 30
0.0
 10
75.43782222957727
 20
-16.25898127959931
 30
0.0
 10
75.47606278946357
 20
-16.13185725619362
 30
0.0
 10
75.47606278946357
 20
-15.95409032915475
 30
0.0
 10
75.47606278946357
 20
-14.54470176613904
 30
0.0
 10
74.95533660686807
 20
-13.46535335061023
 30
0.0
 10
73.78710472781985
 20
-13.46535335061023
 30
0.0
 10
72.83470808092253
 20
-13.46535335061023
 30
0.0
 10
72.16170867787899
 20
-14.30354508217152
 30
0.0
 10
72.16170867787899
 20
-15.47177696121972
 30
0.0
  0
SPLINE
  5
98D
330
70
100
AcDbEntity
  8
Livello 1
100
AcDbSpline
210
0.0
220
0.0
230
1.0
 70
     9
 71
     3
 72
    41
 73
    37
 74
     0
 42
0.000000001
 43
0.0000000001
 40
0.0
 40
0.0
 40
0.0
 40
0.0
 40
1.0
 40
1.0
 40
1.0
 40
2.0
 40
2.0
 40
2.0
 40
3.0
 40
3.0
 40
3.0
 40
4.0
 40
4.0
 40
4.0
 40
5.0
 40
5.0
 40
5.0
 40
6.0
 40
6.0
 40
6.0
 40
7.0
 40
7.0
 40
7.0
 40
8.0
 40
8.0
 40
8.0
 40
9.0
 40
9.0
 40
9.0
 40
10.0
 40
10.0
 40
10.0
 40
11.0
 40
11.0
 40
11.0
 40
12.0
 40
12.0
 40
12.0
 40
12.0
 10
71.75535966539377
 20
-20.22084108763664
 30
0.0
 10
71.99668860413551
 20
-20.24633479422752
 30
0.0
 10
72.275913593215
 20
-20.22084108763664
 30
0.0
 10
72.65694115388363
 20
-20.18260052775031
 30
0.0
 10
73.30461910511061
 20
-20.09371706423096
 30
0.0
 10
73.91405649645133
 20
-19.82706667367265
 30
0.0
 10
74.38396752063941
 20
-19.38264935607532
 30
0.0
 10
74.93001515505148
 20
-18.88758913484494
 30
0.0
 10
75.32361731424128
 20
-18.16377457339405
 30
0.0
 10
75.47606278946357
 20
-17.18605647468001
 30
0.0
 10
75.47606278946357
 20
-17.18605647468001
 30
0.0
 10
75.43782222957727
 20
-17.18605647468001
 30
0.0
 10
75.43782222957727
 20
-17.18605647468001
 30
0.0
 10
74.98083031345888
 20
-17.74450645283906
 30
0.0
 10
74.32040550893653
 20
-18.07489110987453
 30
0.0
 10
73.49496063067066
 20
-18.07489110987453
 30
0.0
 10
72.00926320265669
 20
-18.07489110987453
 30
0.0
 10
71.05686655575937
 20
-16.95730213445952
 30
0.0
 10
71.05686655575937
 20
-15.5479135714437
 30
0.0
 10
71.05686655575937
 20
-13.98590727843154
 30
0.0
 10
72.18703012969555
 20
-12.61441476575351
 30
0.0
 10
73.87598819133931
 20
-12.61441476575351
 30
0.0
 10
75.56494625298298
 20
-12.61441476575351
 30
0.0
 10
76.60622636339977
 20
-13.98590727843154
 30
0.0
 10
76.60622636339977
 20
-16.09396120585583
 30
0.0
 10
76.60622636339977
 20
-17.90987103613102
 30
0.0
 10
75.99661671728476
 20
-19.17973323199413
 30
0.0
 10
75.18391869231438
 20
-19.96693755037373
 30
0.0
 10
74.54898759438285
 20
-20.58912179500982
 30
0.0
 10
73.6728998124838
 20
-20.97014935567845
 30
0.0
 10
72.78389292251508
 20
-21.07177967249334
 30
0.0
 10
72.37754391002988
 20
-21.13516942942192
 30
0.0
 10
72.02201005595208
 20
-21.14791628271732
 30
0.0
 10
71.75535966539377
 20
-21.13516942942192
 30
0.0
 10
71.75535966539377
 20
-21.13516942942192
 30
0.0
 10
71.75535966539377
 20
-20.22084108763664
 30
0.0
 10
71.75535966539377
 20
-20.22084108763664
 30
0.0
  0
HATCH
  5
98E
330
70
100
AcDbEntity
  8
Livello 1
440
 33554687
100
AcDbHatch
 10
0.0
 20
0.0
 30
0.0
210
0.0
220
0.0
230
1.0
  2
SOLID
 70
     1
 71
     0
 91
        2
 92
        1
 93
        1
 72
     4
 94
        3
 73
     0
 74
     0
 95
       20
 96
       16
 40
0.0
 40
0.0
 40
0.0
 40
0.0
 40
1.0
 40
1.0
 40
1.0
 40
2.0
 40
2.0
 40
2.0
 40
3.0
 40
3.0
 40
3.0
 40
4.0
 40
4.0
 40
4.0
 40
5.0
 40
5.0
 40
5.0
 40
5.0
 10
72.16170867787899
 20
-15.47177696121972
 10
72.16170867787899
 20
-16.50013796356683
 10
72.78389292251508
 20
-17.22395252501781
 10
73.7490364227078
 20
-17.22395252501781
 10
74.49817243597542
 20
-17.22395252501781
 10
75.08228837549947
 20
-16.8556718176446
 10
75.37443247264867
 20
-16.36061159641423
 10
75.43782222957727
 20
-16.25898127959931
 10
75.47606278946357
 20
-16.13185725619362
 10
75.47606278946357
 20
-15.95409032915475
 10
75.47606278946357
 20
-14.54470176613904
 10
74.95533660686807
 20
-13.46535335061023
 10
73.78710472781985
 20
-13.46535335061023
 10
72.83470808092253
 20
-13.46535335061023
 10
72.16170867787899
 20
-14.30354508217152
 10
72.16170867787899
 20
-15.47177696121972
 97
        0
 97
        0
 92
        1
 93
        1
 72
     4
 94
        3
 73
     0
 74
     0
 95
       41
 96
       37
 40
0.0
 40
0.0
 40
0.0
 40
0.0
 40
1.0
 40
1.0
 40
1.0
 40
2.0
 40
2.0
 40
2.0
 40
3.0
 40
3.0
 40
3.0
 40
4.0
 40
4.0
 40
4.0
 40
5.0
 40
5.0
 40
5.0
 40
6.0
 40
6.0
 40
6.0
 40
7.0
 40
7.0
 40
7.0
 40
8.0
 40
8.0
 40
8.0
 40
9.0
 40
9.0
 40
9.0
 40
10.0
 40
10.0
 40
10.0
 40
11.0
 40
11.0
 40
11.0
 40
12.0
 40
12.0
 40
12.0
 40
12.0
 10
71.75535966539377
 20
-20.22084108763664
 10
71.99668860413551
 20
-20.24633479422752
 10
72.275913593215
 20
-20.22084108763664
 10
72.65694115388363
 20
-20.18260052775031
 10
73.30461910511061
 20
-20.09371706423096
 10
73.91405649645133
 20
-19.82706667367265
 10
74.38396752063941
 20
-19.38264935607532
 10
74.93001515505148
 20
-18.88758913484494
 10
75.32361731424128
 20
-18.16377457339405
 10
75.47606278946357
 20
-17.18605647468001
 10
75.47606278946357
 20
-17.18605647468001
 10
75.43782222957727
 20
-17.18605647468001
 10
75.43782222957727
 20
-17.18605647468001
 10
74.98083031345888
 20
-17.74450645283906
 10
74.32040550893653
 20
-18.07489110987453
 10
73.49496063067066
 20
-18.07489110987453
 10
72.00926320265669
 20
-18.07489110987453
 10
71.05686655575937
 20
-16.95730213445952
 10
71.05686655575937
 20
-15.5479135714437
 10
71.05686655575937
 20
-13.98590727843154
 10
72.18703012969555
 20
-12.61441476575351
 10
73.87598819133931
 20
-12.61441476575351
 10
75.56494625298298
 20
-12.61441476575351
 10
76.60622636339977
 20
-13.98590727843154
 10
76.60622636339977
 20
-16.09396120585583
 10
76.60622636339977
 20
-17.90987103613102
 10
75.99661671728476
 20
-19.17973323199413
 10
75.18391869231438
 20
-19.96693755037373
 10
74.54898759438285
 20
-20.58912179500982
 10
73.6728998124838
 20
-20.97014935567845
 10
72.78389292251508
 20
-21.07177967249334
 10
72.37754391002988
 20
-21.13516942942192
 10
72.02201005595208
 20
-21.14791628271732
 10
71.75535966539377
 20
-21.13516942942192
 10
71.75535966539377
 20
-21.13516942942192
 10
71.75535966539377
 20
-20.22084108763664
 10
71.75535966539377
 20
-20.22084108763664
 97
        0
 97
        0
 75
     2
 76
     1
 98
        1
 10
-25.21047011722243
 20
161.6957034632384
450
        0
451
        0
460
0.0
461
0.0
452
        0
462
0.0
453
        0
470

  0
ENDSEC
  0
SECTION
  2
OBJECTS
  0
DICTIONARY
  5
C
330
0
100
AcDbDictionary
281
     1
  3
ACAD_CIP_PREVIOUS_PRODUCT_INFO
350
59B
  3
ACAD_COLOR
350
63
  3
ACAD_DETAILVIEWSTYLE
350
6A
  3
ACAD_GROUP
350
D
  3
ACAD_LAYOUT
350
62
  3
ACAD_MATERIAL
350
10
  3
ACAD_MLEADERSTYLE
350
66
  3
ACAD_MLINESTYLE
350
5F
  3
ACAD_PLOTSETTINGS
350
61
  3
ACAD_PLOTSTYLENAME
350
E
  3
ACAD_SCALELIST
350
42
  3
ACAD_SECTIONVIEWSTYLE
350
68
  3
ACAD_TABLESTYLE
350
64
  3
ACAD_VISUALSTYLE
350
29
  3
ACDB_RECOMPOSE_DATA
350
990
  3
AcDbVariableDictionary
350
558
  0
DICTIONARY
  5
59D
330
70
100
AcDbDictionary
280
     1
281
     1
  3
ACAD_SORTENTS
360
59E
  0
XRECORD
  5
59B
102
{ACAD_REACTORS
330
C
102
}
330
C
100
AcDbXrecord
280
     1
300
ACD
300
2019
300
ACD_F_S
  0
DICTIONARY
  5
63
102
{ACAD_REACTORS
330
C
102
}
330
C
100
AcDbDictionary
281
     1
  0
DICTIONARY
  5
6A
102
{ACAD_REACTORS
330
C
102
}
330
C
100
AcDbDictionary
281
     1
  3
Imperial24
350
6B
  0
DICTIONARY
  5
D
102
{ACAD_REACTORS
330
C
102
}
330
C
100
AcDbDictionary
281
     1
  0
DICTIONARY
  5
62
102
{ACAD_REACTORS
330
C
102
}
330
C
100
AcDbDictionary
281
     1
  3
Layout1
350
6F
  3
Layout2
350
77
  3
Model
350
73
  0
DICTIONARY
  5
10
102
{ACAD_REACTORS
330
C
102
}
330
C
100
AcDbDictionary
281
     1
  3
ByBlock
350
19
  3
ByLayer
350
11
  3
Global
350
21
  0
DICTIONARY
  5
66
102
{ACAD_REACTORS
330
C
102
}
330
C
100
AcDbDictionary
281
     1
  3
Standard
350
67
  0
DICTIONARY
  5
5F
102
{ACAD_REACTORS
330
C
102
}
330
C
100
AcDbDictionary
281
     1
  3
Standard
350
60
  0
DICTIONARY
  5
61
102
{ACAD_REACTORS
330
C
102
}
330
C
100
AcDbDictionary
281
     1
  0
ACDBDICTIONARYWDFLT
  5
E
102
{ACAD_REACTORS
330
C
102
}
330
C
100
AcDbDictionary
281
     1
  3
Normal
350
F
100
AcDbDictionaryWithDefault
340
F
  0
DICTIONARY
  5
42
102
{ACAD_REACTORS
330
C
102
}
330
C
100
AcDbDictionary
281
     1
  3
A0
350
43
  3
A1
350
44
  3
A2
350
45
  3
A3
350
46
  3
A4
350
47
  3
A5
350
48
  3
A6
350
49
  3
A7
350
4A
  3
A8
350
4B
  3
A9
350
4C
  3
B0
350
4D
  3
B1
350
4E
  3
B2
350
4F
  3
B3
350
50
  3
B4
350
51
  3
B5
350
52
  3
B6
350
53
  0
DICTIONARY
  5
68
102
{ACAD_REACTORS
330
C
102
}
330
C
100
AcDbDictionary
281
     1
  3
Imperial24
350
69
  0
DICTIONARY
  5
64
102
{ACAD_REACTORS
330
C
102
}
330
C
100
AcDbDictionary
281
     1
  3
Standard
350
65
  0
DICTIONARY
  5
29
102
{ACAD_REACTORS
330
C
102
}
330
C
100
AcDbDictionary
281
     1
  3
2dWireframe
350
2F
  3
Basic
350
2E
  3
Brighten
350
35
  3
ColorChange
350
39
  3
Conceptual
350
32
  3
Dim
350
34
  3
EdgeColorOff
350
41
  3
Facepattern
350
38
  3
Flat
350
2A
  3
FlatWithEdges
350
2B
  3
Gouraud
350
2C
  3
GouraudWithEdges
350
2D
  3
Hidden
350
31
  3
JitterOff
350
3F
  3
Linepattern
350
37
  3
OverhangOff
350
40
  3
Realistic
350
33
  3
Shaded
350
3E
  3
Shaded with edges
350
3D
  3
Shades of Gray
350
3A
  3
Sketchy
350
3B
  3
Thicken
350
36
  3
Wireframe
350
30
  3
X-Ray
350
3C
  0
XRECORD
  5
990
102
{ACAD_REACTORS
330
C
102
}
330
C
100
AcDbXrecord
280
     1
 90
        1
330
65
  0
DICTIONARY
  5
558
102
{ACAD_REACTORS
330
C
102
}
330
C
100
AcDbDictionary
281
     1
  3
CANNOSCALE
350
55D
  3
CMLEADERSTYLE
350
55A
  3
CTABLESTYLE
350
559
  3
CVIEWDETAILSTYLE
350
55B
  3
CVIEWSECTIONSTYLE
350
55C
  0
SORTENTSTABLE
  5
59E
102
{ACAD_REACTORS
330
59D
102
}
330
59D
100
AcDbSortentsTable
330
70
  0
ACDBDETAILVIEWSTYLE
  5
6B
102
{ACAD_XDICTIONARY
360
993
102
}
102
{ACAD_REACTORS
330
6A
102
}
330
6A
100
AcDbModelDocViewStyle
 70
     0
  3
Imperial24
290
     0
100
AcDbDetailViewStyle
 70
     0
 71
     0
 90
        3
 71
     1
340
55
 62
   256
 40
0.24
340
0
 62
   256
 40
0.24
300

 40
0.36
280
     3
 71
     2
340
5D
 90
       25
 62
   256
 71
     3
340
55
 62
   256
 40
0.24
 90
        1
 40
0.75
 90
        1
300
%<\AcVar ViewType \f "%tc1">% %<\AcVar ViewDetailId>%\PSCALE %<\AcVar ViewScale \f "%sn">%
 71
     4
340
5D
 90
       25
 62
   256
340
5D
 90
       25
 62
   256
280
     0
  0
LAYOUT
  5
6F
102
{ACAD_REACTORS
330
62
102
}
330
62
100
AcDbPlotSettings
  1

  2

  4

  6

 40
0.0
 41
0.0
 42
0.0
 43
0.0
 44
0.0
 45
0.0
 46
0.0
 47
0.0
 48
0.0
 49
0.0
140
0.0
141
0.0
142
1.0
143
1.0
 70
   688
 72
     0
 73
     0
 74
     5
  7

 75
    16
147
1.0
 76
     0
 77
     2
 78
   300
148
0.0
149
0.0
100
AcDbLayout
  1
Layout1
 70
     1
 71
     1
 10
0.0
 20
0.0
 11
12.0
 21
9.0
 12
0.0
 22
0.0
 32
0.0
 14
1.000000000000000E+20
 24
1.000000000000000E+20
 34
1.000000000000000E+20
 15
-1.000000000000000E+20
 25
-1.000000000000000E+20
 35
-1.000000000000000E+20
146
0.0
 13
0.0
 23
0.0
 33
0.0
 16
1.0
 26
0.0
 36
0.0
 17
0.0
 27
1.0
 37
0.0
 76
     0
330
6C
  0
LAYOUT
  5
77
102
{ACAD_REACTORS
330
62
102
}
330
62
100
AcDbPlotSettings
  1

  2

  4

  6

 40
0.0
 41
0.0
 42
0.0
 43
0.0
 44
0.0
 45
0.0
 46
0.0
 47
0.0
 48
0.0
 49
0.0
140
0.0
141
0.0
142
1.0
143
1.0
 70
   688
 72
     0
 73
     0
 74
     5
  7

 75
    16
147
1.0
 76
     0
 77
     2
 78
   300
148
0.0
149
0.0
100
AcDbLayout
  1
Layout2
 70
     1
 71
     2
 10
0.0
 20
0.0
 11
12.0
 21
9.0
 12
0.0
 22
0.0
 32
0.0
 14
0.0
 24
0.0
 34
0.0
 15
0.0
 25
0.0
 35
0.0
146
0.0
 13
0.0
 23
0.0
 33
0.0
 16
1.0
 26
0.0
 36
0.0
 17
0.0
 27
1.0
 37
0.0
 76
     0
330
74
  0
LAYOUT
  5
73
102
{ACAD_REACTORS
330
62
102
}
330
62
100
AcDbPlotSettings
  1

  2

  4

  6

 40
0.0
 41
0.0
 42
0.0
 43
0.0
 44
0.0
 45
0.0
 46
0.0
 47
0.0
 48
0.0
 49
0.0
140
0.0
141
0.0
142
1.0
143
1.0
 70
  1712
 72
     0
 73
     0
 74
     0
  7

 75
     0
147
1.0
 76
     0
 77
     2
 78
   300
148
0.0
149
0.0
100
AcDbLayout
  1
Model
 70
     1
 71
     0
 10
0.0
 20
0.0
 11
12.0
 21
9.0
 12
0.0
 22
0.0
 32
0.0
 14
0.0
 24
0.0
 34
0.0
 15
0.0
 25
0.0
 35
0.0
146
0.0
 13
0.0
 23
0.0
 33
0.0
 16
1.0
 26
0.0
 36
0.0
 17
0.0
 27
1.0
 37
0.0
 76
     0
330
70
331
57
  0
MATERIAL
  5
19
102
{ACAD_XDICTIONARY
360
1A
102
}
102
{ACAD_REACTORS
330
10
102
}
330
10
100
AcDbMaterial
  1
ByBlock
 72
     0
 43
0.0208333333333333
 43
0.0
 43
0.0
 43
0.0
 43
0.0
 43
0.0208333333333333
 43
0.0
 43
0.0
 43
0.0
 43
0.0
 43
1.0
 43
0.0
 43
0.0
 43
0.0
 43
0.0
 43
1.0
 77
     0
 47
0.0208333333333333
 47
0.0
 47
0.0
 47
0.0
 47
0.0
 47
0.0208333333333333
 47
0.0
 47
0.0
 47
0.0
 47
0.0
 47
1.0
 47
0.0
 47
0.0
 47
0.0
 47
0.0
 47
1.0
171
     0
 49
0.0208333333333333
 49
0.0
 49
0.0
 49
0.0
 49
0.0
 49
0.0208333333333333
 49
0.0
 49
0.0
 49
0.0
 49
0.0
 49
1.0
 49
0.0
 49
0.0
 49
0.0
 49
0.0
 49
1.0
175
     0
142
0.0208333333333333
142
0.0
142
0.0
142
0.0
142
0.0
142
0.0208333333333333
142
0.0
142
0.0
142
0.0
142
0.0
142
1.0
142
0.0
142
0.0
142
0.0
142
0.0
142
1.0
179
     0
144
0.0208333333333333
144
0.0
144
0.0
144
0.0
144
0.0
144
0.0208333333333333
144
0.0
144
0.0
144
0.0
144
0.0
144
1.0
144
0.0
144
0.0
144
0.0
144
0.0
144
1.0
147
0.0208333333333333
147
0.0
147
0.0
147
0.0
147
0.0
147
0.0208333333333333
147
0.0
147
0.0
147
0.0
147
0.0
147
1.0
147
0.0
147
0.0
147
0.0
147
0.0
147
1.0
  0
MATERIAL
  5
11
102
{ACAD_XDICTIONARY
360
12
102
}
102
{ACAD_REACTORS
330
10
102
}
330
10
100
AcDbMaterial
  1
ByLayer
 72
     0
 43
0.0208333333333333
 43
0.0
 43
0.0
 43
0.0
 43
0.0
 43
0.0208333333333333
 43
0.0
 43
0.0
 43
0.0
 43
0.0
 43
1.0
 43
0.0
 43
0.0
 43
0.0
 43
0.0
 43
1.0
 77
     0
 47
0.0208333333333333
 47
0.0
 47
0.0
 47
0.0
 47
0.0
 47
0.0208333333333333
 47
0.0
 47
0.0
 47
0.0
 47
0.0
 47
1.0
 47
0.0
 47
0.0
 47
0.0
 47
0.0
 47
1.0
171
     0
 49
0.0208333333333333
 49
0.0
 49
0.0
 49
0.0
 49
0.0
 49
0.0208333333333333
 49
0.0
 49
0.0
 49
0.0
 49
0.0
 49
1.0
 49
0.0
 49
0.0
 49
0.0
 49
0.0
 49
1.0
175
     0
142
0.0208333333333333
142
0.0
142
0.0
142
0.0
142
0.0
142
0.0208333333333333
142
0.0
142
0.0
142
0.0
142
0.0
142
1.0
142
0.0
142
0.0
142
0.0
142
0.0
142
1.0
179
     0
144
0.0208333333333333
144
0.0
144
0.0
144
0.0
144
0.0
144
0.0208333333333333
144
0.0
144
0.0
144
0.0
144
0.0
144
1.0
144
0.0
144
0.0
144
0.0
144
0.0
144
1.0
147
0.0208333333333333
147
0.0
147
0.0
147
0.0
147
0.0
147
0.0208333333333333
147
0.0
147
0.0
147
0.0
147
0.0
147
1.0
147
0.0
147
0.0
147
0.0
147
0.0
147
1.0
  0
MATERIAL
  5
21
102
{ACAD_XDICTIONARY
360
22
102
}
102
{ACAD_REACTORS
330
10
102
}
330
10
100
AcDbMaterial
  1
Global
 72
     0
 43
0.0208333333333333
 43
0.0
 43
0.0
 43
0.0
 43
0.0
 43
0.0208333333333333
 43
0.0
 43
0.0
 43
0.0
 43
0.0
 43
1.0
 43
0.0
 43
0.0
 43
0.0
 43
0.0
 43
1.0
 77
     0
 47
0.0208333333333333
 47
0.0
 47
0.0
 47
0.0
 47
0.0
 47
0.0208333333333333
 47
0.0
 47
0.0
 47
0.0
 47
0.0
 47
1.0
 47
0.0
 47
0.0
 47
0.0
 47
0.0
 47
1.0
171
     0
 49
0.0208333333333333
 49
0.0
 49
0.0
 49
0.0
 49
0.0
 49
0.0208333333333333
 49
0.0
 49
0.0
 49
0.0
 49
0.0
 49
1.0
 49
0.0
 49
0.0
 49
0.0
 49
0.0
 49
1.0
175
     0
142
0.0208333333333333
142
0.0
142
0.0
142
0.0
142
0.0
142
0.0208333333333333
142
0.0
142
0.0
142
0.0
142
0.0
142
1.0
142
0.0
142
0.0
142
0.0
142
0.0
142
1.0
179
     0
144
0.0208333333333333
144
0.0
144
0.0
144
0.0
144
0.0
144
0.0208333333333333
144
0.0
144
0.0
144
0.0
144
0.0
144
1.0
144
0.0
144
0.0
144
0.0
144
0.0
144
1.0
147
0.0208333333333333
147
0.0
147
0.0
147
0.0
147
0.0
147
0.0208333333333333
147
0.0
147
0.0
147
0.0
147
0.0
147
1.0
147
0.0
147
0.0
147
0.0
147
0.0
147
1.0
  0
MLEADERSTYLE
  5
67
102
{ACAD_REACTORS
330
66
102
}
330
66
100
AcDbMLeaderStyle
179
     2
170
     2
171
     1
172
     0
 90
        2
 40
0.0
 41
0.0
173
     1
 91
-1056964608
340
5B
 92
       -2
290
     1
 42
0.09
291
     1
 43
0.36
  3
Standard
 44
0.18
300

342
55
174
     1
178
     6
175
     1
176
     0
 93
-1056964608
 45
0.18
292
     0
297
     0
 46
0.18
 94
-1056964608
 47
1.0
 49
1.0
140
1.0
293
     1
141
0.0
294
     1
177
     0
142
1.0
295
     0
296
     0
143
0.125
271
     0
272
     9
273
     9
298
     1
  0
MLINESTYLE
  5
60
102
{ACAD_REACTORS
330
5F
102
}
330
5F
100
AcDbMlineStyle
  2
STANDARD
 70
     0
  3

 62
   256
 51
90.0
 52
90.0
 71
     2
 49
0.5
 62
   256
  6
BYLAYER
 49
-0.5
 62
   256
  6
BYLAYER
  0
ACDBPLACEHOLDER
  5
F
102
{ACAD_REACTORS
330
E
102
}
330
E
  0
SCALE
  5
43
102
{ACAD_REACTORS
330
42
102
}
330
42
100
AcDbScale
 70
     0
300
1:1
140
1.0
141
1.0
290
     1
  0
SCALE
  5
44
102
{ACAD_REACTORS
330
42
102
}
330
42
100
AcDbScale
 70
     0
300
1/128" = 1'-0"
140
0.0078125
141
12.0
290
     0
  0
SCALE
  5
45
102
{ACAD_REACTORS
330
42
102
}
330
42
100
AcDbScale
 70
     0
300
1/64" = 1'-0"
140
0.015625
141
12.0
290
     0
  0
SCALE
  5
46
102
{ACAD_REACTORS
330
42
102
}
330
42
100
AcDbScale
 70
     0
300
1/32" = 1'-0"
140
0.03125
141
12.0
290
     0
  0
SCALE
  5
47
102
{ACAD_REACTORS
330
42
102
}
330
42
100
AcDbScale
 70
     0
300
1/16" = 1'-0"
140
0.0625
141
12.0
290
     0
  0
SCALE
  5
48
102
{ACAD_REACTORS
330
42
102
}
330
42
100
AcDbScale
 70
     0
300
3/32" = 1'-0"
140
0.09375
141
12.0
290
     0
  0
SCALE
  5
49
102
{ACAD_REACTORS
330
42
102
}
330
42
100
AcDbScale
 70
     0
300
1/8" = 1'-0"
140
0.125
141
12.0
290
     0
  0
SCALE
  5
4A
102
{ACAD_REACTORS
330
42
102
}
330
42
100
AcDbScale
 70
     0
300
3/16" = 1'-0"
140
0.1875
141
12.0
290
     0
  0
SCALE
  5
4B
102
{ACAD_REACTORS
330
42
102
}
330
42
100
AcDbScale
 70
     0
300
1/4" = 1'-0"
140
0.25
141
12.0
290
     0
  0
SCALE
  5
4C
102
{ACAD_REACTORS
330
42
102
}
330
42
100
AcDbScale
 70
     0
300
3/8" = 1'-0"
140
0.375
141
12.0
290
     0
  0
SCALE
  5
4D
102
{ACAD_REACTORS
330
42
102
}
330
42
100
AcDbScale
 70
     0
300
1/2" = 1'-0"
140
0.5
141
12.0
290
     0
  0
SCALE
  5
4E
102
{ACAD_REACTORS
330
42
102
}
330
42
100
AcDbScale
 70
     0
300
3/4" = 1'-0"
140
0.75
141
12.0
290
     0
  0
SCALE
  5
4F
102
{ACAD_REACTORS
330
42
102
}
330
42
100
AcDbScale
 70
     0
300
1" = 1'-0"
140
1.0
141
12.0
290
     0
  0
SCALE
  5
50
102
{ACAD_REACTORS
330
42
102
}
330
42
100
AcDbScale
 70
     0
300
1-1/2" = 1'-0"
140
1.5
141
12.0
290
     0
  0
SCALE
  5
51
102
{ACAD_REACTORS
330
42
102
}
330
42
100
AcDbScale
 70
     0
300
3" = 1'-0"
140
3.0
141
12.0
290
     0
  0
SCALE
  5
52
102
{ACAD_REACTORS
330
42
102
}
330
42
100
AcDbScale
 70
     0
300
6" = 1'-0"
140
6.0
141
12.0
290
     0
  0
SCALE
  5
53
102
{ACAD_REACTORS
330
42
102
}
330
42
100
AcDbScale
 70
     0
300
1'-0" = 1'-0"
140
12.0
141
12.0
290
     0
  0
ACDBSECTIONVIEWSTYLE
  5
69
102
{ACAD_XDICTIONARY
360
991
102
}
102
{ACAD_REACTORS
330
68
102
}
330
68
100
AcDbModelDocViewStyle
 70
     0
  3
Imperial24
290
     0
100
AcDbSectionViewStyle
 70
     0
 71
     0
 90
       78
 71
     1
340
55
 62
   256
 40
0.24
340
0
340
0
 62
   256
 40
0.24
300
I, O, Q, S, X, Z
 40
0.48
 90
        3
 40
0.18
 90
        1
 71
     2
340
5D
 90
       25
 62
   256
340
5D
 90
       50
 62
   256
 40
0.24
 40
0.0
 40
0.24
 71
     3
340
55
 62
   256
 40
0.24
 90
        1
 40
0.75
 90
        1
300
%<\AcVar ViewType \f "%tc1">% %<\AcVar ViewSectionStartId>%-%<\AcVar ViewSectionEndId>%\PSCALE %<\AcVar ViewScale \f "%sn">%
 71
     4
 62
   256
 62
   257
300
ANSI31
 40
1.0
 90
        0
290
     0
290
     0
 90
        6
 40
0.0
 40
1.570796326794896
 40
0.2617993877991494
 40
1.308996938995747
 40
-0.2617993877991494
 40
1.832595714594045
  0
TABLESTYLE
  5
65
102
{ACAD_XDICTIONARY
360
55E
102
}
102
{ACAD_REACTORS
330
64
102
}
330
64
100
AcDbTableStyle
280
     0
  3
Standard
 70
     0
 71
     0
 40
0.06
 41
0.06
280
     0
281
     0
  7
Standard
140
0.18
170
     2
 62
     0
 63
     7
283
     0
 90
      512
 91
        0
  1

274
    -2
284
     1
 64
     0
275
    -2
285
     1
 65
     0
276
    -2
286
     1
 66
     0
277
    -2
287
     1
 67
     0
278
    -2
288
     1
 68
     0
279
    -2
289
     1
 69
     0
  7
Standard
140
0.25
170
     5
 62
     0
 63
     7
283
     0
 90
      512
 91
        0
  1

274
    -2
284
     1
 64
     0
275
    -2
285
     1
 65
     0
276
    -2
286
     1
 66
     0
277
    -2
287
     1
 67
     0
278
    -2
288
     1
 68
     0
279
    -2
289
     1
 69
     0
  7
Standard
140
0.18
170
     5
 62
     0
 63
     7
283
     0
 90
      512
 91
        0
  1

274
    -2
284
     1
 64
     0
275
    -2
285
     1
 65
     0
276
    -2
286
     1
 66
     0
277
    -2
287
     1
 67
     0
278
    -2
288
     1
 68
     0
279
    -2
289
     1
 69
     0
  0
VISUALSTYLE
  5
2F
102
{ACAD_REACTORS
330
29
102
}
330
29
100
AcDbVisualStyle
  2
2dWireframe
 70
     4
177
     3
291
     0
 70
    58
 90
        0
176
     1
 90
        2
176
     1
 90
        0
176
     1
 90
        0
176
     1
 40
0.6
176
     1
 40
30.0
176
     1
 62
     7
420
 16777215
176
     1
 90
        1
176
     1
 90
        4
176
     1
 62
     7
176
     1
 62
   257
176
     1
 90
        1
176
     1
 90
        1
176
     1
 40
1.0
176
     1
 90
        0
176
     1
 62
   257
176
     1
 40
1.0
176
     1
 90
        1
176
     1
 90
        6
176
     1
 90
        2
176
     1
 62
     7
176
     1
 90
        5
176
     1
 90
        0
176
     1
 90
        0
176
     1
290
     0
176
     1
 90
        1
176
     1
 40
0.0
176
     1
 90
        0
176
     1
290
     1
176
     1
290
     1
176
     1
290
     0
176
     1
290
     0
176
     1
290
     0
176
     1
290
     0
176
     1
290
     0
176
     1
290
     0
176
     1
290
     0
176
     1
 90
       50
176
     1
 40
0.0
176
     1
 40
1.0
176
     1
 90
        0
176
     1
 62
    18
420
        0
176
     1
 90
       50
176
     1
 90
        3
176
     1
 62
     5
420
      255
176
     1
290
     0
176
     1
 90
       50
176
     1
 90
       50
176
     1
 90
       50
176
     1
290
     0
176
     1
 90
       50
176
     1
 62
   256
176
     0
 40
1.0
176
     0
 90
        2
176
     1
  1
strokes_ogs.tif
176
     1
290
     0
176
     1
 40
1.0
176
     1
 40
1.0
176
     1
1001
ACAD
1000
AcDbSavedByObjectVersion
1070
     0
  0
VISUALSTYLE
  5
2E
102
{ACAD_REACTORS
330
29
102
}
330
29
100
AcDbVisualStyle
  2
Basic
 70
     7
177
     3
291
     1
 70
    58
 90
        1
176
     1
 90
        0
176
     1
 90
        1
176
     1
 90
        0
176
     1
 40
0.6
176
     1
 40
30.0
176
     1
 62
     7
420
 16777215
176
     1
 90
        0
176
     1
 90
        4
176
     1
 62
     7
176
     1
 62
   257
176
     1
 90
        1
176
     1
 90
        1
176
     1
 40
1.0
176
     1
 90
        8
176
     1
 62
     7
176
     1
 40
1.0
176
     1
 90
        1
176
     1
 90
        6
176
     1
 90
        2
176
     1
 62
     7
176
     1
 90
        5
176
     1
 90
        0
176
     1
 90
        0
176
     1
290
     0
176
     1
 90
        1
176
     1
 40
0.0
176
     1
 90
        0
176
     1
290
     0
176
     1
290
     1
176
     1
290
     1
176
     1
290
     0
176
     1
290
     0
176
     1
290
     0
176
     1
290
     0
176
     1
290
     0
176
     1
290
     0
176
     1
 90
       50
176
     1
 40
0.0
176
     1
 40
1.0
176
     1
 90
        0
176
     1
 62
    18
420
        0
176
     1
 90
       50
176
     1
 90
        3
176
     1
 62
     5
420
      255
176
     1
290
     0
176
     1
 90
       50
176
     1
 90
       50
176
     1
 90
       50
176
     1
290
     0
176
     1
 90
       50
176
     1
 62
   256
176
     0
 40
1.0
176
     0
 90
        2
176
     1
  1
strokes_ogs.tif
176
     1
290
     0
176
     1
 40
1.0
176
     1
 40
1.0
176
     1
1001
ACAD
1000
AcDbSavedByObjectVersion
1070
     0
  0
VISUALSTYLE
  5
35
102
{ACAD_REACTORS
330
29
102
}
330
29
100
AcDbVisualStyle
  2
Brighten
 70
    12
177
     3
291
     1
 70
    58
 90
        2
176
     1
 90
        2
176
     1
 90
        0
176
     1
 90
        0
176
     1
 40
0.6
176
     1
 40
30.0
176
     1
 62
     7
420
 16777215
176
     1
 90
        1
176
     1
 90
        4
176
     1
 62
     7
176
     1
 62
   257
176
     1
 90
        1
176
     1
 90
        1
176
     1
 40
1.0
176
     1
 90
        8
176
     1
 62
     7
176
     1
 40
1.0
176
     1
 90
        1
176
     1
 90
        6
176
     1
 90
        2
176
     1
 62
     7
176
     1
 90
        5
176
     1
 90
        0
176
     1
 90
        0
176
     1
290
     0
176
     1
 90
        1
176
     1
 40
50.0
176
     1
 90
        0
176
     1
290
     0
176
     1
290
     1
176
     1
290
     1
176
     1
290
     0
176
     1
290
     0
176
     1
290
     0
176
     1
290
     0
176
     1
290
     0
176
     1
290
     0
176
     1
 90
       50
176
     1
 40
0.0
176
     1
 40
1.0
176
     1
 90
        0
176
     1
 62
    18
420
        0
176
     1
 90
       50
176
     1
 90
        3
176
     1
 62
     5
420
      255
176
     1
290
     0
176
     1
 90
       50
176
     1
 90
       50
176
     1
 90
       50
176
     1
290
     0
176
     1
 90
       50
176
     1
 62
   256
176
     0
 40
1.0
176
     0
 90
        2
176
     1
  1
strokes_ogs.tif
176
     1
290
     0
176
     1
 40
1.0
176
     1
 40
1.0
176
     1
1001
ACAD
1000
AcDbSavedByObjectVersion
1070
     0
  0
VISUALSTYLE
  5
39
102
{ACAD_REACTORS
330
29
102
}
330
29
100
AcDbVisualStyle
  2
ColorChange
 70
    16
177
     3
291
     1
 70
    58
 90
        2
176
     1
 90
        2
176
     1
 90
        3
176
     1
 90
        0
176
     1
 40
0.6
176
     1
 40
30.0
176
     1
 62
     8
420
  8421504
176
     1
 90
        1
176
     1
 90
        4
176
     1
 62
     7
176
     1
 62
   257
176
     1
 90
        1
176
     1
 90
        1
176
     1
 40
1.0
176
     1
 90
        8
176
     1
 62
     8
420
  8421504
176
     1
 40
1.0
176
     1
 90
        1
176
     1
 90
        6
176
     1
 90
        2
176
     1
 62
     7
176
     1
 90
        5
176
     1
 90
        0
176
     1
 90
        0
176
     1
290
     0
176
     1
 90
        1
176
     1
 40
0.0
176
     1
 90
        0
176
     1
290
     0
176
     1
290
     1
176
     1
290
     1
176
     1
290
     0
176
     1
290
     0
176
     1
290
     0
176
     1
290
     0
176
     1
290
     0
176
     1
290
     0
176
     1
 90
       50
176
     1
 40
0.0
176
     1
 40
1.0
176
     1
 90
        0
176
     1
 62
    18
420
        0
176
     1
 90
       50
176
     1
 90
        3
176
     1
 62
     5
420
      255
176
     1
290
     0
176
     1
 90
       50
176
     1
 90
       50
176
     1
 90
       50
176
     1
290
     0
176
     1
 90
       50
176
     1
 62
   256
176
     0
 40
1.0
176
     0
 90
        2
176
     1
  1
strokes_ogs.tif
176
     1
290
     0
176
     1
 40
1.0
176
     1
 40
1.0
176
     1
1001
ACAD
1000
AcDbSavedByObjectVersion
1070
     0
  0
VISUALSTYLE
  5
32
102
{ACAD_REACTORS
330
29
102
}
330
29
100
AcDbVisualStyle
  2
Conceptual
 70
     9
177
     3
291
     0
 70
    58
 90
        3
176
     1
 90
        2
176
     1
 90
        0
176
     1
 90
        0
176
     1
 40
0.6
176
     1
 40
30.0
176
     1
 62
     7
420
 16777215
176
     1
 90
        2
176
     1
 90
        2
176
     1
 62
     7
176
     1
 62
   257
176
     1
 90
        1
176
     1
 90
        1
176
     1
 40
179.0
176
     1
 90
        8
176
     1
 62
     7
176
     1
 40
1.0
176
     1
 90
        1
176
     1
 90
        6
176
     1
 90
        2
176
     1
 62
     7
176
     1
 90
        3
176
     1
 90
        0
176
     1
 90
        0
176
     1
290
     0
176
     1
 90
        1
176
     1
 40
0.0
176
     1
 90
        0
176
     1
290
     0
176
     1
290
     1
176
     1
290
     1
176
     1
290
     0
176
     1
290
     0
176
     1
290
     0
176
     1
290
     0
176
     1
290
     0
176
     1
290
     0
176
     1
 90
       50
176
     1
 40
0.0
176
     1
 40
1.0
176
     1
 90
        0
176
     1
 62
    18
420
        0
176
     1
 90
       50
176
     1
 90
        3
176
     1
 62
     5
420
      255
176
     1
290
     0
176
     1
 90
       50
176
     1
 90
       50
176
     1
 90
       50
176
     1
290
     0
176
     1
 90
       50
176
     1
 62
   256
176
     0
 40
1.0
176
     0
 90
        2
176
     1
  1
strokes_ogs.tif
176
     1
290
     0
176
     1
 40
1.0
176
     1
 40
1.0
176
     1
1001
ACAD
1000
AcDbSavedByObjectVersion
1070
     0
  0
VISUALSTYLE
  5
34
102
{ACAD_REACTORS
330
29
102
}
330
29
100
AcDbVisualStyle
  2
Dim
 70
    11
177
     3
291
     1
 70
    58
 90
        2
176
     1
 90
        2
176
     1
 90
        0
176
     1
 90
        0
176
     1
 40
0.6
176
     1
 40
30.0
176
     1
 62
     7
420
 16777215
176
     1
 90
        1
176
     1
 90
        4
176
     1
 62
     7
176
     1
 62
   257
176
     1
 90
        1
176
     1
 90
        1
176
     1
 40
1.0
176
     1
 90
        8
176
     1
 62
     7
176
     1
 40
1.0
176
     1
 90
        1
176
     1
 90
        6
176
     1
 90
        2
176
     1
 62
     7
176
     1
 90
        5
176
     1
 90
        0
176
     1
 90
        0
176
     1
290
     0
176
     1
 90
        1
176
     1
 40
-50.0
176
     1
 90
        0
176
     1
290
     0
176
     1
290
     1
176
     1
290
     1
176
     1
290
     0
176
     1
290
     0
176
     1
290
     0
176
     1
290
     0
176
     1
290
     0
176
     1
290
     0
176
     1
 90
       50
176
     1
 40
0.0
176
     1
 40
1.0
176
     1
 90
        0
176
     1
 62
    18
420
        0
176
     1
 90
       50
176
     1
 90
        3
176
     1
 62
     5
420
      255
176
     1
290
     0
176
     1
 90
       50
176
     1
 90
       50
176
     1
 90
       50
176
     1
290
     0
176
     1
 90
       50
176
     1
 62
   256
176
     0
 40
1.0
176
     0
 90
        2
176
     1
  1
strokes_ogs.tif
176
     1
290
     0
176
     1
 40
1.0
176
     1
 40
1.0
176
     1
1001
ACAD
1000
AcDbSavedByObjectVersion
1070
     0
  0
VISUALSTYLE
  5
41
102
{ACAD_REACTORS
330
29
102
}
330
29
100
AcDbVisualStyle
  2
EdgeColorOff
 70
    22
177
     3
291
     1
 70
    58
 90
        2
176
     0
 90
        2
176
     0
 90
        0
176
     0
 90
        0
176
     0
 40
0.6
176
     0
 40
30.0
176
     0
 62
     7
420
 16777215
176
     0
 90
        1
176
     0
 90
        4
176
     0
 62
     7
176
     0
 62
   257
176
     0
 90
        1
176
     0
 90
        1
176
     0
 40
1.0
176
     0
 90
        8
176
     2
 62
     7
176
     0
 40
1.0
176
     0
 90
        1
176
     0
 90
        6
176
     0
 90
        2
176
     0
 62
     7
176
     0
 90
        5
176
     0
 90
        0
176
     0
 90
        0
176
     0
290
     0
176
     0
 90
        1
176
     0
 40
0.0
176
     0
 90
        0
176
     0
290
     0
176
     0
290
     1
176
     0
290
     1
176
     0
290
     0
176
     0
290
     0
176
     0
290
     0
176
     0
290
     0
176
     0
290
     0
176
     0
290
     0
176
     0
 90
       50
176
     0
 40
0.0
176
     0
 40
1.0
176
     0
 90
        0
176
     0
 62
    18
420
        0
176
     0
 90
       50
176
     0
 90
        3
176
     0
 62
     5
420
      255
176
     0
290
     0
176
     0
 90
       50
176
     0
 90
       50
176
     0
 90
       50
176
     0
290
     0
176
     0
 90
       50
176
     0
 62
   256
176
     0
 40
1.0
176
     0
 90
        2
176
     0
  1
strokes_ogs.tif
176
     0
290
     0
176
     0
 40
1.0
176
     0
 40
1.0
176
     0
1001
ACAD
1000
AcDbSavedByObjectVersion
1070
     0
  0
VISUALSTYLE
  5
38
102
{ACAD_REACTORS
330
29
102
}
330
29
100
AcDbVisualStyle
  2
Facepattern
 70
    15
177
     3
291
     1
 70
    58
 90
        2
176
     1
 90
        2
176
     1
 90
        0
176
     1
 90
        0
176
     1
 40
0.6
176
     1
 40
30.0
176
     1
 62
     7
420
 16777215
176
     1
 90
        1
176
     1
 90
        4
176
     1
 62
     7
176
     1
 62
   257
176
     1
 90
        1
176
     1
 90
        1
176
     1
 40
1.0
176
     1
 90
        8
176
     1
 62
     7
176
     1
 40
1.0
176
     1
 90
        1
176
     1
 90
        6
176
     1
 90
        2
176
     1
 62
     7
176
     1
 90
        5
176
     1
 90
        0
176
     1
 90
        0
176
     1
290
     0
176
     1
 90
        1
176
     1
 40
0.0
176
     1
 90
        0
176
     1
290
     0
176
     1
290
     1
176
     1
290
     1
176
     1
290
     0
176
     1
290
     0
176
     1
290
     0
176
     1
290
     0
176
     1
290
     0
176
     1
290
     0
176
     1
 90
       50
176
     1
 40
0.0
176
     1
 40
1.0
176
     1
 90
        0
176
     1
 62
    18
420
        0
176
     1
 90
       50
176
     1
 90
        3
176
     1
 62
     5
420
      255
176
     1
290
     0
176
     1
 90
       50
176
     1
 90
       50
176
     1
 90
       50
176
     1
290
     0
176
     1
 90
       50
176
     1
 62
   256
176
     0
 40
1.0
176
     0
 90
        2
176
     1
  1
strokes_ogs.tif
176
     1
290
     0
176
     1
 40
1.0
176
     1
 40
1.0
176
     1
1001
ACAD
1000
AcDbSavedByObjectVersion
1070
     0
  0
VISUALSTYLE
  5
2A
102
{ACAD_REACTORS
330
29
102
}
330
29
100
AcDbVisualStyle
  2
Flat
 70
     0
177
     3
291
     1
 70
    58
 90
        2
176
     1
 90
        1
176
     1
 90
        1
176
     1
 90
        2
176
     1
 40
0.6
176
     1
 40
30.0
176
     1
 62
     7
420
 16777215
176
     1
 90
        0
176
     1
 90
        0
176
     1
 62
     7
176
     1
 62
   257
176
     1
 90
        1
176
     1
 90
        1
176
     1
 40
1.0
176
     1
 90
        8
176
     1
 62
     7
176
     1
 40
1.0
176
     1
 90
        1
176
     1
 90
        6
176
     1
 90
        2
176
     1
 62
     7
176
     1
 90
        5
176
     1
 90
        0
176
     1
 90
        0
176
     1
290
     0
176
     1
 90
       13
176
     1
 40
0.0
176
     1
 90
        0
176
     1
290
     0
176
     1
290
     1
176
     1
290
     1
176
     1
290
     0
176
     1
290
     0
176
     1
290
     0
176
     1
290
     0
176
     1
290
     0
176
     1
290
     0
176
     1
 90
       50
176
     1
 40
0.0
176
     1
 40
1.0
176
     1
 90
        0
176
     1
 62
    18
420
        0
176
     1
 90
       50
176
     1
 90
        3
176
     1
 62
     5
420
      255
176
     1
290
     0
176
     1
 90
       50
176
     1
 90
       50
176
     1
 90
       50
176
     1
290
     0
176
     1
 90
       50
176
     1
 62
   256
176
     0
 40
1.0
176
     0
 90
        2
176
     1
  1
strokes_ogs.tif
176
     1
290
     0
176
     1
 40
1.0
176
     1
 40
1.0
176
     1
1001
ACAD
1000
AcDbSavedByObjectVersion
1070
     0
  0
VISUALSTYLE
  5
2B
102
{ACAD_REACTORS
330
29
102
}
330
29
100
AcDbVisualStyle
  2
FlatWithEdges
 70
     1
177
     3
291
     1
 70
    58
 90
        2
176
     1
 90
        1
176
     1
 90
        1
176
     1
 90
        2
176
     1
 40
0.6
176
     1
 40
30.0
176
     1
 62
     7
420
 16777215
176
     1
 90
        1
176
     1
 90
        0
176
     1
 62
     7
176
     1
 62
   257
176
     1
 90
        1
176
     1
 90
        1
176
     1
 40
1.0
176
     1
 90
        0
176
     1
 62
   257
176
     1
 40
1.0
176
     1
 90
        1
176
     1
 90
        6
176
     1
 90
        2
176
     1
 62
     7
176
     1
 90
        5
176
     1
 90
        0
176
     1
 90
        0
176
     1
290
     0
176
     1
 90
       13
176
     1
 40
0.0
176
     1
 90
        0
176
     1
290
     0
176
     1
290
     1
176
     1
290
     1
176
     1
290
     0
176
     1
290
     0
176
     1
290
     0
176
     1
290
     0
176
     1
290
     0
176
     1
290
     0
176
     1
 90
       50
176
     1
 40
0.0
176
     1
 40
1.0
176
     1
 90
        0
176
     1
 62
    18
420
        0
176
     1
 90
       50
176
     1
 90
        3
176
     1
 62
     5
420
      255
176
     1
290
     0
176
     1
 90
       50
176
     1
 90
       50
176
     1
 90
       50
176
     1
290
     0
176
     1
 90
       50
176
     1
 62
   256
176
     0
 40
1.0
176
     0
 90
        2
176
     1
  1
strokes_ogs.tif
176
     1
290
     0
176
     1
 40
1.0
176
     1
 40
1.0
176
     1
1001
ACAD
1000
AcDbSavedByObjectVersion
1070
     0
  0
VISUALSTYLE
  5
2C
102
{ACAD_REACTORS
330
29
102
}
330
29
100
AcDbVisualStyle
  2
Gouraud
 70
     2
177
     3
291
     1
 70
    58
 90
        2
176
     1
 90
        2
176
     1
 90
        1
176
     1
 90
        2
176
     1
 40
0.6
176
     1
 40
30.0
176
     1
 62
     7
420
 16777215
176
     1
 90
        0
176
     1
 90
        0
176
     1
 62
     7
176
     1
 62
   257
176
     1
 90
        1
176
     1
 90
        1
176
     1
 40
1.0
176
     1
 90
        0
176
     1
 62
     7
176
     1
 40
1.0
176
     1
 90
        1
176
     1
 90
        6
176
     1
 90
        2
176
     1
 62
     7
176
     1
 90
        5
176
     1
 90
        0
176
     1
 90
        0
176
     1
290
     0
176
     1
 90
       13
176
     1
 40
0.0
176
     1
 90
        0
176
     1
290
     0
176
     1
290
     1
176
     1
290
     1
176
     1
290
     0
176
     1
290
     0
176
     1
290
     0
176
     1
290
     0
176
     1
290
     0
176
     1
290
     0
176
     1
 90
       50
176
     1
 40
0.0
176
     1
 40
1.0
176
     1
 90
        0
176
     1
 62
    18
420
        0
176
     1
 90
       50
176
     1
 90
        3
176
     1
 62
     5
420
      255
176
     1
290
     0
176
     1
 90
       50
176
     1
 90
       50
176
     1
 90
       50
176
     1
290
     0
176
     1
 90
       50
176
     1
 62
   256
176
     0
 40
1.0
176
     0
 90
        2
176
     1
  1
strokes_ogs.tif
176
     1
290
     0
176
     1
 40
1.0
176
     1
 40
1.0
176
     1
1001
ACAD
1000
AcDbSavedByObjectVersion
1070
     0
  0
VISUALSTYLE
  5
2D
102
{ACAD_REACTORS
330
29
102
}
330
29
100
AcDbVisualStyle
  2
GouraudWithEdges
 70
     3
177
     3
291
     1
 70
    58
 90
        2
176
     1
 90
        2
176
     1
 90
        1
176
     1
 90
        2
176
     1
 40
0.6
176
     1
 40
30.0
176
     1
 62
     7
420
 16777215
176
     1
 90
        1
176
     1
 90
        0
176
     1
 62
     7
176
     1
 62
   257
176
     1
 90
        1
176
     1
 90
        1
176
     1
 40
1.0
176
     1
 90
        0
176
     1
 62
   257
176
     1
 40
1.0
176
     1
 90
        1
176
     1
 90
        6
176
     1
 90
        2
176
     1
 62
     7
176
     1
 90
        5
176
     1
 90
        0
176
     1
 90
        0
176
     1
290
     0
176
     1
 90
       13
176
     1
 40
0.0
176
     1
 90
        0
176
     1
290
     0
176
     1
290
     1
176
     1
290
     1
176
     1
290
     0
176
     1
290
     0
176
     1
290
     0
176
     1
290
     0
176
     1
290
     0
176
     1
290
     0
176
     1
 90
       50
176
     1
 40
0.0
176
     1
 40
1.0
176
     1
 90
        0
176
     1
 62
    18
420
        0
176
     1
 90
       50
176
     1
 90
        3
176
     1
 62
     5
420
      255
176
     1
290
     0
176
     1
 90
       50
176
     1
 90
       50
176
     1
 90
       50
176
     1
290
     0
176
     1
 90
       50
176
     1
 62
   256
176
     0
 40
1.0
176
     0
 90
        2
176
     1
  1
strokes_ogs.tif
176
     1
290
     0
176
     1
 40
1.0
176
     1
 40
1.0
176
     1
1001
ACAD
1000
AcDbSavedByObjectVersion
1070
     0
  0
VISUALSTYLE
  5
31
102
{ACAD_REACTORS
330
29
102
}
330
29
100
AcDbVisualStyle
  2
Hidden
 70
     6
177
     3
291
     0
 70
    58
 90
        1
176
     1
 90
        2
176
     1
 90
        2
176
     1
 90
        0
176
     1
 40
0.6
176
     1
 40
30.0
176
     1
 62
     7
420
 16777215
176
     1
 90
        2
176
     1
 90
        2
176
     1
 62
     7
176
     1
 62
   257
176
     1
 90
        2
176
     1
 90
        1
176
     1
 40
40.0
176
     1
 90
        0
176
     1
 62
   257
176
     1
 40
1.0
176
     1
 90
        1
176
     1
 90
        6
176
     1
 90
        2
176
     1
 62
     7
176
     1
 90
        3
176
     1
 90
        0
176
     1
 90
        0
176
     1
290
     0
176
     1
 90
        1
176
     1
 40
0.0
176
     1
 90
        0
176
     1
290
     0
176
     1
290
     1
176
     1
290
     1
176
     1
290
     0
176
     1
290
     0
176
     1
290
     0
176
     1
290
     0
176
     1
290
     0
176
     1
290
     0
176
     1
 90
       50
176
     1
 40
0.0
176
     1
 40
1.0
176
     1
 90
        0
176
     1
 62
    18
420
        0
176
     1
 90
       50
176
     1
 90
        3
176
     1
 62
     5
420
      255
176
     1
290
     0
176
     1
 90
       50
176
     1
 90
       50
176
     1
 90
       50
176
     1
290
     0
176
     1
 90
       50
176
     1
 62
   256
176
     0
 40
1.0
176
     0
 90
        2
176
     1
  1
strokes_ogs.tif
176
     1
290
     0
176
     1
 40
1.0
176
     1
 40
1.0
176
     1
1001
ACAD
1000
AcDbSavedByObjectVersion
1070
     0
  0
VISUALSTYLE
  5
3F
102
{ACAD_REACTORS
330
29
102
}
330
29
100
AcDbVisualStyle
  2
JitterOff
 70
    20
177
     3
291
     1
 70
    58
 90
        2
176
     0
 90
        2
176
     0
 90
        0
176
     0
 90
        0
176
     0
 40
0.6
176
     0
 40
30.0
176
     0
 62
     7
420
 16777215
176
     0
 90
        1
176
     0
 90
        4
176
     0
 62
     7
176
     0
 62
   257
176
     0
 90
        1
176
     0
 90
        1
176
     0
 40
1.0
176
     0
 90
       10
176
     2
 62
     7
176
     0
 40
1.0
176
     0
 90
        1
176
     0
 90
        6
176
     0
 90
        2
176
     0
 62
     7
176
     0
 90
        5
176
     0
 90
        0
176
     0
 90
        0
176
     0
290
     0
176
     0
 90
        1
176
     0
 40
0.0
176
     0
 90
        0
176
     0
290
     0
176
     0
290
     1
176
     0
290
     1
176
     0
290
     0
176
     0
290
     0
176
     0
290
     0
176
     0
290
     0
176
     0
290
     0
176
     0
290
     0
176
     0
 90
       50
176
     0
 40
0.0
176
     0
 40
1.0
176
     0
 90
        0
176
     0
 62
    18
420
        0
176
     0
 90
       50
176
     0
 90
        3
176
     0
 62
     5
420
      255
176
     0
290
     0
176
     0
 90
       50
176
     0
 90
       50
176
     0
 90
       50
176
     0
290
     0
176
     0
 90
       50
176
     0
 62
   256
176
     0
 40
1.0
176
     0
 90
        2
176
     0
  1
strokes_ogs.tif
176
     0
290
     0
176
     0
 40
1.0
176
     0
 40
1.0
176
     0
1001
ACAD
1000
AcDbSavedByObjectVersion
1070
     0
  0
VISUALSTYLE
  5
37
102
{ACAD_REACTORS
330
29
102
}
330
29
100
AcDbVisualStyle
  2
Linepattern
 70
    14
177
     3
291
     1
 70
    58
 90
        2
176
     1
 90
        2
176
     1
 90
        0
176
     1
 90
        0
176
     1
 40
0.6
176
     1
 40
30.0
176
     1
 62
     7
420
 16777215
176
     1
 90
        1
176
     1
 90
        4
176
     1
 62
     7
176
     1
 62
   257
176
     1
 90
        7
176
     1
 90
        7
176
     1
 40
1.0
176
     1
 90
        8
176
     1
 62
     7
176
     1
 40
1.0
176
     1
 90
        1
176
     1
 90
        6
176
     1
 90
        2
176
     1
 62
     7
176
     1
 90
        5
176
     1
 90
        0
176
     1
 90
        0
176
     1
290
     0
176
     1
 90
        1
176
     1
 40
0.0
176
     1
 90
        0
176
     1
290
     0
176
     1
290
     1
176
     1
290
     1
176
     1
290
     0
176
     1
290
     0
176
     1
290
     0
176
     1
290
     0
176
     1
290
     0
176
     1
290
     0
176
     1
 90
       50
176
     1
 40
0.0
176
     1
 40
1.0
176
     1
 90
        0
176
     1
 62
    18
420
        0
176
     1
 90
       50
176
     1
 90
        3
176
     1
 62
     5
420
      255
176
     1
290
     0
176
     1
 90
       50
176
     1
 90
       50
176
     1
 90
       50
176
     1
290
     0
176
     1
 90
       50
176
     1
 62
   256
176
     0
 40
1.0
176
     0
 90
        2
176
     1
  1
strokes_ogs.tif
176
     1
290
     0
176
     1
 40
1.0
176
     1
 40
1.0
176
     1
1001
ACAD
1000
AcDbSavedByObjectVersion
1070
     0
  0
VISUALSTYLE
  5
40
102
{ACAD_REACTORS
330
29
102
}
330
29
100
AcDbVisualStyle
  2
OverhangOff
 70
    21
177
     3
291
     1
 70
    58
 90
        2
176
     0
 90
        2
176
     0
 90
        0
176
     0
 90
        0
176
     0
 40
0.6
176
     0
 40
30.0
176
     0
 62
     7
420
 16777215
176
     0
 90
        1
176
     0
 90
        4
176
     0
 62
     7
176
     0
 62
   257
176
     0
 90
        1
176
     0
 90
        1
176
     0
 40
1.0
176
     0
 90
        9
176
     2
 62
     7
176
     0
 40
1.0
176
     0
 90
        1
176
     0
 90
        6
176
     0
 90
        2
176
     0
 62
     7
176
     0
 90
        5
176
     0
 90
        0
176
     0
 90
        0
176
     0
290
     0
176
     0
 90
        1
176
     0
 40
0.0
176
     0
 90
        0
176
     0
290
     0
176
     0
290
     1
176
     0
290
     1
176
     0
290
     0
176
     0
290
     0
176
     0
290
     0
176
     0
290
     0
176
     0
290
     0
176
     0
290
     0
176
     0
 90
       50
176
     0
 40
0.0
176
     0
 40
1.0
176
     0
 90
        0
176
     0
 62
    18
420
        0
176
     0
 90
       50
176
     0
 90
        3
176
     0
 62
     5
420
      255
176
     0
290
     0
176
     0
 90
       50
176
     0
 90
       50
176
     0
 90
       50
176
     0
290
     0
176
     0
 90
       50
176
     0
 62
   256
176
     0
 40
1.0
176
     0
 90
        2
176
     0
  1
strokes_ogs.tif
176
     0
290
     0
176
     0
 40
1.0
176
     0
 40
1.0
176
     0
1001
ACAD
1000
AcDbSavedByObjectVersion
1070
     0
  0
VISUALSTYLE
  5
33
102
{ACAD_REACTORS
330
29
102
}
330
29
100
AcDbVisualStyle
  2
Realistic
 70
     8
177
     3
291
     0
 70
    58
 90
        2
176
     1
 90
        3
176
     1
 90
        0
176
     1
 90
        2
176
     1
 40
0.6
176
     1
 40
30.0
176
     1
 62
     7
420
 16777215
176
     1
 90
        0
176
     1
 90
        0
176
     1
 62
     7
176
     1
 62
   257
176
     1
 90
        1
176
     1
 90
        1
176
     1
 40
1.0
176
     1
 90
        8
176
     1
 62
   257
176
     1
 40
1.0
176
     1
 90
        1
176
     1
 90
        6
176
     1
 90
        2
176
     1
 62
     7
176
     1
 90
        3
176
     1
 90
        0
176
     1
 90
        0
176
     1
290
     0
176
     1
 90
       13
176
     1
 40
0.0
176
     1
 90
        0
176
     1
290
     0
176
     1
290
     1
176
     1
290
     1
176
     1
290
     0
176
     1
290
     0
176
     1
290
     0
176
     1
290
     0
176
     1
290
     0
176
     1
290
     0
176
     1
 90
       50
176
     1
 40
0.0
176
     1
 40
1.0
176
     1
 90
        0
176
     1
 62
    18
420
        0
176
     1
 90
       50
176
     1
 90
        3
176
     1
 62
     5
420
      255
176
     1
290
     0
176
     1
 90
       50
176
     1
 90
       50
176
     1
 90
       50
176
     1
290
     0
176
     1
 90
       50
176
     1
 62
   256
176
     0
 40
1.0
176
     0
 90
        2
176
     1
  1
strokes_ogs.tif
176
     1
290
     0
176
     1
 40
1.0
176
     1
 40
1.0
176
     1
1001
ACAD
1000
AcDbSavedByObjectVersion
1070
     0
  0
VISUALSTYLE
  5
3E
102
{ACAD_REACTORS
330
29
102
}
330
29
100
AcDbVisualStyle
  2
Shaded
 70
    27
177
     3
291
     0
 70
    58
 90
        2
176
     1
 90
        2
176
     1
 90
        1
176
     1
 90
        2
176
     1
 40
0.6
176
     1
 40
30.0
176
     1
 62
     7
420
 16777215
176
     1
 90
        0
176
     1
 90
        4
176
     1
 62
     7
176
     1
 62
   257
176
     1
 90
        1
176
     1
 90
        1
176
     1
 40
1.0
176
     1
 90
        8
176
     1
 62
   257
176
     1
 40
1.0
176
     1
 90
        1
176
     1
 90
        6
176
     1
 90
        2
176
     1
 62
     8
420
  7895160
176
     1
 90
        3
176
     1
 90
        0
176
     1
 90
        0
176
     1
290
     0
176
     1
 90
        5
176
     1
 40
0.0
176
     1
 90
        0
176
     1
290
     0
176
     1
290
     1
176
     1
290
     1
176
     1
290
     0
176
     1
290
     0
176
     1
290
     0
176
     1
290
     0
176
     1
290
     0
176
     1
290
     0
176
     1
 90
       50
176
     1
 40
0.0
176
     1
 40
1.0
176
     1
 90
        0
176
     1
 62
    18
420
        0
176
     1
 90
       50
176
     1
 90
        3
176
     1
 62
     5
420
      255
176
     1
290
     0
176
     1
 90
       50
176
     1
 90
       50
176
     1
 90
       50
176
     1
290
     0
176
     1
 90
       50
176
     1
 62
   256
176
     0
 40
1.0
176
     0
 90
        2
176
     1
  1
strokes_ogs.tif
176
     1
290
     0
176
     1
 40
1.0
176
     1
 40
1.0
176
     1
1001
ACAD
1000
AcDbSavedByObjectVersion
1070
     0
  0
VISUALSTYLE
  5
3D
102
{ACAD_REACTORS
330
29
102
}
330
29
100
AcDbVisualStyle
  2
Shaded with edges
 70
    26
177
     3
291
     0
 70
    58
 90
        2
176
     1
 90
        2
176
     1
 90
        1
176
     1
 90
        2
176
     1
 40
0.6
176
     1
 40
30.0
176
     1
 62
     7
420
 16777215
176
     1
 90
        1
176
     1
 90
        2
176
     1
 62
     7
176
     1
 62
   257
176
     1
 90
        2
176
     1
 90
        1
176
     1
 40
1.0
176
     1
 90
        8
176
     1
 62
   257
176
     1
 40
1.0
176
     1
 90
        1
176
     1
 90
        6
176
     1
 90
        2
176
     1
 62
     7
176
     1
 90
        3
176
     1
 90
        0
176
     1
 90
        0
176
     1
290
     0
176
     1
 90
        5
176
     1
 40
0.0
176
     1
 90
        0
176
     1
290
     0
176
     1
290
     1
176
     1
290
     1
176
     1
290
     0
176
     1
290
     0
176
     1
290
     0
176
     1
290
     0
176
     1
290
     0
176
     1
290
     0
176
     1
 90
       50
176
     1
 40
0.0
176
     1
 40
1.0
176
     1
 90
        0
176
     1
 62
    18
420
        0
176
     1
 90
       50
176
     1
 90
        3
176
     1
 62
     5
420
      255
176
     1
290
     0
176
     1
 90
       50
176
     1
 90
       50
176
     1
 90
       50
176
     1
290
     0
176
     1
 90
       50
176
     1
 62
   256
176
     0
 40
1.0
176
     0
 90
        2
176
     1
  1
strokes_ogs.tif
176
     1
290
     0
176
     1
 40
1.0
176
     1
 40
1.0
176
     1
1001
ACAD
1000
AcDbSavedByObjectVersion
1070
     0
  0
VISUALSTYLE
  5
3A
102
{ACAD_REACTORS
330
29
102
}
330
29
100
AcDbVisualStyle
  2
Shades of Gray
 70
    23
177
     3
291
     0
 70
    58
 90
        2
176
     1
 90
        2
176
     1
 90
        3
176
     1
 90
        0
176
     1
 40
0.6
176
     1
 40
30.0
176
     1
 62
     7
420
 16777215
176
     1
 90
        2
176
     1
 90
        2
176
     1
 62
     7
176
     1
 62
     7
176
     1
 90
        1
176
     1
 90
        1
176
     1
 40
40.0
176
     1
 90
        8
176
     1
 62
     7
176
     1
 40
1.0
176
     1
 90
        1
176
     1
 90
        6
176
     1
 90
        2
176
     1
 62
     7
176
     1
 90
        3
176
     1
 90
        0
176
     1
 90
        0
176
     1
290
     0
176
     1
 90
        1
176
     1
 40
0.0
176
     1
 90
        0
176
     1
290
     0
176
     1
290
     1
176
     1
290
     1
176
     1
290
     0
176
     1
290
     0
176
     1
290
     0
176
     1
290
     0
176
     1
290
     0
176
     1
290
     0
176
     1
 90
       50
176
     1
 40
0.0
176
     1
 40
1.0
176
     1
 90
        0
176
     1
 62
    18
420
        0
176
     1
 90
       50
176
     1
 90
        3
176
     1
 62
     5
420
      255
176
     1
290
     0
176
     1
 90
       50
176
     1
 90
       50
176
     1
 90
       50
176
     1
290
     0
176
     1
 90
       50
176
     1
 62
   256
176
     0
 40
1.0
176
     0
 90
        2
176
     1
  1
strokes_ogs.tif
176
     1
290
     0
176
     1
 40
1.0
176
     1
 40
1.0
176
     1
1001
ACAD
1000
AcDbSavedByObjectVersion
1070
     0
  0
VISUALSTYLE
  5
3B
102
{ACAD_REACTORS
330
29
102
}
330
29
100
AcDbVisualStyle
  2
Sketchy
 70
    24
177
     3
291
     0
 70
    58
 90
        1
176
     1
 90
        2
176
     1
 90
        2
176
     1
 90
        0
176
     1
 40
0.6
176
     1
 40
30.0
176
     1
 62
     7
420
 16777215
176
     1
 90
        2
176
     1
 90
        2
176
     1
 62
     7
176
     1
 62
     7
176
     1
 90
        1
176
     1
 90
        1
176
     1
 40
40.0
176
     1
 90
       11
176
     1
 62
     7
176
     1
 40
1.0
176
     1
 90
        1
176
     1
 90
        6
176
     1
 90
        2
176
     1
 62
     7
176
     1
 90
        6
176
     1
 90
        0
176
     1
 90
        0
176
     1
290
     0
176
     1
 90
        1
176
     1
 40
0.0
176
     1
 90
        0
176
     1
290
     0
176
     1
290
     1
176
     1
290
     1
176
     1
290
     0
176
     1
290
     0
176
     1
290
     0
176
     1
290
     0
176
     1
290
     0
176
     1
290
     0
176
     1
 90
       50
176
     1
 40
0.0
176
     1
 40
1.0
176
     1
 90
        0
176
     1
 62
    18
420
        0
176
     1
 90
       50
176
     1
 90
        3
176
     1
 62
     5
420
      255
176
     1
290
     0
176
     1
 90
       50
176
     1
 90
       50
176
     1
 90
       50
176
     1
290
     0
176
     1
 90
       50
176
     1
 62
   256
176
     0
 40
1.0
176
     0
 90
        2
176
     1
  1
strokes_ogs.tif
176
     1
290
     0
176
     1
 40
1.0
176
     1
 40
1.0
176
     1
1001
ACAD
1000
AcDbSavedByObjectVersion
1070
     0
  0
VISUALSTYLE
  5
36
102
{ACAD_REACTORS
330
29
102
}
330
29
100
AcDbVisualStyle
  2
Thicken
 70
    13
177
     3
291
     1
 70
    58
 90
        2
176
     1
 90
        2
176
     1
 90
        0
176
     1
 90
        0
176
     1
 40
0.6
176
     1
 40
30.0
176
     1
 62
     7
420
 16777215
176
     1
 90
        1
176
     1
 90
        4
176
     1
 62
     7
176
     1
 62
   257
176
     1
 90
        1
176
     1
 90
        1
176
     1
 40
1.0
176
     1
 90
       12
176
     1
 62
     7
176
     1
 40
1.0
176
     1
 90
        1
176
     1
 90
        6
176
     1
 90
        2
176
     1
 62
     7
176
     1
 90
        5
176
     1
 90
        0
176
     1
 90
        0
176
     1
290
     0
176
     1
 90
        1
176
     1
 40
0.0
176
     1
 90
        0
176
     1
290
     0
176
     1
290
     1
176
     1
290
     1
176
     1
290
     0
176
     1
290
     0
176
     1
290
     0
176
     1
290
     0
176
     1
290
     0
176
     1
290
     0
176
     1
 90
       50
176
     1
 40
0.0
176
     1
 40
1.0
176
     1
 90
        0
176
     1
 62
    18
420
        0
176
     1
 90
       50
176
     1
 90
        3
176
     1
 62
     5
420
      255
176
     1
290
     0
176
     1
 90
       50
176
     1
 90
       50
176
     1
 90
       50
176
     1
290
     0
176
     1
 90
       50
176
     1
 62
   256
176
     0
 40
1.0
176
     0
 90
        2
176
     1
  1
strokes_ogs.tif
176
     1
290
     0
176
     1
 40
1.0
176
     1
 40
1.0
176
     1
1001
ACAD
1000
AcDbSavedByObjectVersion
1070
     0
  0
VISUALSTYLE
  5
30
102
{ACAD_REACTORS
330
29
102
}
330
29
100
AcDbVisualStyle
  2
Wireframe
 70
     5
177
     3
291
     0
 70
    58
 90
        0
176
     1
 90
        2
176
     1
 90
        0
176
     1
 90
        0
176
     1
 40
0.6
176
     1
 40
30.0
176
     1
 62
     7
420
 16777215
176
     1
 90
        1
176
     1
 90
        4
176
     1
 62
     7
176
     1
 62
   257
176
     1
 90
        1
176
     1
 90
        1
176
     1
 40
1.0
176
     1
 90
        0
176
     1
 62
   257
176
     1
 40
1.0
176
     1
 90
        1
176
     1
 90
        6
176
     1
 90
        2
176
     1
 62
     7
176
     1
 90
        3
176
     1
 90
        0
176
     1
 90
        0
176
     1
290
     0
176
     1
 90
        1
176
     1
 40
0.0
176
     1
 90
        0
176
     1
290
     0
176
     1
290
     1
176
     1
290
     1
176
     1
290
     0
176
     1
290
     0
176
     1
290
     0
176
     1
290
     0
176
     1
290
     0
176
     1
290
     0
176
     1
 90
       50
176
     1
 40
0.0
176
     1
 40
1.0
176
     1
 90
        0
176
     1
 62
    18
420
        0
176
     1
 90
       50
176
     1
 90
        3
176
     1
 62
     5
420
      255
176
     1
290
     0
176
     1
 90
       50
176
     1
 90
       50
176
     1
 90
       50
176
     1
290
     0
176
     1
 90
       50
176
     1
 62
   256
176
     0
 40
1.0
176
     0
 90
        2
176
     1
  1
strokes_ogs.tif
176
     1
290
     0
176
     1
 40
1.0
176
     1
 40
1.0
176
     1
1001
ACAD
1000
AcDbSavedByObjectVersion
1070
     0
  0
VISUALSTYLE
  5
3C
102
{ACAD_REACTORS
330
29
102
}
330
29
100
AcDbVisualStyle
  2
X-Ray
 70
    25
177
     3
291
     0
 70
    58
 90
        2
176
     1
 90
        2
176
     1
 90
        1
176
     1
 90
        1
176
     1
 40
0.5
176
     1
 40
30.0
176
     1
 62
     7
420
 16777215
176
     1
 90
        1
176
     1
 90
        0
176
     1
 62
     7
176
     1
 62
   257
176
     1
 90
        1
176
     1
 90
        1
176
     1
 40
1.0
176
     1
 90
        8
176
     1
 62
     7
176
     1
 40
1.0
176
     1
 90
        1
176
     1
 90
        6
176
     1
 90
        2
176
     1
 62
     7
176
     1
 90
        3
176
     1
 90
        0
176
     1
 90
        0
176
     1
290
     0
176
     1
 90
       13
176
     1
 40
0.0
176
     1
 90
        0
176
     1
290
     0
176
     1
290
     1
176
     1
290
     1
176
     1
290
     0
176
     1
290
     0
176
     1
290
     0
176
     1
290
     0
176
     1
290
     0
176
     1
290
     0
176
     1
 90
       50
176
     1
 40
0.0
176
     1
 40
1.0
176
     1
 90
        0
176
     1
 62
    18
420
        0
176
     1
 90
       50
176
     1
 90
        3
176
     1
 62
     5
420
      255
176
     1
290
     0
176
     1
 90
       50
176
     1
 90
       50
176
     1
 90
       50
176
     1
290
     0
176
     1
 90
       50
176
     1
 62
   256
176
     0
 40
1.0
176
     0
 90
        2
176
     1
  1
strokes_ogs.tif
176
     1
290
     0
176
     1
 40
1.0
176
     1
 40
1.0
176
     1
1001
ACAD
1000
AcDbSavedByObjectVersion
1070
     0
  0
DICTIONARYVAR
  5
55D
102
{ACAD_REACTORS
330
558
102
}
330
558
100
DictionaryVariables
280
     0
  1
1:1
  0
DICTIONARYVAR
  5
55A
102
{ACAD_REACTORS
330
558
102
}
330
558
100
DictionaryVariables
280
     0
  1
STANDARD
  0
DICTIONARYVAR
  5
559
102
{ACAD_REACTORS
330
558
102
}
330
558
100
DictionaryVariables
280
     0
  1
STANDARD
  0
DICTIONARYVAR
  5
55B
102
{ACAD_REACTORS
330
558
102
}
330
558
100
DictionaryVariables
280
     0
  1
Imperial24
  0
DICTIONARYVAR
  5
55C
102
{ACAD_REACTORS
330
558
102
}
330
558
100
DictionaryVariables
280
     0
  1
Imperial24
  0
DICTIONARY
  5
993
330
6B
100
AcDbDictionary
280
     1
281
     1
  3
ACAD_XREC_ROUNDTRIP
360
994
  0
DICTIONARY
  5
1A
330
19
100
AcDbDictionary
280
     1
281
     1
  3
BUMPTILE
360
1C
  3
DIFFUSETILE
360
1B
  3
OPACITYTILE
360
1F
  3
REFLECTIONTILE
360
1E
  3
REFRACTIONTILE
360
20
  3
SPECULARTILE
360
1D
  0
DICTIONARY
  5
12
330
11
100
AcDbDictionary
280
     1
281
     1
  3
BUMPTILE
360
14
  3
DIFFUSETILE
360
13
  3
OPACITYTILE
360
17
  3
REFLECTIONTILE
360
16
  3
REFRACTIONTILE
360
18
  3
SPECULARTILE
360
15
  0
DICTIONARY
  5
22
330
21
100
AcDbDictionary
280
     1
281
     1
  3
BUMPTILE
360
24
  3
DIFFUSETILE
360
23
  3
OPACITYTILE
360
27
  3
REFLECTIONTILE
360
26
  3
REFRACTIONTILE
360
28
  3
SPECULARTILE
360
25
  0
DICTIONARY
  5
991
330
69
100
AcDbDictionary
280
     1
281
     1
  3
ACAD_XREC_ROUNDTRIP
360
992
  0
DICTIONARY
  5
55E
330
65
100
AcDbDictionary
280
     1
281
     1
  3
ACAD_ROUNDTRIP_2008_TABLESTYLE_CELLSTYLEMAP
360
98F
  0
XRECORD
  5
994
102
{ACAD_REACTORS
330
993
102
}
330
993
100
AcDbXrecord
280
     1
102
DISPLAYNAME
  1
Imperial24
102
FLAGS
 90
        0
  0
XRECORD
  5
1C
102
{ACAD_REACTORS
330
1A
102
}
330
1A
100
AcDbXrecord
280
     1
270
     1
271
     1
  0
XRECORD
  5
1B
102
{ACAD_REACTORS
330
1A
102
}
330
1A
100
AcDbXrecord
280
     1
270
     1
271
     1
  0
XRECORD
  5
1F
102
{ACAD_REACTORS
330
1A
102
}
330
1A
100
AcDbXrecord
280
     1
270
     1
271
     1
  0
XRECORD
  5
1E
102
{ACAD_REACTORS
330
1A
102
}
330
1A
100
AcDbXrecord
280
     1
270
     1
271
     1
  0
XRECORD
  5
20
102
{ACAD_REACTORS
330
1A
102
}
330
1A
100
AcDbXrecord
280
     1
270
     1
271
     1
  0
XRECORD
  5
1D
102
{ACAD_REACTORS
330
1A
102
}
330
1A
100
AcDbXrecord
280
     1
270
     1
271
     1
  0
XRECORD
  5
14
102
{ACAD_REACTORS
330
12
102
}
330
12
100
AcDbXrecord
280
     1
270
     1
271
     1
  0
XRECORD
  5
13
102
{ACAD_REACTORS
330
12
102
}
330
12
100
AcDbXrecord
280
     1
270
     1
271
     1
  0
XRECORD
  5
17
102
{ACAD_REACTORS
330
12
102
}
330
12
100
AcDbXrecord
280
     1
270
     1
271
     1
  0
XRECORD
  5
16
102
{ACAD_REACTORS
330
12
102
}
330
12
100
AcDbXrecord
280
     1
270
     1
271
     1
  0
XRECORD
  5
18
102
{ACAD_REACTORS
330
12
102
}
330
12
100
AcDbXrecord
280
     1
270
     1
271
     1
  0
XRECORD
  5
15
102
{ACAD_REACTORS
330
12
102
}
330
12
100
AcDbXrecord
280
     1
270
     1
271
     1
  0
XRECORD
  5
24
102
{ACAD_REACTORS
330
22
102
}
330
22
100
AcDbXrecord
280
     1
270
     1
271
     1
  0
XRECORD
  5
23
102
{ACAD_REACTORS
330
22
102
}
330
22
100
AcDbXrecord
280
     1
270
     1
271
     1
  0
XRECORD
  5
27
102
{ACAD_REACTORS
330
22
102
}
330
22
100
AcDbXrecord
280
     1
270
     1
271
     1
  0
XRECORD
  5
26
102
{ACAD_REACTORS
330
22
102
}
330
22
100
AcDbXrecord
280
     1
270
     1
271
     1
  0
XRECORD
  5
28
102
{ACAD_REACTORS
330
22
102
}
330
22
100
AcDbXrecord
280
     1
270
     1
271
     1
  0
XRECORD
  5
25
102
{ACAD_REACTORS
330
22
102
}
330
22
100
AcDbXrecord
280
     1
270
     1
271
     1
  0
XRECORD
  5
992
102
{ACAD_REACTORS
330
991
102
}
330
991
100
AcDbXrecord
280
     1
102
DISPLAYNAME
  1
Imperial24
102
FLAGS
 90
        0
  0
CELLSTYLEMAP
  5
98F
102
{ACAD_REACTORS
330
55E
102
}
330
55E
100
AcDbCellStyleMap
 90
        3
300
CELLSTYLE
  1
TABLEFORMAT_BEGIN
 90
        5
170
     1
 91
        0
 92
    32768
 62
   257
 93
        1
300
CONTENTFORMAT
  1
CONTENTFORMAT_BEGIN
 90
        0
 91
        0
 92
      512
 93
        0
300

 40
0.0
140
1.0
 94
        5
 62
     0
340
55
144
0.25
309
CONTENTFORMAT_END
171
     1
301
MARGIN
  1
CELLMARGIN_BEGIN
 40
0.06
 40
0.06
 40
0.06
 40
0.06
 40
0.18
 40
0.18
309
CELLMARGIN_END
 94
        6
 95
        1
302
GRIDFORMAT
  1
GRIDFORMAT_BEGIN
 90
        0
 91
        1
 62
     0
 92
       -2
340
0
 93
        0
 40
0.045
309
GRIDFORMAT_END
 95
        2
302
GRIDFORMAT
  1
GRIDFORMAT_BEGIN
 90
        0
 91
        1
 62
     0
 92
       -2
340
0
 93
        0
 40
0.045
309
GRIDFORMAT_END
 95
        4
302
GRIDFORMAT
  1
GRIDFORMAT_BEGIN
 90
        0
 91
        1
 62
     0
 92
       -2
340
0
 93
        0
 40
0.045
309
GRIDFORMAT_END
 95
        8
302
GRIDFORMAT
  1
GRIDFORMAT_BEGIN
 90
        0
 91
        1
 62
     0
 92
       -2
340
0
 93
        0
 40
0.045
309
GRIDFORMAT_END
 95
       16
302
GRIDFORMAT
  1
GRIDFORMAT_BEGIN
 90
        0
 91
        1
 62
     0
 92
       -2
340
0
 93
        0
 40
0.045
309
GRIDFORMAT_END
 95
       32
302
GRIDFORMAT
  1
GRIDFORMAT_BEGIN
 90
        0
 91
        1
 62
     0
 92
       -2
340
0
 93
        0
 40
0.045
309
GRIDFORMAT_END
309
TABLEFORMAT_END
  1
CELLSTYLE_BEGIN
 90
        1
 91
        1
300
_TITLE
309
CELLSTYLE_END
300
CELLSTYLE
  1
TABLEFORMAT_BEGIN
 90
        5
170
     1
 91
        0
 92
        0
 62
   257
 93
        1
300
CONTENTFORMAT
  1
CONTENTFORMAT_BEGIN
 90
        0
 91
        0
 92
      512
 93
        0
300

 40
0.0
140
1.0
 94
        5
 62
     0
340
55
144
0.18
309
CONTENTFORMAT_END
171
     1
301
MARGIN
  1
CELLMARGIN_BEGIN
 40
0.06
 40
0.06
 40
0.06
 40
0.06
 40
0.18
 40
0.18
309
CELLMARGIN_END
 94
        6
 95
        1
302
GRIDFORMAT
  1
GRIDFORMAT_BEGIN
 90
        0
 91
        1
 62
     0
 92
       -2
340
0
 93
        0
 40
0.045
309
GRIDFORMAT_END
 95
        2
302
GRIDFORMAT
  1
GRIDFORMAT_BEGIN
 90
        0
 91
        1
 62
     0
 92
       -2
340
0
 93
        0
 40
0.045
309
GRIDFORMAT_END
 95
        4
302
GRIDFORMAT
  1
GRIDFORMAT_BEGIN
 90
        0
 91
        1
 62
     0
 92
       -2
340
0
 93
        0
 40
0.045
309
GRIDFORMAT_END
 95
        8
302
GRIDFORMAT
  1
GRIDFORMAT_BEGIN
 90
        0
 91
        1
 62
     0
 92
       -2
340
0
 93
        0
 40
0.045
309
GRIDFORMAT_END
 95
       16
302
GRIDFORMAT
  1
GRIDFORMAT_BEGIN
 90
        0
 91
        1
 62
     0
 92
       -2
340
0
 93
        0
 40
0.045
309
GRIDFORMAT_END
 95
       32
302
GRIDFORMAT
  1
GRIDFORMAT_BEGIN
 90
        0
 91
        1
 62
     0
 92
       -2
340
0
 93
        0
 40
0.045
309
GRIDFORMAT_END
309
TABLEFORMAT_END
  1
CELLSTYLE_BEGIN
 90
        2
 91
        1
300
_HEADER
309
CELLSTYLE_END
300
CELLSTYLE
  1
TABLEFORMAT_BEGIN
 90
        5
170
     1
 91
        0
 92
        0
 62
   257
 93
        1
300
CONTENTFORMAT
  1
CONTENTFORMAT_BEGIN
 90
        0
 91
        0
 92
      512
 93
        0
300

 40
0.0
140
1.0
 94
        2
 62
     0
340
55
144
0.18
309
CONTENTFORMAT_END
171
     1
301
MARGIN
  1
CELLMARGIN_BEGIN
 40
0.06
 40
0.06
 40
0.06
 40
0.06
 40
0.18
 40
0.18
309
CELLMARGIN_END
 94
        6
 95
        1
302
GRIDFORMAT
  1
GRIDFORMAT_BEGIN
 90
        0
 91
        1
 62
     0
 92
       -2
340
0
 93
        0
 40
0.045
309
GRIDFORMAT_END
 95
        2
302
GRIDFORMAT
  1
GRIDFORMAT_BEGIN
 90
        0
 91
        1
 62
     0
 92
       -2
340
0
 93
        0
 40
0.045
309
GRIDFORMAT_END
 95
        4
302
GRIDFORMAT
  1
GRIDFORMAT_BEGIN
 90
        0
 91
        1
 62
     0
 92
       -2
340
0
 93
        0
 40
0.045
309
GRIDFORMAT_END
 95
        8
302
GRIDFORMAT
  1
GRIDFORMAT_BEGIN
 90
        0
 91
        1
 62
     0
 92
       -2
340
0
 93
        0
 40
0.045
309
GRIDFORMAT_END
 95
       16
302
GRIDFORMAT
  1
GRIDFORMAT_BEGIN
 90
        0
 91
        1
 62
     0
 92
       -2
340
0
 93
        0
 40
0.045
309
GRIDFORMAT_END
 95
       32
302
GRIDFORMAT
  1
GRIDFORMAT_BEGIN
 90
        0
 91
        1
 62
     0
 92
       -2
340
0
 93
        0
 40
0.045
309
GRIDFORMAT_END
309
TABLEFORMAT_END
  1
CELLSTYLE_BEGIN
 90
        3
 91
        2
300
_DATA
309
CELLSTYLE_END
  0
ENDSEC
  0
EOF
