  0
SECTION
  2
HEADER
  9
$ACADVER
  1
AC1027
  9
$ACADMAINTVER
 70
   125
  9
$DWGCODEPAGE
  3
ANSI_1252
  9
$LASTSAVEDBY
  1
ufficio.tecnico
  9
$REQUIREDVERSIONS
160
                 0
  9
$INSBASE
 10
0.0
 20
0.0
 30
0.0
  9
$EXTMIN
 10
126.6333699041738
 20
1171.527117760647
 30
0.0
  9
$EXTMAX
 10
262.2707667855237
 20
1556.831703895223
 30
0.0
  9
$LIMMIN
 10
0.0
 20
0.0
  9
$LIMMAX
 10
420.0
 20
297.0
  9
$ORTHOMODE
 70
     0
  9
$REGENMODE
 70
     1
  9
$FILLMODE
 70
     1
  9
$QTEXTMODE
 70
     0
  9
$MIRRTEXT
 70
     0
  9
$LTSCALE
 40
1.0
  9
$ATTMODE
 70
     1
  9
$TEXTSIZE
 40
2.5
  9
$TRACEWID
 40
1.0
  9
$TEXTSTYLE
  7
Standard
  9
$CLAYER
  8
0
  9
$CELTYPE
  6
ByLayer
  9
$CECOLOR
 62
   256
  9
$CELTSCALE
 40
1.0
  9
$DISPSILH
 70
     0
  9
$DIMSCALE
 40
1.0
  9
$DIMASZ
 40
2.5
  9
$DIMEXO
 40
0.625
  9
$DIMDLI
 40
3.75
  9
$DIMRND
 40
0.0
  9
$DIMDLE
 40
0.0
  9
$DIMEXE
 40
1.25
  9
$DIMTP
 40
0.0
  9
$DIMTM
 40
0.0
  9
$DIMTXT
 40
2.5
  9
$DIMCEN
 40
2.5
  9
$DIMTSZ
 40
0.0
  9
$DIMTOL
 70
     0
  9
$DIMLIM
 70
     0
  9
$DIMTIH
 70
     0
  9
$DIMTOH
 70
     0
  9
$DIMSE1
 70
     0
  9
$DIMSE2
 70
     0
  9
$DIMTAD
 70
     1
  9
$DIMZIN
 70
     8
  9
$DIMBLK
  1

  9
$DIMASO
 70
     1
  9
$DIMSHO
 70
     1
  9
$DIMPOST
  1

  9
$DIMAPOST
  1

  9
$DIMALT
 70
     0
  9
$DIMALTD
 70
     3
  9
$DIMALTF
 40
0.03937007874016
  9
$DIMLFAC
 40
1.0
  9
$DIMTOFL
 70
     1
  9
$DIMTVP
 40
0.0
  9
$DIMTIX
 70
     0
  9
$DIMSOXD
 70
     0
  9
$DIMSAH
 70
     0
  9
$DIMBLK1
  1

  9
$DIMBLK2
  1

  9
$DIMSTYLE
  2
ISO-25
  9
$DIMCLRD
 70
     0
  9
$DIMCLRE
 70
     0
  9
$DIMCLRT
 70
     0
  9
$DIMTFAC
 40
1.0
  9
$DIMGAP
 40
0.625
  9
$DIMJUST
 70
     0
  9
$DIMSD1
 70
     0
  9
$DIMSD2
 70
     0
  9
$DIMTOLJ
 70
     0
  9
$DIMTZIN
 70
     8
  9
$DIMALTZ
 70
     0
  9
$DIMALTTZ
 70
     0
  9
$DIMUPT
 70
     0
  9
$DIMDEC
 70
     2
  9
$DIMTDEC
 70
     2
  9
$DIMALTU
 70
     2
  9
$DIMALTTD
 70
     3
  9
$DIMTXSTY
  7
Standard
  9
$DIMAUNIT
 70
     0
  9
$DIMADEC
 70
     0
  9
$DIMALTRND
 40
0.0
  9
$DIMAZIN
 70
     0
  9
$DIMDSEP
 70
    44
  9
$DIMATFIT
 70
     3
  9
$DIMFRAC
 70
     0
  9
$DIMLDRBLK
  1

  9
$DIMLUNIT
 70
     2
  9
$DIMLWD
 70
    -2
  9
$DIMLWE
 70
    -2
  9
$DIMTMOVE
 70
     0
  9
$DIMFXL
 40
1.0
  9
$DIMFXLON
 70
     0
  9
$DIMJOGANG
 40
0.7853981633974483
  9
$DIMTFILL
 70
     0
  9
$DIMTFILLCLR
 70
     0
  9
$DIMARCSYM
 70
     1
  9
$DIMLTYPE
  6

  9
$DIMLTEX1
  6

  9
$DIMLTEX2
  6

  9
$DIMTXTDIRECTION
 70
     0
  9
$LUNITS
 70
     2
  9
$LUPREC
 70
     4
  9
$SKETCHINC
 40
1.0
  9
$FILLETRAD
 40
0.0
  9
$AUNITS
 70
     0
  9
$AUPREC
 70
     0
  9
$MENU
  1
.
  9
$ELEVATION
 40
0.0
  9
$PELEVATION
 40
0.0
  9
$THICKNESS
 40
0.0
  9
$LIMCHECK
 70
     0
  9
$CHAMFERA
 40
0.0
  9
$CHAMFERB
 40
0.0
  9
$CHAMFERC
 40
0.0
  9
$CHAMFERD
 40
0.0
  9
$SKPOLY
 70
     0
  9
$TDCREATE
 40
2458680.507314815
  9
$TDUCREATE
 40
2458680.423981505
  9
$TDUPDATE
 40
2459810.455497685
  9
$TDUUPDATE
 40
2459810.372164352
  9
$TDINDWG
 40
0.0130067245
  9
$TDUSRTIMER
 40
0.0130067014
  9
$USRTIMER
 70
     1
  9
$ANGBASE
 50
0.0
  9
$ANGDIR
 70
     0
  9
$PDMODE
 70
     0
  9
$PDSIZE
 40
0.0
  9
$PLINEWID
 40
0.0
  9
$SPLFRAME
 70
     0
  9
$SPLINETYPE
 70
     6
  9
$SPLINESEGS
 70
     8
  9
$HANDSEED
  5
1224
  9
$SURFTAB1
 70
     6
  9
$SURFTAB2
 70
     6
  9
$SURFTYPE
 70
     6
  9
$SURFU
 70
     6
  9
$SURFV
 70
     6
  9
$UCSBASE
  2

  9
$UCSNAME
  2

  9
$UCSORG
 10
0.0
 20
0.0
 30
0.0
  9
$UCSXDIR
 10
1.0
 20
0.0
 30
0.0
  9
$UCSYDIR
 10
0.0
 20
1.0
 30
0.0
  9
$UCSORTHOREF
  2

  9
$UCSORTHOVIEW
 70
     0
  9
$UCSORGTOP
 10
0.0
 20
0.0
 30
0.0
  9
$UCSORGBOTTOM
 10
0.0
 20
0.0
 30
0.0
  9
$UCSORGLEFT
 10
0.0
 20
0.0
 30
0.0
  9
$UCSORGRIGHT
 10
0.0
 20
0.0
 30
0.0
  9
$UCSORGFRONT
 10
0.0
 20
0.0
 30
0.0
  9
$UCSORGBACK
 10
0.0
 20
0.0
 30
0.0
  9
$PUCSBASE
  2

  9
$PUCSNAME
  2

  9
$PUCSORG
 10
0.0
 20
0.0
 30
0.0
  9
$PUCSXDIR
 10
1.0
 20
0.0
 30
0.0
  9
$PUCSYDIR
 10
0.0
 20
1.0
 30
0.0
  9
$PUCSORTHOREF
  2

  9
$PUCSORTHOVIEW
 70
     0
  9
$PUCSORGTOP
 10
0.0
 20
0.0
 30
0.0
  9
$PUCSORGBOTTOM
 10
0.0
 20
0.0
 30
0.0
  9
$PUCSORGLEFT
 10
0.0
 20
0.0
 30
0.0
  9
$PUCSORGRIGHT
 10
0.0
 20
0.0
 30
0.0
  9
$PUCSORGFRONT
 10
0.0
 20
0.0
 30
0.0
  9
$PUCSORGBACK
 10
0.0
 20
0.0
 30
0.0
  9
$USERI1
 70
     0
  9
$USERI2
 70
     0
  9
$USERI3
 70
     0
  9
$USERI4
 70
     0
  9
$USERI5
 70
     0
  9
$USERR1
 40
0.0
  9
$USERR2
 40
0.0
  9
$USERR3
 40
0.0
  9
$USERR4
 40
0.0
  9
$USERR5
 40
0.0
  9
$WORLDVIEW
 70
     1
  9
$SHADEDGE
 70
     3
  9
$SHADEDIF
 70
    70
  9
$TILEMODE
 70
     1
  9
$MAXACTVP
 70
    64
  9
$PINSBASE
 10
0.0
 20
0.0
 30
0.0
  9
$PLIMCHECK
 70
     0
  9
$PEXTMIN
 10
0.0
 20
0.0
 30
0.0
  9
$PEXTMAX
 10
0.0
 20
0.0
 30
0.0
  9
$PLIMMIN
 10
0.0
 20
0.0
  9
$PLIMMAX
 10
12.0
 20
9.0
  9
$UNITMODE
 70
     0
  9
$VISRETAIN
 70
     1
  9
$PLINEGEN
 70
     0
  9
$PSLTSCALE
 70
     1
  9
$TREEDEPTH
 70
  3020
  9
$CMLSTYLE
  2
Standard
  9
$CMLJUST
 70
     0
  9
$CMLSCALE
 40
20.0
  9
$PROXYGRAPHICS
 70
     1
  9
$MEASUREMENT
 70
     1
  9
$CELWEIGHT
370
    -1
  9
$ENDCAPS
280
     0
  9
$JOINSTYLE
280
     0
  9
$LWDISPLAY
290
     0
  9
$INSUNITS
 70
     4
  9
$HYPERLINKBASE
  1

  9
$STYLESHEET
  1

  9
$XEDIT
290
     1
  9
$CEPSNTYPE
380
     0
  9
$PSTYLEMODE
290
     1
  9
$FINGERPRINTGUID
  2
{5B81C92D-0471-4D64-A141-5E74D43CDFFE}
  9
$VERSIONGUID
  2
{346B75A1-07E7-D64B-ADC2-A01FC60C923E}
  9
$EXTNAMES
290
     1
  9
$PSVPSCALE
 40
0.0
  9
$OLESTARTUP
290
     0
  9
$SORTENTS
280
   127
  9
$INDEXCTL
280
     0
  9
$HIDETEXT
280
     1
  9
$XCLIPFRAME
280
     0
  9
$HALOGAP
280
     0
  9
$OBSCOLOR
 70
   257
  9
$OBSLTYPE
280
     0
  9
$INTERSECTIONDISPLAY
280
     0
  9
$INTERSECTIONCOLOR
 70
   257
  9
$DIMASSOC
280
     2
  9
$PROJECTNAME
  1

  9
$CAMERADISPLAY
290
     0
  9
$LENSLENGTH
 40
50.0
  9
$CAMERAHEIGHT
 40
0.0
  9
$STEPSPERSEC
 40
2.0
  9
$STEPSIZE
 40
6.0
  9
$3DDWFPREC
 40
2.0
  9
$PSOLWIDTH
 40
5.0
  9
$PSOLHEIGHT
 40
80.0
  9
$LOFTANG1
 40
1.570796326794896
  9
$LOFTANG2
 40
1.570796326794896
  9
$LOFTMAG1
 40
0.0
  9
$LOFTMAG2
 40
0.0
  9
$LOFTPARAM
 70
     7
  9
$LOFTNORMALS
280
     1
  9
$LATITUDE
 40
37.795
  9
$LONGITUDE
 40
-122.394
  9
$NORTHDIRECTION
 40
0.0
  9
$TIMEZONE
 70
 -8000
  9
$LIGHTGLYPHDISPLAY
280
     1
  9
$TILEMODELIGHTSYNCH
280
     1
  9
$CMATERIAL
347
ED
  9
$SOLIDHIST
280
     1
  9
$SHOWHIST
280
     1
  9
$DWFFRAME
280
     2
  9
$DGNFRAME
280
     0
  9
$REALWORLDSCALE
290
     1
  9
$INTERFERECOLOR
 62
     1
  9
$INTERFEREOBJVS
345
FA
  9
$INTERFEREVPVS
346
11F
  9
$CSHADOW
280
     0
  9
$SHADOWPLANELOCATION
 40
0.0
  0
ENDSEC
  0
SECTION
  2
CLASSES
  0
CLASS
  1
ACDBDICTIONARYWDFLT
  2
AcDbDictionaryWithDefault
  3
ObjectDBX Classes
 90
        0
 91
        1
280
     0
281
     0
  0
CLASS
  1
DICTIONARYVAR
  2
AcDbDictionaryVar
  3
ObjectDBX Classes
 90
        0
 91
       12
280
     0
281
     0
  0
CLASS
  1
TABLESTYLE
  2
AcDbTableStyle
  3
ObjectDBX Classes
 90
     4095
 91
        1
280
     0
281
     0
  0
CLASS
  1
MATERIAL
  2
AcDbMaterial
  3
ObjectDBX Classes
 90
     1153
 91
        3
280
     0
281
     0
  0
CLASS
  1
VISUALSTYLE
  2
AcDbVisualStyle
  3
ObjectDBX Classes
 90
     4095
 91
       26
280
     0
281
     0
  0
CLASS
  1
SCALE
  2
AcDbScale
  3
ObjectDBX Classes
 90
     1153
 91
       17
280
     0
281
     0
  0
CLASS
  1
MLEADERSTYLE
  2
AcDbMLeaderStyle
  3
ACDB_MLEADERSTYLE_CLASS
 90
     4095
 91
        1
280
     0
281
     0
  0
CLASS
  1
ACDBSECTIONVIEWSTYLE
  2
AcDbSectionViewStyle
  3
ObjectDBX Classes
 90
     1025
 91
        1
280
     0
281
     0
  0
CLASS
  1
ACDBDETAILVIEWSTYLE
  2
AcDbDetailViewStyle
  3
ObjectDBX Classes
 90
     1025
 91
        1
280
     0
281
     0
  0
CLASS
  1
SORTENTSTABLE
  2
AcDbSortentsTable
  3
ObjectDBX Classes
 90
        0
 91
        1
280
     0
281
     0
  0
CLASS
  1
CELLSTYLEMAP
  2
AcDbCellStyleMap
  3
ObjectDBX Classes
 90
     1152
 91
        2
280
     0
281
     0
  0
ENDSEC
  0
SECTION
  2
TABLES
  0
TABLE
  2
VPORT
  5
8
102
{ACAD_XDICTIONARY
360
115E
102
}
330
0
100
AcDbSymbolTable
 70
     1
1001
ACAD
1000
DbSaveVer
1071
      249
  0
VPORT
  5
EB
330
8
100
AcDbSymbolTableRecord
100
AcDbViewportTableRecord
  2
*Active
 70
     0
 10
0.0
 20
0.0
 11
1.0
 21
1.0
 12
757.365456944679
 22
1220.023224531685
 13
0.0
 23
0.0
 14
10.0
 24
10.0
 15
10.0
 25
10.0
 16
0.0
 26
0.0
 36
1.0
 17
0.0
 27
0.0
 37
0.0
 40
938.0454476312962
 41
1.662952646239554
 42
50.0
 43
0.0
 44
0.0
 50
0.0
 51
0.0
 71
     0
 72
  1000
 73
     1
 74
     3
 75
     0
 76
     0
 77
     0
 78
     0
281
     0
 65
     1
110
0.0
120
0.0
130
0.0
111
1.0
121
0.0
131
0.0
112
0.0
122
1.0
132
0.0
 79
     0
146
0.0
348
F6
 60
     2
 61
     5
292
     1
282
     1
141
0.0
142
0.0
 63
   250
421
  3355443
1001
ACAD_NAV_VCDISPLAY
1070
     3
  0
ENDTAB
  0
TABLE
  2
LTYPE
  5
5
330
0
100
AcDbSymbolTable
 70
     2
  0
LTYPE
  5
14
330
5
100
AcDbSymbolTableRecord
100
AcDbLinetypeTableRecord
  2
ByBlock
 70
     0
  3

 72
    65
 73
     0
 40
0.0
  0
LTYPE
  5
15
330
5
100
AcDbSymbolTableRecord
100
AcDbLinetypeTableRecord
  2
ByLayer
 70
     0
  3

 72
    65
 73
     0
 40
0.0
  0
LTYPE
  5
16
330
5
100
AcDbSymbolTableRecord
100
AcDbLinetypeTableRecord
  2
Continuous
 70
     0
  3
Solid line
 72
    65
 73
     0
 40
0.0
  0
LTYPE
  5
15E
330
5
100
AcDbSymbolTableRecord
100
AcDbLinetypeTableRecord
  2
CENTERX2
 70
     0
  3
Center (2x) ________  __  ________  __  _____
 72
    65
 73
     4
 40
4.0
 49
2.5
 74
     0
 49
-0.5
 74
     0
 49
0.5
 74
     0
 49
-0.5
 74
     0
  0
ENDTAB
  0
TABLE
  2
LAYER
  5
2
102
{ACAD_XDICTIONARY
360
17F
102
}
330
0
100
AcDbSymbolTable
 70
    11
  0
LAYER
  5
10
102
{ACAD_XDICTIONARY
360
1149
102
}
330
2
100
AcDbSymbolTableRecord
100
AcDbLayerTableRecord
  2
0
 70
     0
 62
     7
  6
Continuous
370
    -3
390
F
347
EF
348
0
  0
LAYER
  5
15F
102
{ACAD_XDICTIONARY
360
160
102
}
330
2
100
AcDbSymbolTableRecord
100
AcDbLayerTableRecord
  2
231
 70
     0
 62
     3
  6
Continuous
370
    15
390
F
347
EF
348
0
1001
AcadStringInfo
1000
MIFCodePage
1070
     2
  0
LAYER
  5
161
102
{ACAD_XDICTIONARY
360
162
102
}
330
2
100
AcDbSymbolTableRecord
100
AcDbLayerTableRecord
  2
Defpoints
 70
     0
 62
     7
  6
Continuous
290
     0
370
    25
390
F
347
EF
348
0
  0
LAYER
  5
163
102
{ACAD_XDICTIONARY
360
164
102
}
330
2
100
AcDbSymbolTableRecord
100
AcDbLayerTableRecord
  2
2333
 70
     0
 62
   140
  6
Continuous
370
    15
390
F
347
EF
348
0
1001
AcadStringInfo
1000
MIFCodePage
1070
     5
  0
LAYER
  5
165
102
{ACAD_XDICTIONARY
360
166
102
}
330
2
100
AcDbSymbolTableRecord
100
AcDbLayerTableRecord
  2
54444
 70
     0
 62
     7
  6
Continuous
370
    25
390
F
347
EF
348
0
1001
AcadStringInfo
1000
MIFCodePage
1070
     5
  0
LAYER
  5
167
102
{ACAD_XDICTIONARY
360
114E
102
}
330
2
100
AcDbSymbolTableRecord
100
AcDbLayerTableRecord
  2
02___PRT_ALL_AXES
 70
     0
 62
     7
  6
Continuous
370
    -3
390
F
347
EF
348
0
  0
LAYER
  5
168
102
{ACAD_XDICTIONARY
360
1150
102
}
330
2
100
AcDbSymbolTableRecord
100
AcDbLayerTableRecord
  2
06___PRT_ALL_SURFS
 70
     0
 62
     7
  6
Continuous
370
    -3
390
F
347
EF
348
0
  0
LAYER
  5
169
102
{ACAD_XDICTIONARY
360
1152
102
}
330
2
100
AcDbSymbolTableRecord
100
AcDbLayerTableRecord
  2
8777
 70
     0
 62
     1
  6
CENTERX2
370
    13
390
F
347
EF
348
0
1001
AcadStringInfo
1000
MIFCodePage
1070
     5
  0
LAYER
  5
16A
102
{ACAD_XDICTIONARY
360
1154
102
}
330
2
100
AcDbSymbolTableRecord
100
AcDbLayerTableRecord
  2
11
 70
     0
 62
     7
  6
Continuous
370
    -3
390
F
347
EF
348
0
1001
AcadStringInfo
1000
MIFCodePage
1070
     5
  0
LAYER
  5
16B
102
{ACAD_XDICTIONARY
360
1156
102
}
330
2
100
AcDbSymbolTableRecord
100
AcDbLayerTableRecord
  2
2
 70
     0
 62
     7
  6
Continuous
370
    -3
390
F
347
EF
348
0
  0
LAYER
  5
16C
102
{ACAD_XDICTIONARY
360
1158
102
}
330
2
100
AcDbSymbolTableRecord
100
AcDbLayerTableRecord
  2
1231
 70
     0
 62
     7
  6
Continuous
370
    -3
390
F
347
EF
348
0
1001
AcadStringInfo
1000
MIFCodePage
1070
     5
  0
ENDTAB
  0
TABLE
  2
STYLE
  5
3
330
0
100
AcDbSymbolTable
 70
     8
  0
STYLE
  5
11
330
3
100
AcDbSymbolTableRecord
100
AcDbTextStyleTableRecord
  2
Standard
 70
     0
 40
0.0
 41
1.0
 50
0.0
 71
     0
 42
2.5
  3
txt
  4
gbcbig.shx
  0
STYLE
  5
16D
330
3
100
AcDbSymbolTableRecord
100
AcDbTextStyleTableRecord
  2
宋体
 70
     0
 40
0.0
 41
1.0
 50
0.0
 71
     0
 42
2.5
  3

  4

1001
ACAD
1000
SimSun
1071
    34306
1001
AcadStringInfo
1000
MIFCodePage
1070
     5
  0
STYLE
  5
16E
330
3
100
AcDbSymbolTableRecord
100
AcDbTextStyleTableRecord
  2
标注
 70
     0
 40
0.0
 41
1.0
 50
0.0
 71
     0
 42
15.0
  3
italic.shx
  4

1001
AcadStringInfo
1000
MIFCodePage
1070
     5
  0
STYLE
  5
16F
330
3
100
AcDbSymbolTableRecord
100
AcDbTextStyleTableRecord
  2
样式 2
 70
     0
 40
0.0
 41
1.0
 50
0.0
 71
     0
 42
3.0
  3
romanc.shx
  4

1001
AcadStringInfo
1000
MIFCodePage
1070
     5
  0
STYLE
  5
170
330
3
100
AcDbSymbolTableRecord
100
AcDbTextStyleTableRecord
  2
样式 1
 70
     0
 40
0.0
 41
1.0
 50
0.0
 71
     0
 42
2.5
  3

  4

1001
ACAD
1000
SimSun
1071
    34306
1001
AcadStringInfo
1000
MIFCodePage
1070
     5
  0
STYLE
  5
171
330
3
100
AcDbSymbolTableRecord
100
AcDbTextStyleTableRecord
  2
样式 3
 70
     0
 40
0.0
 41
1.0
 50
7.0
 71
     0
 42
2.5
  3
PMingLiU.ttf
  4

1001
ACAD
1000
PMingLiU
1071
    34834
1001
AcadStringInfo
1000
MIFCodePage
1070
     5
  0
STYLE
  5
172
330
3
100
AcDbSymbolTableRecord
100
AcDbTextStyleTableRecord
  2
TEXTSTYLE_1
 70
     0
 40
0.0
 41
0.8
 50
0.0
 71
     0
 42
0.2
  3
gdt
  4

  0
STYLE
  5
1209
330
3
100
AcDbSymbolTableRecord
100
AcDbTextStyleTableRecord
  2
MtXpl_ISOCPEUR
 70
     0
 40
0.0
 41
1.0
 50
0.0
 71
     0
 42
2.5
  3
isocpeur.ttf
  4

1001
ACAD
1000
ISOCPEUR
1071
       34
  0
ENDTAB
  0
TABLE
  2
VIEW
  5
6
330
0
100
AcDbSymbolTable
 70
     0
  0
ENDTAB
  0
TABLE
  2
UCS
  5
7
330
0
100
AcDbSymbolTable
 70
     0
  0
ENDTAB
  0
TABLE
  2
APPID
  5
9
330
0
100
AcDbSymbolTable
 70
    11
  0
APPID
  5
12
330
9
100
AcDbSymbolTableRecord
100
AcDbRegAppTableRecord
  2
ACAD
 70
     0
  0
APPID
  5
9E
330
9
100
AcDbSymbolTableRecord
100
AcDbRegAppTableRecord
  2
ACAD_PSEXT
 70
     0
  0
APPID
  5
178
330
9
100
AcDbSymbolTableRecord
100
AcDbRegAppTableRecord
  2
ACAD_DSTYLE_DIMJAG
 70
     0
  0
APPID
  5
179
330
9
100
AcDbSymbolTableRecord
100
AcDbRegAppTableRecord
  2
ACAD_DSTYLE_DIMTALN
 70
     0
  0
APPID
  5
17A
330
9
100
AcDbSymbolTableRecord
100
AcDbRegAppTableRecord
  2
AcadStringInfo
 70
     0
  0
APPID
  5
17B
330
9
100
AcDbSymbolTableRecord
100
AcDbRegAppTableRecord
  2
GradientColor1ACI
 70
     0
  0
APPID
  5
17C
330
9
100
AcDbSymbolTableRecord
100
AcDbRegAppTableRecord
  2
GradientColor2ACI
 70
     0
  0
APPID
  5
17D
330
9
100
AcDbSymbolTableRecord
100
AcDbRegAppTableRecord
  2
ACAD_NAV_VCDISPLAY
 70
     0
  0
APPID
  5
17E
330
9
100
AcDbSymbolTableRecord
100
AcDbRegAppTableRecord
  2
ACAD_DSTYLE_DIMBREAK
 70
     0
  0
APPID
  5
119B
330
9
100
AcDbSymbolTableRecord
100
AcDbRegAppTableRecord
  2
ACAD_MLEADERVER
 70
     0
  0
APPID
  5
11A2
330
9
100
AcDbSymbolTableRecord
100
AcDbRegAppTableRecord
  2
ACAD_DSTYLE_DIMARC_LENGTH_SYMBOL
 70
     0
  0
ENDTAB
  0
TABLE
  2
DIMSTYLE
  5
A
330
0
100
AcDbSymbolTable
 70
     6
100
AcDbDimStyleTable
 71
     1
340
27
  0
DIMSTYLE
105
27
330
A
100
AcDbSymbolTableRecord
100
AcDbDimStyleTableRecord
  2
ISO-25
 70
     0
 41
2.5
 42
0.625
 43
3.75
 44
1.25
 73
     0
 74
     0
 77
     1
 78
     8
140
2.5
141
2.5
143
0.03937007874016
147
0.625
171
     3
172
     1
271
     2
272
     2
274
     3
278
    44
283
     0
284
     8
340
11
  0
DIMSTYLE
105
173
330
A
100
AcDbSymbolTableRecord
100
AcDbDimStyleTableRecord
  2
Standard
 70
     0
340
11
  0
DIMSTYLE
105
174
330
A
100
AcDbSymbolTableRecord
100
AcDbDimStyleTableRecord
  2
标准1x
 70
     0
 41
2.5
 42
1.0
 43
0.5
 44
2.5
 73
     0
 77
     1
 78
     9
 79
     2
 90
        1
140
2.5
141
2.5
143
0.03937007874016
147
1.0
171
     3
176
   256
177
     6
178
     3
179
     2
271
     2
272
     2
274
     3
283
     0
284
     8
340
16E
371
    25
372
    -1
1001
ACAD_DSTYLE_DIMJAG
1070
   388
1040
1.5
1001
ACAD_DSTYLE_DIMTALN
1070
   392
1070
     0
1001
AcadStringInfo
1000
MIFCodePage
1070
     2
  0
DIMSTYLE
105
175
330
A
100
AcDbSymbolTableRecord
100
AcDbDimStyleTableRecord
  2
字高5mm
 70
     0
 41
5.0
 42
1.5
 43
1.0
 44
1.5
 73
     0
 74
     0
 78
     8
140
5.0
141
0.0
147
1.5
271
     2
272
     2
289
     0
340
16D
1001
AcadStringInfo
1000
MIFCodePage
1070
     5
  0
DIMSTYLE
105
176
330
A
100
AcDbSymbolTableRecord
100
AcDbDimStyleTableRecord
  2
标准0.5x
 70
     0
 41
1.25
 42
1.0
 43
0.5
 44
2.5
 73
     0
 77
     1
 78
     9
 79
     2
 90
        1
140
1.25
141
2.5
143
0.03937007874016
147
1.0
171
     3
176
   256
177
     6
178
     3
179
     2
271
     2
272
     2
274
     3
283
     0
284
     8
340
16E
371
    25
372
    -1
1001
ACAD_DSTYLE_DIMBREAK
1070
   391
1040
3.75
1001
ACAD_DSTYLE_DIMJAG
1070
   388
1040
1.5
1001
ACAD_DSTYLE_DIMTALN
1070
   392
1070
     0
1001
AcadStringInfo
1000
MIFCodePage
1070
     5
  0
DIMSTYLE
105
177
330
A
100
AcDbSymbolTableRecord
100
AcDbDimStyleTableRecord
  2
标准2x
 70
     0
 41
5.0
 42
1.0
 43
0.5
 44
2.5
 73
     0
 77
     1
 78
     9
 79
     2
 90
        1
140
5.0
141
2.5
143
0.03937007874016
147
1.0
171
     3
176
   256
177
     6
178
     3
179
     2
271
     2
272
     2
274
     3
283
     0
284
     8
340
16E
371
    15
372
    15
1001
ACAD_DSTYLE_DIMBREAK
1070
   391
1040
3.75
1001
ACAD_DSTYLE_DIMJAG
1070
   388
1040
1.5
1001
ACAD_DSTYLE_DIMTALN
1070
   392
1070
     0
1001
AcadStringInfo
1000
MIFCodePage
1070
     5
  0
ENDTAB
  0
TABLE
  2
BLOCK_RECORD
  5
1
330
0
100
AcDbSymbolTable
 70
     1
  0
BLOCK_RECORD
  5
1F
102
{ACAD_XDICTIONARY
360
1205
102
}
330
1
100
AcDbSymbolTableRecord
100
AcDbBlockTableRecord
  2
*Model_Space
340
22
 70
     0
280
     1
281
     0
  0
BLOCK_RECORD
  5
D2
330
1
100
AcDbSymbolTableRecord
100
AcDbBlockTableRecord
  2
*Paper_Space
340
D3
 70
     0
280
     1
281
     0
  0
BLOCK_RECORD
  5
D6
330
1
100
AcDbSymbolTableRecord
100
AcDbBlockTableRecord
  2
*Paper_Space0
340
D7
 70
     0
280
     1
281
     0
  0
ENDTAB
  0
ENDSEC
  0
SECTION
  2
BLOCKS
  0
BLOCK
  5
20
330
1F
100
AcDbEntity
  8
0
100
AcDbBlockBegin
  2
*Model_Space
 70
     0
 10
0.0
 20
0.0
 30
0.0
  3
*Model_Space
  1

  0
ENDBLK
  5
21
330
1F
100
AcDbEntity
  8
0
100
AcDbBlockEnd
  0
BLOCK
  5
D4
330
D2
100
AcDbEntity
 67
     1
  8
0
100
AcDbBlockBegin
  2
*Paper_Space
 70
     0
 10
0.0
 20
0.0
 30
0.0
  3
*Paper_Space
  1

  0
ENDBLK
  5
D5
330
D2
100
AcDbEntity
 67
     1
  8
0
100
AcDbBlockEnd
  0
BLOCK
  5
D8
330
D6
100
AcDbEntity
 67
     1
  8
0
100
AcDbBlockBegin
  2
*Paper_Space0
 70
     0
 10
0.0
 20
0.0
 30
0.0
  3
*Paper_Space0
  1

  0
ENDBLK
  5
D9
330
D6
100
AcDbEntity
 67
     1
  8
0
100
AcDbBlockEnd
  0
ENDSEC
  0
SECTION
  2
ENTITIES
  0
LINE
  5
956
330
1F
100
AcDbEntity
  8
0
  6
Continuous
 62
     7
100
AcDbLine
 10
181.6452308845237
 20
1298.483953033347
 30
0.0
 11
181.6410192335233
 21
1298.421298317147
 31
0.0
  0
LINE
  5
957
330
1F
100
AcDbEntity
  8
0
  6
Continuous
 62
     7
100
AcDbLine
 10
181.1740470309237
 20
1295.107140984047
 30
0.0
 11
181.6452308843236
 21
1298.483953032547
 31
0.0
  0
LINE
  5
958
330
1F
100
AcDbEntity
  8
0
  6
Continuous
 62
     7
100
AcDbLine
 10
181.168387202124
 20
1295.034107676947
 30
0.0
 11
181.6410192339235
 21
1298.421298319748
 31
0.0
  0
LINE
  5
959
330
1F
100
AcDbEntity
  8
0
  6
Continuous
 62
     7
100
AcDbLine
 10
181.6430427821236
 20
1297.952157440347
 30
0.0
 11
181.1704107503237
 21
1294.564966797548
 31
0.0
  0
LINE
  5
95A
330
1F
100
AcDbEntity
  8
0
  6
Continuous
 62
     7
100
AcDbLine
 10
182.1444804131238
 20
1297.476573147647
 30
0.0
 11
181.7742598741238
 21
1294.823330326247
 31
0.0
  0
LINE
  5
95B
330
1F
100
AcDbEntity
  8
0
  6
Continuous
 62
     7
100
AcDbLine
 10
180.8470925564233
 20
1290.159121258547
 30
0.0
 11
180.7022065045239
 21
1323.749608223147
 31
0.0
  0
LINE
  5
95C
330
1F
100
AcDbEntity
  8
0
  6
Continuous
 62
     7
100
AcDbLine
 10
181.1704107503237
 20
1294.564966797548
 30
0.0
 11
181.168387202124
 21
1295.034107676947
 31
0.0
  0
LINE
  5
95D
330
1F
100
AcDbEntity
  8
0
  6
Continuous
 62
     7
100
AcDbLine
 10
181.6430427821236
 20
1297.952157440347
 30
0.0
 11
181.6410192339235
 21
1298.421298319748
 31
0.0
  0
LINE
  5
95E
330
1F
100
AcDbEntity
  8
0
  6
Continuous
 62
     7
100
AcDbLine
 10
182.5511180089233
 20
1283.451220708547
 30
0.0
 11
182.532555840824
 21
1287.754687162247
 31
0.0
  0
LINE
  5
95F
330
1F
100
AcDbEntity
  8
0
  6
Continuous
 62
     7
100
AcDbLine
 10
182.5535914059237
 20
1283.451231377047
 30
0.0
 11
182.5350354248239
 21
1287.753263440048
 31
0.0
  0
LINE
  5
960
330
1F
100
AcDbEntity
  8
0
  6
Continuous
 62
     7
100
AcDbLine
 10
182.8795140007237
 20
1285.787006121748
 30
0.0
 11
182.8718671300239
 21
1287.559862132047
 31
0.0
  0
LINE
  5
961
330
1F
100
AcDbEntity
  8
0
  6
Continuous
 62
     7
100
AcDbLine
 10
182.8317701196238
 20
1302.018776009547
 30
0.0
 11
182.7265456127234
 21
1326.414101737947
 31
0.0
  0
LINE
  5
962
330
1F
100
AcDbEntity
  8
0
  6
Continuous
 62
     7
100
AcDbLine
 10
182.943933929424
 20
1285.931099232747
 30
0.0
 11
182.9370700584236
 21
1287.522424054147
 31
0.0
  0
LINE
  5
963
330
1F
100
AcDbEntity
  8
0
  6
Continuous
 62
     7
100
AcDbLine
 10
183.7371546299237
 20
1298.617647183847
 30
0.0
 11
183.7351310817239
 21
1299.086788063148
 31
0.0
  0
LINE
  5
964
330
1F
100
AcDbEntity
  8
0
  6
Continuous
 62
     7
100
AcDbLine
 10
183.8882462785236
 20
1285.957332365747
 30
0.0
 11
183.8837479439234
 21
1287.000229519147
 31
0.0
  0
LINE
  5
965
330
1F
100
AcDbEntity
  8
0
  6
Continuous
 62
     7
100
AcDbLine
 10
184.6656992695234
 20
1285.319934059647
 30
0.0
 11
184.6597938219238
 21
1286.689057301148
 31
0.0
  0
LINE
  5
966
330
1F
100
AcDbEntity
  8
0
  6
Continuous
 62
     7
100
AcDbLine
 10
188.6200290580236
 20
1284.760972162447
 30
0.0
 11
188.6165310068236
 21
1285.571962872148
 31
0.0
  0
LINE
  5
967
330
1F
100
AcDbEntity
  8
0
  6
Continuous
 62
     7
100
AcDbLine
 10
191.005642829924
 20
1298.523869545547
 30
0.0
 11
191.0036192816237
 21
1298.993010424947
 31
0.0
  0
LINE
  5
968
330
1F
100
AcDbEntity
  8
0
  6
Continuous
 62
     7
100
AcDbLine
 10
182.5535914059237
 20
1283.451231377047
 30
0.0
 11
182.5515115981234
 21
1283.416293631547
 31
0.0
  0
LINE
  5
969
330
1F
100
AcDbEntity
  8
0
  6
Continuous
 62
     7
100
AcDbLine
 10
182.8795140007237
 20
1285.787006121748
 30
0.0
 11
182.5535914059237
 21
1283.451231377047
 31
0.0
  0
LINE
  5
96A
330
1F
100
AcDbEntity
  8
0
  6
Continuous
 62
     7
100
AcDbLine
 10
188.5649929851238
 20
1284.366547623648
 30
0.0
 11
188.6200290580236
 21
1284.760972162447
 31
0.0
  0
LINE
  5
96B
330
1F
100
AcDbEntity
  8
0
  6
Continuous
 62
     7
100
AcDbLine
 10
196.4235017335236
 20
1306.547982532048
 30
0.0
 11
196.4958433710235
 21
1307.066430079447
 31
0.0
  0
LINE
  5
96C
330
1F
100
AcDbEntity
  8
0
  6
Continuous
 62
     7
100
AcDbLine
 10
196.1593138214239
 20
1295.585562215947
 30
0.0
 11
196.119652276524
 21
1304.780723452047
 31
0.0
  0
LINE
  5
96D
330
1F
100
AcDbEntity
  8
0
  6
Continuous
 62
     7
100
AcDbLine
 10
196.4311424376236
 20
1304.776556153948
 30
0.0
 11
196.4235017335236
 21
1306.547982532048
 31
0.0
  0
LINE
  5
96E
330
1F
100
AcDbEntity
  8
0
  6
Continuous
 62
     7
100
AcDbLine
 10
196.5057276649236
 20
1304.774848221048
 30
0.0
 11
196.4958433710235
 21
1307.066430079447
 31
0.0
  0
LINE
  5
96F
330
1F
100
AcDbEntity
  8
0
  6
Continuous
 62
     7
100
AcDbLine
 10
197.2475562395239
 20
1295.523894908148
 30
0.0
 11
197.207894694624
 21
1304.719056144248
 31
0.0
  0
LINE
  5
970
330
1F
100
AcDbEntity
  8
02___PRT_ALL_AXES
  6
Continuous
 62
     7
100
AcDbLine
 10
197.6011436907238
 20
1302.045601570047
 30
0.0
 11
197.6173320763237
 21
1298.292474534847
 31
0.0
  0
LINE
  5
971
330
1F
100
AcDbEntity
  8
02___PRT_ALL_AXES
  6
Continuous
 62
     7
100
AcDbLine
 10
204.9070565695238
 20
1265.700051371547
 30
0.0
 11
205.2712952473239
 21
1181.254693080647
 31
0.0
  0
LINE
  5
972
330
1F
100
AcDbEntity
  8
0
  6
Continuous
 62
     7
100
AcDbLine
 10
207.2638692981236
 20
1182.980643806748
 30
0.0
 11
207.2712766430236
 21
1181.263319612547
 31
0.0
  0
LINE
  5
973
330
1F
100
AcDbEntity
  8
02___PRT_ALL_AXES
  6
Continuous
 62
     7
100
AcDbLine
 10
207.4907591413239
 20
1301.918006291047
 30
0.0
 11
207.5069475270238
 21
1298.164879255948
 31
0.0
  0
LINE
  5
974
330
1F
100
AcDbEntity
  8
0
  6
Continuous
 62
     7
100
AcDbLine
 10
207.9339981647238
 20
1304.587395532248
 30
0.0
 11
207.9736597097237
 21
1295.392234296048
 31
0.0
  0
LINE
  5
975
330
1F
100
AcDbEntity
  8
0
  6
Continuous
 62
     7
100
AcDbLine
 10
208.8655159814237
 20
1304.626048447047
 30
0.0
 11
208.9051775263238
 21
1295.430887210847
 31
0.0
  0
LINE
  5
976
330
1F
100
AcDbEntity
  8
02___PRT_ALL_AXES
  6
Continuous
 62
     7
100
AcDbLine
 10
204.9401887387239
 20
1266.190254006647
 30
0.0
 11
204.9074254593238
 21
1265.698265946047
 31
0.0
  0
LINE
  5
977
330
1F
100
AcDbEntity
  8
0
  6
Continuous
 62
     7
100
AcDbLine
 10
217.4123532455237
 20
1332.483928020347
 30
0.0
 11
217.3158977288238
 21
1331.792664623847
 31
0.0
  0
LINE
  5
978
330
1F
100
AcDbEntity
  8
0
  6
Continuous
 62
     7
100
AcDbLine
 10
217.4159500281237
 20
1331.650047342147
 30
0.0
 11
217.3194945114237
 21
1330.958783945648
 31
0.0
  0
LINE
  5
979
330
1F
100
AcDbEntity
  8
0
  6
Continuous
 62
     7
100
AcDbLine
 10
215.8060783513238
 20
1289.708082331147
 30
0.0
 11
215.8292113529237
 21
1284.344910530547
 31
0.0
  0
LINE
  5
97A
330
1F
100
AcDbEntity
  8
0
  6
Continuous
 62
     7
100
AcDbLine
 10
215.8483801798236
 20
1284.344993211548
 30
0.0
 11
215.8564743726238
 21
1282.468429693947
 31
0.0
  0
LINE
  5
97B
330
1F
100
AcDbEntity
  8
0
  6
Continuous
 62
     7
100
AcDbLine
 10
216.0742577084236
 20
1285.034586812247
 30
0.0
 11
216.0823519013236
 21
1283.158023294747
 31
0.0
  0
LINE
  5
97C
330
1F
100
AcDbEntity
  8
0
  6
Continuous
 62
     7
100
AcDbLine
 10
217.3158977288238
 20
1331.792664623847
 30
0.0
 11
217.3194945114237
 21
1330.958783945648
 31
0.0
  0
LINE
  5
97D
330
1F
100
AcDbEntity
  8
0
  6
Continuous
 62
     7
100
AcDbLine
 10
217.4123532455237
 20
1332.483928020347
 30
0.0
 11
217.4159500281237
 21
1331.650047342147
 31
0.0
  0
LINE
  5
97E
330
1F
100
AcDbEntity
  8
0
  6
Continuous
 62
     7
100
AcDbLine
 10
220.2397968084238
 20
1284.980843254047
 30
0.0
 11
220.2478910013237
 21
1283.104279736547
 31
0.0
  0
LINE
  5
97F
330
1F
100
AcDbEntity
  8
02___PRT_ALL_AXES
  6
Continuous
 62
     7
100
AcDbLine
 10
220.5779916800236
 20
1284.064479606748
 30
0.0
 11
220.5891873495236
 21
1281.468867497447
 31
0.0
  0
LINE
  5
980
330
1F
100
AcDbEntity
  8
02___PRT_ALL_AXES
  6
Continuous
 62
     7
100
AcDbLine
 10
220.6049552555237
 20
1281.468935509347
 30
0.0
 11
220.5905070863237
 21
1281.248278911247
 31
0.0
  0
LINE
  5
981
330
1F
100
AcDbEntity
  8
02___PRT_ALL_AXES
  6
Continuous
 62
     7
100
AcDbLine
 10
220.5928139663238
 20
1284.283780785647
 30
0.0
 11
220.5782935444238
 21
1284.063299957348
 31
0.0
  0
LINE
  5
982
330
1F
100
AcDbEntity
  8
02___PRT_ALL_AXES
  6
Continuous
 62
     7
100
AcDbLine
 10
226.5902369668238
 20
1281.274889405948
 30
0.0
 11
226.5979242489236
 21
1281.391614550347
 31
0.0
  0
LINE
  5
983
330
1F
100
AcDbEntity
  8
0
  6
Continuous
 62
     7
100
AcDbLine
 10
215.8483801798236
 20
1284.344993211548
 30
0.0
 11
215.8306585226237
 21
1284.077138680447
 31
0.0
  0
LINE
  5
984
330
1F
100
AcDbEntity
  8
02___PRT_ALL_AXES
  6
Continuous
 62
     7
100
AcDbLine
 10
205.3044274166236
 20
1181.744895715847
 30
0.0
 11
205.2716641371235
 21
1181.252907655247
 31
0.0
  0
LINE
  5
985
330
1F
100
AcDbEntity
  8
0
  6
Continuous
 62
     7
100
AcDbLine
 10
207.3020837477234
 20
1181.719122062848
 30
0.0
 11
207.2715601624236
 21
1181.261851102247
 31
0.0
  0
LINE
  5
986
330
1F
100
AcDbEntity
  8
0
  6
Continuous
 62
     7
100
AcDbLine
 10
207.2946764028238
 20
1183.436446256948
 30
0.0
 11
207.2638692981236
 21
1182.980643806748
 31
0.0
  0
LINE
  5
987
330
1F
100
AcDbEntity
  8
0
  6
Continuous
 62
     7
100
AcDbLine
 10
220.1514354846238
 20
1282.413016340047
 30
0.0
 11
220.2478910013237
 21
1283.104279736547
 31
0.0
  0
LINE
  5
988
330
1F
100
AcDbEntity
  8
02___PRT_ALL_AXES
  6
Continuous
 62
     7
100
AcDbLine
 10
226.6155595263238
 20
1275.367662836447
 30
0.0
 11
226.5900771562237
 21
1281.275513926148
 31
0.0
  0
LINE
  5
989
330
1F
100
AcDbEntity
  8
0
  6
Continuous
 62
     7
100
AcDbLine
 10
232.0534644219238
 20
1295.132229276247
 30
0.0
 11
232.0777470005237
 21
1289.502538723547
 31
0.0
  0
LINE
  5
98A
330
1F
100
AcDbEntity
  8
0
  6
Continuous
 62
     7
100
AcDbLine
 10
236.0091155393236
 20
1304.275843206447
 30
0.0
 11
236.0730596628236
 21
1289.450991417547
 31
0.0
  0
LINE
  5
98B
330
1F
100
AcDbEntity
  8
0
  6
Continuous
 62
     7
100
AcDbLine
 10
236.4588548656236
 20
1304.259241197747
 30
0.0
 11
236.4489699938238
 21
1306.550957019547
 31
0.0
  0
LINE
  5
98C
330
1F
100
AcDbEntity
  8
02___PRT_ALL_AXES
  6
Continuous
 62
     7
100
AcDbLine
 10
240.1155224692236
 20
1275.405368866347
 30
0.0
 11
240.0899515768237
 21
1281.333743016647
 31
0.0
  0
LINE
  5
98D
330
1F
100
AcDbEntity
  8
06___PRT_ALL_SURFS
  6
Continuous
 62
     7
100
AcDbLine
 10
208.3009119133237
 20
1181.706235236347
 30
0.0
 11
208.5345356957236
 21
1182.545868450447
 31
0.0
  0
LINE
  5
98E
330
1F
100
AcDbEntity
  8
02___PRT_ALL_AXES
  6
Continuous
 62
     7
100
AcDbLine
 10
246.0777544745238
 20
1284.174467888848
 30
0.0
 11
246.0898957638237
 21
1281.359622612447
 31
0.0
  0
LINE
  5
98F
330
1F
100
AcDbEntity
  8
0
  6
Continuous
 62
     7
100
AcDbLine
 10
249.3070661029237
 20
1325.555083495048
 30
0.0
 11
249.4122906099237
 21
1301.159757766648
 31
0.0
  0
LINE
  5
990
330
1F
100
AcDbEntity
  8
0
  6
Continuous
 62
     7
100
AcDbLine
 10
250.6562165943237
 20
1323.380733234548
 30
0.0
 11
250.8253852247237
 21
1284.160555717247
 31
0.0
  0
LINE
  5
991
330
1F
100
AcDbEntity
  8
02___PRT_ALL_AXES
  6
Continuous
 62
     7
100
AcDbLine
 10
246.0750734775238
 20
1281.140321433547
 30
0.0
 11
246.0895216468236
 21
1281.360978031647
 31
0.0
  0
LINE
  5
992
330
1F
100
AcDbEntity
  8
0
  6
Continuous
 62
     7
100
AcDbLine
 10
260.2633762828236
 20
1183.209246902747
 30
0.0
 11
260.2707836277236
 21
1181.491922708647
 31
0.0
  0
LINE
  5
993
330
1F
100
AcDbEntity
  8
02___PRT_ALL_AXES
  6
Continuous
 62
     7
100
AcDbLine
 10
261.9065263455236
 20
1265.945907531447
 30
0.0
 11
262.2707650234238
 21
1181.500549240547
 31
0.0
  0
LINE
  5
994
330
1F
100
AcDbEntity
  8
02___PRT_ALL_AXES
  6
Continuous
 62
     7
100
AcDbLine
 10
261.2388046885237
 20
1181.023233431847
 30
0.0
 11
261.2703415571236
 21
1181.498190143247
 31
0.0
  0
LINE
  5
995
330
1F
100
AcDbEntity
  8
02___PRT_ALL_AXES
  6
Continuous
 62
     7
100
AcDbLine
 10
262.2376328541236
 20
1181.010346605347
 30
0.0
 11
262.2703961335237
 21
1181.502334665948
 31
0.0
  0
LINE
  5
996
330
1F
100
AcDbEntity
  8
0
  6
Continuous
 62
     7
100
AcDbLine
 10
186.1689741641239
 20
1283.024888534747
 30
0.0
 11
188.1850630811236
 21
1283.991752087347
 31
0.0
  0
LINE
  5
997
330
1F
100
AcDbEntity
  8
0
  6
Continuous
 62
     7
100
AcDbLine
 10
183.8882462785236
 20
1285.957332365747
 30
0.0
 11
184.6656992695234
 21
1285.319934059647
 31
0.0
  0
LINE
  5
998
330
1F
100
AcDbEntity
  8
0
  6
Continuous
 62
     7
100
AcDbLine
 10
217.3194945114237
 20
1330.958783945648
 30
0.0
 11
226.8172792523237
 21
1325.845245498047
 31
0.0
  0
LINE
  5
999
330
1F
100
AcDbEntity
  8
0
  6
Continuous
 62
     7
100
AcDbLine
 10
184.6656992695234
 20
1285.319934059647
 30
0.0
 11
188.6200290580236
 21
1284.760972162447
 31
0.0
  0
LINE
  5
99A
330
1F
100
AcDbEntity
  8
0
  6
Continuous
 62
     7
100
AcDbLine
 10
217.4159500281237
 20
1331.650047342147
 30
0.0
 11
229.9450275421236
 21
1325.804891460248
 31
0.0
  0
LINE
  5
99B
330
1F
100
AcDbEntity
  8
0
  6
Continuous
 62
     7
100
AcDbLine
 10
231.7795872578238
 20
1325.781222070847
 30
0.0
 11
217.4123532455237
 21
1332.483928020347
 31
0.0
  0
LINE
  5
99C
330
1F
100
AcDbEntity
  8
0
  6
Continuous
 62
     7
100
AcDbLine
 10
215.8564743726238
 20
1282.468429693947
 30
0.0
 11
220.1514354846238
 21
1282.413016340047
 31
0.0
  0
LINE
  5
99D
330
1F
100
AcDbEntity
  8
0
  6
Continuous
 62
     7
100
AcDbLine
 10
220.2478910013237
 20
1283.104279736547
 30
0.0
 11
216.0823519013236
 21
1283.158023294747
 31
0.0
  0
LINE
  5
99E
330
1F
100
AcDbEntity
  8
0
  6
Continuous
 62
     7
100
AcDbLine
 10
207.4101170176236
 20
1284.716304565347
 30
0.0
 11
215.8280778766236
 21
1284.607696493647
 31
0.0
  0
LINE
  5
99F
330
1F
100
AcDbEntity
  8
0
  6
Continuous
 62
     7
100
AcDbLine
 10
220.2397968084238
 20
1284.980843254047
 30
0.0
 11
216.0742577084236
 21
1285.034586812247
 31
0.0
  0
LINE
  5
9A0
330
1F
100
AcDbEntity
  8
0
  6
Continuous
 62
     7
100
AcDbLine
 10
236.0730596628236
 20
1289.450991417547
 30
0.0
 11
232.0777470005237
 21
1289.502538723547
 31
0.0
  0
LINE
  5
9A1
330
1F
100
AcDbEntity
  8
0
  6
Continuous
 62
     7
100
AcDbLine
 10
232.0534644219238
 20
1295.132229276247
 30
0.0
 11
208.9051775263238
 21
1295.430887210847
 31
0.0
  0
LINE
  5
9A2
330
1F
100
AcDbEntity
  8
0
  6
Continuous
 62
     7
100
AcDbLine
 10
189.9149578682236
 20
1297.895699766747
 30
0.0
 11
183.7150642990236
 21
1297.975690455247
 31
0.0
  0
LINE
  5
9A3
330
1F
100
AcDbEntity
  8
0
  6
Continuous
 62
     7
100
AcDbLine
 10
191.005642829924
 20
1298.523869545547
 30
0.0
 11
183.7371546299237
 21
1298.617647183847
 31
0.0
  0
LINE
  5
9A4
330
1F
100
AcDbEntity
  8
0
  6
Continuous
 62
     7
100
AcDbLine
 10
183.7351310817239
 20
1299.086788063148
 30
0.0
 11
191.0036192816237
 21
1298.993010424947
 31
0.0
  0
LINE
  5
9A5
330
1F
100
AcDbEntity
  8
0
  6
Continuous
 62
     7
100
AcDbLine
 10
183.7174676384238
 20
1299.413930604247
 30
0.0
 11
190.2636519851239
 21
1299.329472090947
 31
0.0
  0
LINE
  5
9A6
330
1F
100
AcDbEntity
  8
0
  6
Continuous
 62
     7
100
AcDbLine
 10
236.0091155393236
 20
1304.275843206447
 30
0.0
 11
208.8655159814237
 21
1304.626048447047
 31
0.0
  0
LINE
  5
9A7
330
1F
100
AcDbEntity
  8
0
  6
Continuous
 62
     7
100
AcDbLine
 10
196.4958433710235
 20
1307.066430079447
 30
0.0
 11
236.4489699938238
 21
1306.550957019547
 31
0.0
  0
LINE
  5
9A8
330
1F
100
AcDbEntity
  8
0
  6
Continuous
 62
     7
100
AcDbLine
 10
249.3070661029237
 20
1325.555083495048
 30
0.0
 11
182.7265456127234
 21
1326.414101737947
 31
0.0
  0
LINE
  5
9A9
330
1F
100
AcDbEntity
  8
0
  6
Continuous
100
AcDbLine
 10
172.6457135572609
 20
1513.531703895223
 30
0.0
 11
172.6457135572609
 21
1549.331703895223
 31
0.0
  0
LINE
  5
9AA
330
1F
100
AcDbEntity
  8
0
  6
Continuous
100
AcDbLine
 10
172.8457135572607
 20
1517.031703895223
 30
0.0
 11
172.8457135572607
 21
1517.531703895223
 31
0.0
  0
LINE
  5
9AB
330
1F
100
AcDbEntity
  8
0
  6
Continuous
100
AcDbLine
 10
174.3163968712611
 20
1523.331703895222
 30
0.0
 11
174.3163968712611
 21
1549.331703895223
 31
0.0
  0
LINE
  5
9AC
330
1F
100
AcDbEntity
  8
0
  6
Continuous
100
AcDbLine
 10
174.8457135572607
 20
1518.031703895223
 30
0.0
 11
174.8457135572607
 21
1516.531703895223
 31
0.0
  0
LINE
  5
9AD
330
1F
100
AcDbEntity
  8
0
  6
Continuous
100
AcDbLine
 10
182.1227292146609
 20
1517.031703895223
 30
0.0
 11
182.1227292146609
 21
1517.531703895223
 31
0.0
  0
LINE
  5
9AE
330
1F
100
AcDbEntity
  8
0
  6
Continuous
100
AcDbLine
 10
187.2108142122611
 20
1513.531703895223
 30
0.0
 11
187.2108142122611
 21
1523.331703895222
 31
0.0
  0
LINE
  5
9AF
330
1F
100
AcDbEntity
  8
0
  6
Continuous
100
AcDbLine
 10
187.6457135572609
 20
1523.331703895222
 30
0.0
 11
187.6457135572609
 21
1526.131703895223
 31
0.0
  0
LINE
  5
9B0
330
1F
100
AcDbEntity
  8
0
  6
Continuous
100
AcDbLine
 10
188.3069748264611
 20
1513.531703895223
 30
0.0
 11
188.3069748264611
 21
1523.331703895222
 31
0.0
  0
LINE
  5
9B1
330
1F
100
AcDbEntity
  8
02___PRT_ALL_AXES
  6
Continuous
100
AcDbLine
 10
188.695104537861
 20
1520.531703895223
 30
0.0
 11
188.695104537861
 21
1516.531703895223
 31
0.0
  0
LINE
  5
9B2
330
1F
100
AcDbEntity
  8
02___PRT_ALL_AXES
  6
Continuous
100
AcDbLine
 10
196.6457135572609
 20
1488.031703895223
 30
0.0
 11
196.6457135572609
 21
1398.031703895223
 31
0.0
  0
LINE
  5
9B3
330
1F
100
AcDbEntity
  8
02___PRT_ALL_AXES
  6
Continuous
100
AcDbLine
 10
198.5963225766609
 20
1520.531703895223
 30
0.0
 11
198.5963225766609
 21
1516.531703895223
 31
0.0
  0
LINE
  5
9B4
330
1F
100
AcDbEntity
  8
0
  6
Continuous
100
AcDbLine
 10
199.0447241965611
 20
1523.331703895222
 30
0.0
 11
199.0447241965611
 21
1513.531703895223
 31
0.0
  0
LINE
  5
9B5
330
1F
100
AcDbEntity
  8
0
  6
Continuous
100
AcDbLine
 10
199.970268877561
 20
1523.331703895222
 30
0.0
 11
199.970268877561
 21
1513.531703895223
 31
0.0
  0
LINE
  5
9B6
330
1F
100
AcDbEntity
  8
0
  6
Continuous
100
AcDbLine
 10
207.645713557261
 20
1513.531703895223
 30
0.0
 11
207.645713557261
 21
1505.531703895223
 31
0.0
  0
LINE
  5
9B7
330
1F
100
AcDbEntity
  8
0
  6
Continuous
100
AcDbLine
 10
207.775287408261
 20
1507.531703895223
 30
0.0
 11
207.775287408261
 21
1505.531703895223
 31
0.0
  0
LINE
  5
9B8
330
1F
100
AcDbEntity
  8
0
  6
Continuous
100
AcDbLine
 10
208.1457135572609
 20
1489.231703895223
 30
0.0
 11
208.1457135572609
 21
1488.031703895223
 31
0.0
  0
LINE
  5
9B9
330
1F
100
AcDbEntity
  8
0
  6
Continuous
100
AcDbLine
 10
209.1457135572609
 20
1556.831703895223
 30
0.0
 11
209.1457135572609
 21
1555.942972263823
 31
0.0
  0
LINE
  5
9BA
330
1F
100
AcDbEntity
  8
0
  6
Continuous
100
AcDbLine
 10
211.9457135572611
 20
1507.531703895223
 30
0.0
 11
211.9457135572611
 21
1505.531703895223
 31
0.0
  0
LINE
  5
9BB
330
1F
100
AcDbEntity
  8
02___PRT_ALL_AXES
  6
Continuous
100
AcDbLine
 10
212.3957135572609
 20
1507.531703895223
 30
0.0
 11
212.3957135572609
 21
1504.531703895223
 31
0.0
  0
LINE
  5
9BC
330
1F
100
AcDbEntity
  8
0
  6
Continuous
100
AcDbLine
 10
218.3957135572609
 20
1504.531703895223
 30
0.0
 11
218.3957135572609
 21
1489.531703895223
 31
0.0
  0
LINE
  5
9BD
330
1F
100
AcDbEntity
  8
0
  6
Continuous
100
AcDbLine
 10
223.1457135572609
 20
1513.531703895223
 30
0.0
 11
223.1457135572609
 21
1507.531703895223
 31
0.0
  0
LINE
  5
9BE
330
1F
100
AcDbEntity
  8
0
  6
Continuous
100
AcDbLine
 10
227.1457135572609
 20
1523.331703895222
 30
0.0
 11
227.1457135572609
 21
1507.531703895223
 31
0.0
  0
LINE
  5
9BF
330
1F
100
AcDbEntity
  8
0
  6
Continuous
100
AcDbLine
 10
227.6457135572609
 20
1523.331703895222
 30
0.0
 11
227.6457135572609
 21
1526.131703895223
 31
0.0
  0
LINE
  5
9C0
330
1F
100
AcDbEntity
  8
02___PRT_ALL_AXES
  6
Continuous
100
AcDbLine
 10
231.8957135572609
 20
1489.531703895223
 30
0.0
 11
231.8957135572609
 21
1504.531703895223
 31
0.0
  0
LINE
  5
9C1
330
1F
100
AcDbEntity
  8
0
  6
Continuous
100
AcDbLine
 10
231.8957135572609
 20
1504.531703895223
 30
0.0
 11
231.8957135572609
 21
1489.531703895223
 31
0.0
  0
LINE
  5
9C2
330
1F
100
AcDbEntity
  8
02___PRT_ALL_AXES
  6
Continuous
100
AcDbLine
 10
237.8957135572609
 20
1507.531703895223
 30
0.0
 11
237.8957135572609
 21
1504.531703895223
 31
0.0
  0
LINE
  5
9C3
330
1F
100
AcDbEntity
  8
0
  6
Continuous
100
AcDbLine
 10
240.975030243161
 20
1549.331703895223
 30
0.0
 11
240.975030243161
 21
1523.331703895222
 31
0.0
  0
LINE
  5
9C4
330
1F
100
AcDbEntity
  8
0
  6
Continuous
100
AcDbLine
 10
242.1457135572609
 20
1489.231703895223
 30
0.0
 11
242.1457135572609
 21
1488.031703895223
 31
0.0
  0
LINE
  5
9C5
330
1F
100
AcDbEntity
  8
0
  6
Continuous
100
AcDbLine
 10
242.6457135572609
 20
1549.331703895223
 30
0.0
 11
242.6457135572609
 21
1507.531703895223
 31
0.0
  0
LINE
  5
9C6
330
1F
100
AcDbEntity
  8
02___PRT_ALL_AXES
  6
Continuous
100
AcDbLine
 10
253.6457135572609
 20
1488.031703895223
 30
0.0
 11
253.6457135572609
 21
1398.031703895223
 31
0.0
  0
LINE
  5
9C7
330
1F
100
AcDbEntity
  8
0
  6
Continuous
100
AcDbLine
 10
208.4457135572611
 20
1489.531703895223
 30
0.0
 11
208.1457135572609
 21
1489.231703895223
 31
0.0
  0
LINE
  5
9C8
330
1F
100
AcDbEntity
  8
0
  6
Continuous
100
AcDbLine
 10
241.845713557261
 20
1489.531703895223
 30
0.0
 11
242.1457135572609
 21
1489.231703895223
 31
0.0
  0
LINE
  5
9C9
330
1F
100
AcDbEntity
  8
02___PRT_ALL_AXES
  6
Continuous
100
AcDbLine
 10
253.6457135572609
 20
1398.031703895223
 30
0.0
 11
196.6457135572609
 21
1398.031703895223
 31
0.0
  0
LINE
  5
9CA
330
1F
100
AcDbEntity
  8
0
  6
Continuous
100
AcDbLine
 10
209.1457135572609
 20
1555.942972263823
 30
0.0
 11
222.809001519061
 21
1549.331703895223
 31
0.0
  0
LINE
  5
9CB
330
1F
100
AcDbEntity
  8
0
  6
Continuous
100
AcDbLine
 10
224.6457135572609
 20
1549.331703895223
 30
0.0
 11
209.1457135572609
 21
1556.831703895223
 31
0.0
  0
LINE
  5
9CC
330
1F
100
AcDbEntity
  8
02___PRT_ALL_AXES
  6
Continuous
100
AcDbLine
 10
253.6457135572609
 20
1488.031703895223
 30
0.0
 11
196.6457135572609
 21
1488.031703895223
 31
0.0
  0
LINE
  5
9CD
330
1F
100
AcDbEntity
  8
0
  6
Continuous
100
AcDbLine
 10
208.1457135572609
 20
1489.231703895223
 30
0.0
 11
242.1457135572609
 21
1489.231703895223
 31
0.0
  0
LINE
  5
9CE
330
1F
100
AcDbEntity
  8
0
  6
Continuous
100
AcDbLine
 10
208.4458624939609
 20
1489.531703895223
 30
0.0
 11
241.8455646205611
 21
1489.531703895223
 31
0.0
  0
LINE
  5
9CF
330
1F
100
AcDbEntity
  8
02___PRT_ALL_AXES
  6
Continuous
100
AcDbLine
 10
237.8957135572609
 20
1504.531703895223
 30
0.0
 11
212.3957135572609
 21
1504.531703895223
 31
0.0
  0
LINE
  5
9D0
330
1F
100
AcDbEntity
  8
0
  6
Continuous
100
AcDbLine
 10
211.9457135572611
 20
1505.531703895223
 30
0.0
 11
207.645713557261
 21
1505.531703895223
 31
0.0
  0
LINE
  5
9D1
330
1F
100
AcDbEntity
  8
0
  6
Continuous
100
AcDbLine
 10
242.6454426387609
 20
1507.531703895223
 30
0.0
 11
207.775287408261
 21
1507.531703895223
 31
0.0
  0
LINE
  5
9D2
330
1F
100
AcDbEntity
  8
0
  6
Continuous
100
AcDbLine
 10
172.645713557561
 20
1513.531703895223
 30
0.0
 11
223.1457135572609
 21
1513.531703895223
 31
0.0
  0
LINE
  5
9D3
330
1F
100
AcDbEntity
  8
02___PRT_ALL_AXES
  6
Continuous
100
AcDbLine
 10
198.5963225766609
 20
1516.531703895223
 30
0.0
 11
188.695104537861
 21
1516.531703895223
 31
0.0
  0
LINE
  5
9D4
330
1F
100
AcDbEntity
  8
0
  6
Continuous
100
AcDbLine
 10
181.0528808988611
 20
1516.531703895223
 30
0.0
 11
173.3457135572607
 21
1516.531703895223
 31
0.0
  0
LINE
  5
9D5
330
1F
100
AcDbEntity
  8
0
  6
Continuous
100
AcDbLine
 10
182.1227292146609
 20
1517.031703895223
 30
0.0
 11
172.8457135572607
 21
1517.031703895223
 31
0.0
  0
LINE
  5
9D6
330
1F
100
AcDbEntity
  8
0
  6
Continuous
100
AcDbLine
 10
172.8457135572607
 20
1517.531703895223
 30
0.0
 11
182.1227292146609
 21
1517.531703895223
 31
0.0
  0
LINE
  5
9D7
330
1F
100
AcDbEntity
  8
0
  6
Continuous
100
AcDbLine
 10
173.3457135572607
 20
1518.031703895223
 30
0.0
 11
181.0528808988611
 21
1518.031703895223
 31
0.0
  0
LINE
  5
9D8
330
1F
100
AcDbEntity
  8
02___PRT_ALL_AXES
  6
Continuous
100
AcDbLine
 10
198.5963225766609
 20
1520.531703895223
 30
0.0
 11
188.695104537861
 21
1520.531703895223
 31
0.0
  0
LINE
  5
9D9
330
1F
100
AcDbEntity
  8
0
  6
Continuous
100
AcDbLine
 10
174.3163968712611
 20
1523.331703895222
 30
0.0
 11
240.975030243161
 21
1523.331703895222
 31
0.0
  0
LINE
  5
9DA
330
1F
100
AcDbEntity
  8
0
  6
Continuous
100
AcDbLine
 10
187.6457135572609
 20
1526.131703895223
 30
0.0
 11
227.6457135572609
 21
1526.131703895223
 31
0.0
  0
LINE
  5
9DB
330
1F
100
AcDbEntity
  8
0
  6
Continuous
100
AcDbLine
 10
242.6457135572609
 20
1549.331703895223
 30
0.0
 11
172.6457135572609
 21
1549.331703895223
 31
0.0
  0
ARC
  5
9DC
330
1F
100
AcDbEntity
  8
02___PRT_ALL_AXES
  6
Continuous
 62
     7
100
AcDbCircle
 10
234.0724254772238
 20
1111.431628037347
 30
0.0
 40
79.45746214
100
AcDbArc
 50
89.25852781241339
 51
90.00224332530022
  0
ARC
  5
9DD
330
1F
100
AcDbEntity
  8
02___PRT_ALL_AXES
  6
Continuous
 62
     7
100
AcDbCircle
 10
234.0751063182238
 20
1111.607689879247
 30
0.0
 40
79.2813928649
100
AcDbArc
 50
89.26125624889612
 51
90.00418937340937
  0
ARC
  5
9DE
330
1F
100
AcDbEntity
  8
02___PRT_ALL_AXES
  6
Continuous
 62
     7
100
AcDbCircle
 10
234.0778919964237
 20
1111.821480275447
 30
0.0
 40
79.0675718065
100
AcDbArc
 50
88.51755974189687
 51
89.25883294040614
  0
ARC
  5
9DF
330
1F
100
AcDbEntity
  8
02___PRT_ALL_AXES
  6
Continuous
 62
     7
100
AcDbCircle
 10
234.0797512623237
 20
1111.997205572747
 30
0.0
 40
78.89184966100001
100
AcDbArc
 50
88.51560568021442
 51
89.26098206668573
  0
ARC
  5
9E0
330
1F
100
AcDbEntity
  8
02___PRT_ALL_AXES
  6
Continuous
 62
     7
100
AcDbCircle
 10
209.7171698822237
 20
1181.254701993647
 30
0.0
 40
3.447081311999998
100
AcDbArc
 50
167.2412810797991
 51
172.1768262777045
  0
ARC
  5
9E1
330
1F
100
AcDbEntity
  8
02___PRT_ALL_AXES
  6
Continuous
 62
     7
100
AcDbCircle
 10
258.8276915995237
 20
1181.486862477747
 30
0.0
 40
3.443075186
100
AcDbArc
 50
352.0448246243039
 51
0.2222669554007164
  0
ARC
  5
9E2
330
1F
100
AcDbEntity
  8
02___PRT_ALL_AXES
  6
Continuous
 62
     7
100
AcDbCircle
 10
209.7099095196236
 20
1181.255508585647
 30
0.0
 40
3.4398173772
100
AcDbArc
 50
167.2276373116008
 51
172.0375033627979
  0
ARC
  5
9E3
330
1F
100
AcDbEntity
  8
0
  6
Continuous
 62
     7
100
AcDbCircle
 10
256.9445399830238
 20
1181.497149029348
 30
0.0
 40
3.327502544499998
100
AcDbArc
 50
347.4232350804955
 51
352.1530307203032
  0
ARC
  5
9E4
330
1F
100
AcDbEntity
  8
02___PRT_ALL_AXES
  6
Continuous
 62
     7
100
AcDbCircle
 10
209.5952176273238
 20
1181.271742066047
 30
0.0
 40
3.3239446636
100
AcDbArc
 50
172.181683594
 51
180.2280185822963
  0
ARC
  5
9E5
330
1F
100
AcDbEntity
  8
0
  6
Continuous
 62
     7
100
AcDbCircle
 10
256.9491858707238
 20
1181.496712164247
 30
0.0
 40
3.322867439499998
100
AcDbArc
 50
347.4131088282023
 51
352.0324180255999
  0
ARC
  5
9E6
330
1F
100
AcDbEntity
  8
02___PRT_ALL_AXES
  6
Continuous
 62
     7
100
AcDbCircle
 10
257.9492341985238
 20
1181.480467867747
 30
0.0
 40
3.3215177568
100
AcDbArc
 50
0.3057361261996237
 51
7.485498812602355
  0
ARC
  5
9E7
330
1F
100
AcDbEntity
  8
02___PRT_ALL_AXES
  6
Continuous
 62
     7
100
AcDbCircle
 10
209.5915586893236
 20
1181.272590196448
 30
0.0
 40
3.320241385699998
100
AcDbArc
 50
172.0465180105999
 51
180.1754429216994
  0
ARC
  5
9E8
330
1F
100
AcDbEntity
  8
02___PRT_ALL_AXES
  6
Continuous
 62
     7
100
AcDbCircle
 10
257.9586303591236
 20
1181.481270365247
 30
0.0
 40
3.3121666979
100
AcDbArc
 50
0.2674037054012743
 51
7.492785691801977
  0
ARC
  5
9E9
330
1F
100
AcDbEntity
  8
0
  6
Continuous
 62
     7
100
AcDbCircle
 10
257.0671366368237
 20
1181.479651635247
 30
0.0
 40
3.203665031
100
AcDbArc
 50
352.1636847081974
 51
0.2254161411999437
  0
ARC
  5
9EA
330
1F
100
AcDbEntity
  8
0
  6
Continuous
 62
     7
100
AcDbCircle
 10
257.0705976643237
 20
1181.478972064447
 30
0.0
 40
3.2001687567
100
AcDbArc
 50
352.0456602058995
 51
0.1820606730992298
  0
ARC
  5
9EB
330
1F
100
AcDbEntity
  8
0
  6
Continuous
 62
     7
100
AcDbCircle
 10
210.4603067687238
 20
1181.277783655747
 30
0.0
 40
3.1890187099
100
AcDbArc
 50
180.2862730662955
 51
185.7306834096009
  0
ARC
  5
9EC
330
1F
100
AcDbEntity
  8
0
  6
Continuous
 62
     7
100
AcDbCircle
 10
210.4523202090236
 20
1181.277260052447
 30
0.0
 40
3.1810688348
100
AcDbArc
 50
180.2570853969955
 51
185.7355935775029
  0
ARC
  5
9ED
330
1F
100
AcDbEntity
  8
0
  6
Continuous
 62
     7
100
AcDbCircle
 10
233.4803851537238
 20
1248.762552585248
 30
0.0
 40
76.5505312823
100
AcDbArc
 50
269.2589197352121
 51
269.9379016209014
  0
ARC
  5
9EE
330
1F
100
AcDbEntity
  8
0
  6
Continuous
 62
     7
100
AcDbCircle
 10
233.4782609730237
 20
1248.621177924748
 30
0.0
 40
76.4091493465
100
AcDbArc
 50
269.2611726038866
 51
269.9393819086879
  0
ARC
  5
9EF
330
1F
100
AcDbEntity
  8
0
  6
Continuous
 62
     7
100
AcDbCircle
 10
233.4756399979237
 20
1248.419586148947
 30
0.0
 40
76.20753216109999
100
AcDbArc
 50
268.5822049390982
 51
269.2591519444018
  0
ARC
  5
9F0
330
1F
100
AcDbEntity
  8
0
  6
Continuous
 62
     7
100
AcDbCircle
 10
233.4741184326238
 20
1248.278458319947
 30
0.0
 40
76.066404819
100
AcDbArc
 50
268.5807190878849
 51
269.2609639274895
  0
ARC
  5
9F1
330
1F
100
AcDbEntity
  8
06___PRT_ALL_SURFS
  6
Continuous
 62
     7
100
AcDbCircle
 10
233.4946829413236
 20
1245.341650887347
 30
0.0
 40
57.7455208475
100
AcDbArc
 50
269.259638232906
 51
269.7980242816848
  0
ARC
  5
9F2
330
1F
100
AcDbEntity
  8
06___PRT_ALL_SURFS
  6
Continuous
 62
     7
100
AcDbCircle
 10
233.4937047455237
 20
1245.274590300447
 30
0.0
 40
57.6784557152
100
AcDbArc
 50
269.2610258275018
 51
269.7987619306057
  0
ARC
  5
9F3
330
1F
100
AcDbEntity
  8
0
  6
Continuous
 62
     7
100
AcDbCircle
 10
233.4927706553237
 20
1245.198333566947
 30
0.0
 40
57.60219327699999
100
AcDbArc
 50
269.2609766068014
 51
269.6878123470807
  0
ARC
  5
9F4
330
1F
100
AcDbEntity
  8
06___PRT_ALL_SURFS
  6
Continuous
 62
     7
100
AcDbCircle
 10
233.4919143946238
 20
1245.136408507647
 30
0.0
 40
57.5402598291
100
AcDbArc
 50
268.7226466088804
 51
269.2597540373167
  0
ARC
  5
9F5
330
1F
100
AcDbEntity
  8
06___PRT_ALL_SURFS
  6
Continuous
 62
     7
100
AcDbCircle
 10
233.4911630931237
 20
1245.069440840848
 30
0.0
 40
57.4732905383
100
AcDbArc
 50
268.7219067629897
 51
269.2609217424863
  0
ARC
  5
9F6
330
1F
100
AcDbEntity
  8
0
  6
Continuous
 62
     7
100
AcDbCircle
 10
233.4907969061237
 20
1245.035680871348
 30
0.0
 40
57.4395286541
100
AcDbArc
 50
268.8332114760893
 51
269.2608526029808
  0
ARC
  5
9F7
330
1F
100
AcDbEntity
  8
0
  6
Continuous
 62
     7
100
AcDbCircle
 10
233.4649445478238
 20
1244.146617362147
 30
0.0
 40
56.5501235892
100
AcDbArc
 50
266.7663639821029
 51
268.8410566665813
  0
ARC
  5
9F8
330
1F
100
AcDbEntity
  8
0
  6
Continuous
 62
     7
100
AcDbCircle
 10
208.7484441310237
 20
1296.203521130747
 30
0.0
 40
8.423340917499999
100
AcDbArc
 50
89.20364865118131
 51
95.54855060199743
  0
ARC
  5
9F9
330
1F
100
AcDbEntity
  8
02___PRT_ALL_AXES
  6
Continuous
 62
     7
100
AcDbCircle
 10
208.3501299933236
 20
1265.713738134248
 30
0.0
 40
3.443075186
100
AcDbArc
 50
172.0448246243039
 51
180.2222669554007
  0
ARC
  5
9FA
330
1F
100
AcDbEntity
  8
0
  6
Continuous
 62
     7
100
AcDbCircle
 10
217.6914437915236
 20
1284.086823554648
 30
0.0
 40
1.8610628859
100
AcDbArc
 50
180.2981998994964
 51
184.050726070898
  0
ARC
  5
9FB
330
1F
100
AcDbEntity
  8
0
  6
Continuous
100
AcDbCircle
 10
173.3457135572607
 20
1517.531703895223
 30
0.0
 40
0.5
100
AcDbArc
 50
90.0
 51
180.0
  0
ARC
  5
9FC
330
1F
100
AcDbEntity
  8
0
  6
Continuous
100
AcDbCircle
 10
173.3457135572607
 20
1517.031703895223
 30
0.0
 40
0.5
100
AcDbArc
 50
180.0
 51
270.0
  0
SPLINE
  5
9FD
330
1F
100
AcDbEntity
  8
02___PRT_ALL_AXES
  6
Continuous
 62
     7
100
AcDbSpline
210
0.0
220
0.0
230
1.0
 70
     8
 71
     3
 72
    31
 73
    27
 74
     0
 42
0.000000001
 43
0.0000000001
 40
0.0
 40
0.0
 40
0.0
 40
0.0
 40
0.0155456246
 40
0.0325222628
 40
0.0515732983
 40
0.0731056386
 40
0.0973228313
 40
0.124282748
 40
0.1539372168
 40
0.1861656929
 40
0.2575498802
 40
0.3365225965
 40
0.4206653548
 40
0.5072749496000001
 40
0.5935202698
 40
0.6765889944
 40
0.753835403
 40
0.8229416281999998
 40
0.8538717998999999
 40
0.8821585849999998
 40
0.9077147346
 40
0.9305431425
 40
0.9507699523999999
 40
0.9686904208999999
 40
0.9848378416999999
 40
1.0
 40
1.0
 40
1.0
 40
1.0
 10
226.5979242489236
 20
1281.391614550347
 30
0.0
 10
226.6086669444237
 20
1281.468603740747
 30
0.0
 10
226.6544604789237
 20
1281.626964920447
 30
0.0
 10
226.7848526994237
 20
1281.851685467548
 30
0.0
 10
226.9757032232237
 20
1282.069057131247
 30
0.0
 10
227.2245815557237
 20
1282.278027976647
 30
0.0
 10
227.5293236051236
 20
1282.477563326147
 30
0.0
 10
227.8874077738237
 20
1282.666091572447
 30
0.0
 10
228.2957068210237
 20
1282.842120238848
 30
0.0
 10
228.9239301841237
 20
1283.065552445447
 30
0.0
 10
229.8087669182237
 20
1283.297336295147
 30
0.0
 10
230.9655223094237
 20
1283.496096371848
 30
0.0
 10
232.2095197591236
 20
1283.616303565847
 30
0.0
 10
233.4950241937238
 20
1283.653353793147
 30
0.0
 10
234.7748161695238
 20
1283.605788386648
 30
0.0
 10
236.0019320405238
 20
1283.475507948547
 30
0.0
 10
237.1313066209236
 20
1283.267516163048
 30
0.0
 10
237.9868478232238
 20
1283.028275528948
 30
0.0
 10
238.5866324354238
 20
1282.799025662447
 30
0.0
 10
238.9712135370237
 20
1282.619705813347
 30
0.0
 10
239.3040228302236
 20
1282.428223359747
 30
0.0
 10
239.5822139771237
 20
1282.226057735248
 30
0.0
 10
239.8034809032238
 20
1282.014607075147
 30
0.0
 10
239.9656441652237
 20
1281.794697988347
 30
0.0
 10
240.0660198740236
 20
1281.567372942648
 30
0.0
 10
240.0895274973236
 20
1281.410184648047
 30
0.0
 10
240.0899288122237
 20
1281.334368144147
 30
0.0
  0
SPLINE
  5
9FE
330
1F
100
AcDbEntity
  8
0
  6
Continuous
 62
     7
100
AcDbSpline
210
0.0
220
0.0
230
1.0
 70
     8
 71
     3
 72
    11
 73
     7
 74
     0
 42
0.000000001
 43
0.0000000001
 40
0.0
 40
0.0
 40
0.0
 40
0.0
 40
0.2654502005999999
 40
0.5249996430000002
 40
0.7719261111
 40
1.0
 40
1.0
 40
1.0
 40
1.0
 10
233.1789149980236
 20
1187.596995345048
 30
0.0
 10
234.3330979608236
 20
1187.590703237247
 30
0.0
 10
236.6167641538236
 20
1187.646198471447
 30
0.0
 10
239.9632381272236
 20
1187.930622446548
 30
0.0
 10
243.1236911495237
 20
1188.407005516747
 30
0.0
 10
245.1405776479237
 20
1188.864351133547
 30
0.0
 10
246.0964059140238
 20
1189.128606530148
 30
0.0
  0
SPLINE
  5
9FF
330
1F
100
AcDbEntity
  8
0
  6
Continuous
 62
     7
100
AcDbSpline
210
0.0
220
0.0
230
1.0
 70
     8
 71
     3
 72
    11
 73
     7
 74
     0
 42
0.000000001
 43
0.0000000001
 40
0.0
 40
0.0
 40
0.0
 40
0.0
 40
0.2307282369
 40
0.4763689162000002
 40
0.7338836549
 40
1.0
 40
1.0
 40
1.0
 40
1.0
 10
221.3831135355238
 20
1189.020965591248
 30
0.0
 10
222.0522878961237
 20
1188.842259670647
 30
0.0
 10
223.4462517740237
 20
1188.518701971648
 30
0.0
 10
225.6172986814238
 20
1188.139175105347
 30
0.0
 10
227.9097867167236
 20
1187.854192016748
 30
0.0
 10
229.4775029091236
 20
1187.731644242647
 30
0.0
 10
230.2750855777238
 20
1187.686531658147
 30
0.0
  0
SPLINE
  5
A00
330
1F
100
AcDbEntity
  8
0
  6
Continuous
 62
     7
100
AcDbSpline
210
0.0
220
0.0
230
1.0
 70
     8
 71
     3
 72
    20
 73
    16
 74
     0
 42
0.000000001
 43
0.0000000001
 40
0.0
 40
0.0
 40
0.0
 40
0.0
 40
0.1693745039
 40
0.3338987788
 40
0.4885677260000002
 40
0.5607855667
 40
0.6289065653
 40
0.6925028598000002
 40
0.7512278320999999
 40
0.8048353
 40
0.8532127690000001
 40
0.8964270520999999
 40
0.9347888898
 40
0.9689488460999999
 40
1.0
 40
1.0
 40
1.0
 40
1.0
 10
233.3974212328237
 20
1172.212071341947
 30
0.0
 10
235.0555133183236
 20
1172.210306898147
 30
0.0
 10
238.3254186074237
 20
1172.312102322247
 30
0.0
 10
243.0890016841238
 20
1172.776521107347
 30
0.0
 10
246.8704755287238
 20
1173.421989431247
 30
0.0
 10
249.6806471249238
 20
1174.091642763647
 30
0.0
 10
251.5993497433237
 20
1174.646371222647
 30
0.0
 10
253.3608986516238
 20
1175.259978885447
 30
0.0
 10
254.9501144711237
 20
1175.927097788147
 30
0.0
 10
256.3534772713238
 20
1176.642014099047
 30
0.0
 10
257.5593484981236
 20
1177.398931960647
 30
0.0
 10
258.5580297188237
 20
1178.192165915747
 30
0.0
 10
259.3413748819237
 20
1179.017360736147
 30
0.0
 10
259.9012960175237
 20
1179.870217654148
 30
0.0
 10
260.1260533529237
 20
1180.475902395647
 30
0.0
 10
260.1921995865236
 20
1180.772593797947
 30
0.0
  0
SPLINE
  5
A01
330
1F
100
AcDbEntity
  8
06___PRT_ALL_SURFS
  6
Continuous
 62
     7
100
AcDbSpline
210
0.0
220
0.0
230
1.0
 70
     8
 71
     3
 72
    11
 73
     7
 74
     0
 42
0.000000001
 43
0.0000000001
 40
0.0
 40
0.0
 40
0.0
 40
0.0
 40
0.2290697896
 40
0.475105143
 40
0.7336879773999999
 40
1.0
 40
1.0
 40
1.0
 40
1.0
 10
221.3733150060236
 20
1189.023577047048
 30
0.0
 10
222.1811092982236
 20
1188.807566388047
 30
0.0
 10
223.8746255217236
 20
1188.425880619147
 30
0.0
 10
226.5211390707236
 20
1188.005594144847
 30
0.0
 10
229.3224740441238
 20
1187.723317295747
 30
0.0
 10
231.2373354003237
 20
1187.632121989747
 30
0.0
 10
232.2092168151237
 20
1187.610447515047
 30
0.0
  0
SPLINE
  5
A02
330
1F
100
AcDbEntity
  8
06___PRT_ALL_SURFS
  6
Continuous
 62
     7
100
AcDbSpline
210
0.0
220
0.0
230
1.0
 70
     8
 71
     3
 72
    11
 73
     7
 74
     0
 42
0.000000001
 43
0.0000000001
 40
0.0
 40
0.0
 40
0.0
 40
0.0
 40
0.2655259016
 40
0.5250536416
 40
0.7719183309000001
 40
1.0
 40
1.0
 40
1.0
 40
1.0
 10
233.2911222429236
 20
1187.596488830247
 30
0.0
 10
234.4364284023236
 20
1187.592449477548
 30
0.0
 10
236.7019785709238
 20
1187.651407990647
 30
0.0
 10
240.0213051471237
 20
1187.937949091247
 30
0.0
 10
243.1557164655237
 20
1188.413571998247
 30
0.0
 10
245.1559826217238
 20
1188.868351695347
 30
0.0
 10
246.1041477008237
 20
1189.130744042147
 30
0.0
  0
SPLINE
  5
A03
330
1F
100
AcDbEntity
  8
0
  6
Continuous
 62
     7
100
AcDbSpline
210
0.0
220
0.0
230
1.0
 70
     8
 71
     3
 72
    20
 73
    16
 74
     0
 42
0.000000001
 43
0.0000000001
 40
0.0
 40
0.0
 40
0.0
 40
0.0
 40
0.0313423605
 40
0.0650533954
 40
0.102441651
 40
0.1443726152
 40
0.1913343784
 40
0.2435333694
 40
0.3009730246
 40
0.3635028262
 40
0.4308574344
 40
0.5026830428000002
 40
0.6579440557999999
 40
0.8252654002999999
 40
1.0
 40
1.0
 40
1.0
 40
1.0
 10
207.2871768290238
 20
1180.959350764047
 30
0.0
 10
207.3155104113239
 20
1180.677069022447
 30
0.0
 10
207.4540839181236
 20
1180.097077583047
 30
0.0
 10
207.8807763894238
 20
1179.266045120147
 30
0.0
 10
208.5198006324238
 20
1178.460273266147
 30
0.0
 10
209.3633518963236
 20
1177.683608695347
 30
0.0
 10
210.4043857565236
 20
1176.939402164247
 30
0.0
 10
211.6350701160236
 20
1176.232291673447
 30
0.0
 10
213.0460841731237
 20
1175.567396571047
 30
0.0
 10
214.6263992070237
 20
1174.949863693747
 30
0.0
 10
216.3634452092237
 20
1174.384590461147
 30
0.0
 10
218.9371876012237
 20
1173.688937580347
 30
0.0
 10
222.4436236694237
 20
1172.994492391547
 30
0.0
 10
226.9149946305238
 20
1172.447228937147
 30
0.0
 10
230.0089092152236
 20
1172.274569028648
 30
0.0
 10
231.5900607089236
 20
1172.235389808747
 30
0.0
  0
SPLINE
  5
A04
330
1F
100
AcDbEntity
  8
06___PRT_ALL_SURFS
  6
Continuous
 62
     7
100
AcDbSpline
210
0.0
220
0.0
230
1.0
 70
     8
 71
     3
 72
     9
 73
     5
 74
     0
 42
0.000000001
 43
0.0000000001
 40
0.0
 40
0.0
 40
0.0
 40
0.0
 40
0.2402103052
 40
1.0
 40
1.0
 40
1.0
 40
1.0
 10
208.5345362563237
 20
1182.545868424448
 30
0.0
 10
208.5655929558236
 20
1182.620157357847
 30
0.0
 10
208.7047537119238
 20
1182.925276695248
 30
0.0
 10
208.8814617420237
 20
1183.212658222847
 30
0.0
 10
209.0302367001236
 20
1183.419370691347
 30
0.0
  0
SPLINE
  5
A05
330
1F
100
AcDbEntity
  8
06___PRT_ALL_SURFS
  6
Continuous
 62
     7
100
AcDbSpline
210
0.0
220
0.0
230
1.0
 70
     8
 71
     3
 72
    19
 73
    15
 74
     0
 42
0.000000001
 43
0.0000000001
 40
0.0
 40
0.0
 40
0.0
 40
0.0
 40
0.034798664
 40
0.0736041591
 40
0.1167418848
 40
0.1643391861
 40
0.216376305
 40
0.2727227364
 40
0.3331621829
 40
0.3974101996999999
 40
0.5359012857
 40
0.6850147969
 40
0.8410465435999999
 40
1.0
 40
1.0
 40
1.0
 40
1.0
 10
209.0302367001236
 20
1183.419370691347
 30
0.0
 10
209.2166569036237
 20
1183.678388612947
 30
0.0
 10
209.6609231293237
 20
1184.190926268147
 30
0.0
 10
210.4687346023236
 20
1184.897197029948
 30
0.0
 10
211.4457577674236
 20
1185.576585877748
 30
0.0
 10
212.5850986169237
 20
1186.224648175247
 30
0.0
 10
213.8790011136237
 20
1186.837223438847
 30
0.0
 10
215.3183421726236
 20
1187.409961455247
 30
0.0
 10
216.8928522259236
 20
1187.938779467247
 30
0.0
 10
219.2158354562236
 20
1188.596463438047
 30
0.0
 10
222.3749842839236
 20
1189.271362014747
 30
0.0
 10
226.4066987313238
 20
1189.837673416047
 30
0.0
 10
230.6530288528236
 20
1190.161863474147
 30
0.0
 10
233.5432446295238
 20
1190.210035255548
 30
0.0
 10
235.0008379731237
 20
1190.191229465747
 30
0.0
  0
SPLINE
  5
A06
330
1F
100
AcDbEntity
  8
06___PRT_ALL_SURFS
  6
Continuous
 62
     7
100
AcDbSpline
210
0.0
220
0.0
230
1.0
 70
     8
 71
     3
 72
    18
 73
    14
 74
     0
 42
0.000000001
 43
0.0000000001
 40
0.0
 40
0.0
 40
0.0
 40
0.0
 40
0.161417601
 40
0.3181100167
 40
0.4666539142000001
 40
0.6039309039000002
 40
0.7272872424
 40
0.7831162009999999
 40
0.8347969640999998
 40
0.8822443021999999
 40
0.9254712750999999
 40
0.9646193653
 40
1.0
 40
1.0
 40
1.0
 40
1.0
 10
235.0008379731237
 20
1190.191229465747
 30
0.0
 10
236.3453454533237
 20
1190.173882703647
 30
0.0
 10
238.9947056277238
 20
1190.067346949247
 30
0.0
 10
242.8658037712237
 20
1189.690803998047
 30
0.0
 10
246.5084652172236
 20
1189.108628013547
 30
0.0
 10
249.8312339477236
 20
1188.335954251448
 30
0.0
 10
252.3445119476237
 20
1187.525445222347
 30
0.0
 10
254.1204940669236
 20
1186.785019073247
 30
0.0
 10
255.2792766393236
 20
1186.214073852647
 30
0.0
 10
256.3026523869237
 20
1185.612544098948
 30
0.0
 10
257.1845776164237
 20
1184.983687975647
 30
0.0
 10
257.9196234962237
 20
1184.331079282047
 30
0.0
 10
258.3278154366237
 20
1183.859787474047
 30
0.0
 10
258.5014079891237
 20
1183.621612538948
 30
0.0
  0
SPLINE
  5
A07
330
1F
100
AcDbEntity
  8
06___PRT_ALL_SURFS
  6
Continuous
 62
     7
100
AcDbSpline
210
0.0
220
0.0
230
1.0
 70
     8
 71
     3
 72
     9
 73
     5
 74
     0
 42
0.000000001
 43
0.0000000001
 40
0.0
 40
0.0
 40
0.0
 40
0.0
 40
0.2607026745
 40
1.0
 40
1.0
 40
1.0
 40
1.0
 10
258.5014079891237
 20
1183.621612538948
 30
0.0
 10
258.5521752270238
 20
1183.551958147747
 30
0.0
 10
258.7402524676236
 20
1183.280069357848
 30
0.0
 10
258.9002909782237
 20
1182.988191264247
 30
0.0
 10
258.9965162013236
 20
1182.763507503147
 30
0.0
  0
SPLINE
  5
A08
330
1F
100
AcDbEntity
  8
06___PRT_ALL_SURFS
  6
Continuous
 62
     7
100
AcDbSpline
210
0.0
220
0.0
230
1.0
 70
     8
 71
     3
 72
    34
 73
    30
 74
     0
 42
0.000000001
 43
0.0000000001
 40
0.0
 40
0.0
 40
0.0
 40
0.0
 40
0.0151530057
 40
0.0308257775
 40
0.0479580886
 40
0.0672302053
 40
0.0890553601
 40
0.1136369114
 40
0.1410275047
 40
0.1711722026
 40
0.20393709
 40
0.2391282133
 40
0.2765046583
 40
0.3157881663
 40
0.3988061147
 40
0.4854876900000001
 40
0.5729197178000001
 40
0.658149286
 40
0.7383412376999999
 40
0.7757448781000002
 40
0.8109666625
 40
0.8437651239
 40
0.8739456101
 40
0.9013733017999999
 40
0.9259920531
 40
0.9478528373999999
 40
0.9671566562
 40
0.9843135339999999
 40
1.0
 40
1.0
 40
1.0
 40
1.0
 10
208.3009119133237
 20
1181.706235236347
 30
0.0
 10
208.2610436938237
 20
1181.420513467648
 30
0.0
 10
208.2624350347237
 20
1180.824093377547
 30
0.0
 10
208.5260225640236
 20
1179.938807151547
 30
0.0
 10
209.0375140294236
 20
1179.079873234448
 30
0.0
 10
209.7838836037238
 20
1178.252812746347
 30
0.0
 10
210.7559863166236
 20
1177.460385890047
 30
0.0
 10
211.9451266253236
 20
1176.707217900648
 30
0.0
 10
213.3410258171236
 20
1175.999019048147
 30
0.0
 10
214.9312371513238
 20
1175.341973441347
 30
0.0
 10
216.7011731569237
 20
1174.742169353248
 30
0.0
 10
218.6342890021237
 20
1174.205342327247
 30
0.0
 10
220.7123364991237
 20
1173.736633801347
 30
0.0
 10
223.7052317910236
 20
1173.198897952047
 30
0.0
 10
227.6610377512236
 20
1172.735021551748
 30
0.0
 10
232.5547647719236
 20
1172.508183893947
 30
0.0
 10
237.4950313324236
 20
1172.610932704847
 30
0.0
 10
242.2936286378237
 20
1173.039211200547
 30
0.0
 10
246.1086039973236
 20
1173.666395106147
 30
0.0
 10
248.9424668273236
 20
1174.329243921247
 30
0.0
 10
250.8729437234237
 20
1174.881919271547
 30
0.0
 10
252.6399211561236
 20
1175.496178235748
 30
0.0
 10
254.2268964893237
 20
1176.166223500447
 30
0.0
 10
255.6193039854238
 20
1176.885814766647
 30
0.0
 10
256.8047225949237
 20
1177.648703230447
 30
0.0
 10
257.7728955296236
 20
1178.448951158947
 30
0.0
 10
258.5151572988236
 20
1179.282235794947
 30
0.0
 10
259.0224105853238
 20
1180.144456912048
 30
0.0
 10
259.1998765804238
 20
1180.753226504247
 30
0.0
 10
259.2411483574238
 20
1181.049007084847
 30
0.0
  0
LINE
  5
A09
330
1F
100
AcDbEntity
  8
0
  6
Continuous
 62
     7
100
AcDbLine
 10
260.2707768742237
 20
1181.492255634247
 30
0.0
 11
260.2707717011238
 21
1181.493392422447
 31
0.0
  0
SPLINE
  5
A0A
330
1F
100
AcDbEntity
  8
0
  6
Continuous
 62
     7
100
AcDbSpline
210
0.0
220
0.0
230
1.0
 70
     8
 71
     3
 72
    20
 73
    16
 74
     0
 42
0.000000001
 43
0.0000000001
 40
0.0
 40
0.0
 40
0.0
 40
0.0
 40
0.1727052794
 40
0.3407261689999999
 40
0.4981343026
 40
0.5711875251
 40
0.6396772546000002
 40
0.7031168035
 40
0.7611284906
 40
0.8134741976999999
 40
0.8601025774
 40
0.9012237629999999
 40
0.937419749
 40
0.9697817912999999
 40
1.0
 40
1.0
 40
1.0
 40
1.0
 10
235.0490657315238
 20
1190.536861164047
 30
0.0
 10
233.2649409338237
 20
1190.559879844848
 30
0.0
 10
229.7421815005237
 20
1190.482973303847
 30
0.0
 10
224.6136628053236
 20
1190.008407724048
 30
0.0
 10
220.5500155529237
 20
1189.315002861747
 30
0.0
 10
217.5483821689236
 20
1188.582686778147
 30
0.0
 10
215.5187878857237
 20
1187.974214884647
 30
0.0
 10
213.6747449543236
 20
1187.299252631647
 30
0.0
 10
212.0344552456236
 20
1186.564557122647
 30
0.0
 10
210.6137565509237
 20
1185.777292356247
 30
0.0
 10
209.4259256001237
 20
1184.944417270948
 30
0.0
 10
208.4818082972238
 20
1184.072140254147
 30
0.0
 10
207.7910716364238
 20
1183.164446168847
 30
0.0
 10
207.3658304934238
 20
1182.225443613448
 30
0.0
 10
207.2699204717237
 20
1181.575177657047
 30
0.0
 10
207.2712833965238
 20
1181.262986686947
 30
0.0
  0
SPLINE
  5
A0B
330
1F
100
AcDbEntity
  8
06___PRT_ALL_SURFS
  6
Continuous
 62
     7
100
AcDbSpline
210
0.0
220
0.0
230
1.0
 70
     8
 71
     3
 72
    11
 73
     7
 74
     0
 42
0.000000001
 43
0.0000000001
 40
0.0
 40
0.0
 40
0.0
 40
0.0
 40
0.2663188064
 40
0.5248905386000002
 40
0.7709236159000002
 40
1.0
 40
1.0
 40
1.0
 40
1.0
 10
232.2092164513238
 20
1187.610449045747
 30
0.0
 10
231.2375243262236
 20
1187.632129993847
 30
0.0
 10
229.3230994881237
 20
1187.723277910947
 30
0.0
 10
226.5224004606237
 20
1188.005443325848
 30
0.0
 10
223.8764794675237
 20
1188.425540799348
 30
0.0
 10
222.1833021555237
 20
1188.807056277247
 30
0.0
 10
221.3756435706236
 20
1189.022955509747
 30
0.0
  0
LINE
  5
A0C
330
1F
100
AcDbEntity
  8
0
  6
Continuous
 62
     7
100
AcDbLine
 10
260.2707502652238
 20
1181.489140769747
 30
0.0
 11
260.2707324065236
 21
1181.493392236447
 31
0.0
  0
SPLINE
  5
A0D
330
1F
100
AcDbEntity
  8
06___PRT_ALL_SURFS
  6
Continuous
 62
     7
100
AcDbSpline
210
0.0
220
0.0
230
1.0
 70
     8
 71
     3
 72
    11
 73
     7
 74
     0
 42
0.000000001
 43
0.0000000001
 40
0.0
 40
0.0
 40
0.0
 40
0.0
 40
0.2655192792
 40
0.525032462
 40
0.771897938
 40
1.0
 40
1.0
 40
1.0
 40
1.0
 10
233.2911230317236
 20
1187.596490346147
 30
0.0
 10
234.4358885617237
 20
1187.592465434147
 30
0.0
 10
236.7003341708237
 20
1187.651337476447
 30
0.0
 10
240.0180975039236
 20
1187.937616136247
 30
0.0
 10
243.1511761345237
 20
1188.412747059047
 30
0.0
 10
245.1506904262237
 20
1188.867086359347
 30
0.0
 10
246.0985667006237
 20
1189.129202538747
 30
0.0
  0
SPLINE
  5
A0E
330
1F
100
AcDbEntity
  8
0
  6
Continuous
 62
     7
100
AcDbSpline
210
0.0
220
0.0
230
1.0
 70
     8
 71
     3
 72
     9
 73
     5
 74
     0
 42
0.000000001
 43
0.0000000001
 40
0.0
 40
0.0
 40
0.0
 40
0.0
 40
0.2474315856
 40
1.0
 40
1.0
 40
1.0
 40
1.0
 10
260.2633373190238
 20
1183.209246734347
 30
0.0
 10
260.2629983333236
 20
1183.286467298947
 30
0.0
 10
260.2502999791236
 20
1183.598445477347
 30
0.0
 10
260.1912416442238
 20
1183.908195245247
 30
0.0
 10
260.1241871155237
 20
1184.133290166347
 30
0.0
  0
SPLINE
  5
A0F
330
1F
100
AcDbEntity
  8
06___PRT_ALL_SURFS
  6
Continuous
 62
     7
100
AcDbSpline
210
0.0
220
0.0
230
1.0
 70
     8
 71
     3
 72
    18
 73
    14
 74
     0
 42
0.000000001
 43
0.0000000001
 40
0.0
 40
0.0
 40
0.0
 40
0.0
 40
0.0686764817
 40
0.109062125
 40
0.1540030201
 40
0.2036658011
 40
0.2580528161
 40
0.317043085
 40
0.3804206094
 40
0.5190782583
 40
0.6710727918
 40
0.8327420134
 40
1.0
 40
1.0
 40
1.0
 40
1.0
 10
258.9965160151237
 20
1182.763507492947
 30
0.0
 10
258.7624388870238
 20
1183.310094299347
 30
0.0
 10
258.1857914315238
 20
1184.090789191847
 30
0.0
 10
257.1931709393236
 20
1184.980429664247
 30
0.0
 10
256.2370633421238
 20
1185.657859663147
 30
0.0
 10
255.1181450219238
 20
1186.302245116047
 30
0.0
 10
253.8430423965237
 20
1186.910744409647
 30
0.0
 10
252.4210322804238
 20
1187.478742482947
 30
0.0
 10
250.2776414571238
 20
1188.198228207547
 30
0.0
 10
247.3025513780237
 20
1188.954208800248
 30
0.0
 10
243.4403857596237
 20
1189.621094309047
 30
0.0
 10
239.2961378953237
 20
1190.052133442748
 30
0.0
 10
236.4488348878237
 20
1190.172547488547
 30
0.0
 10
235.0008379731237
 20
1190.191229465747
 30
0.0
  0
SPLINE
  5
A10
330
1F
100
AcDbEntity
  8
0
  6
Continuous
 62
     7
100
AcDbSpline
210
0.0
220
0.0
230
1.0
 70
     8
 71
     3
 72
     9
 73
     5
 74
     0
 42
0.000000001
 43
0.0000000001
 40
0.0
 40
0.0
 40
0.0
 40
0.0
 40
0.2529028243
 40
1.0
 40
1.0
 40
1.0
 40
1.0
 10
207.3976330411237
 20
1183.914491163447
 30
0.0
 10
207.3860961122236
 20
1183.874893763047
 30
0.0
 10
207.3432109946234
 20
1183.717542131347
 30
0.0
 10
207.3115139509237
 20
1183.557115152647
 30
0.0
 10
207.2946764028238
 20
1183.436446256948
 30
0.0
  0
SPLINE
  5
A11
330
1F
100
AcDbEntity
  8
06___PRT_ALL_SURFS
  6
Continuous
 62
     7
100
AcDbSpline
210
0.0
220
0.0
230
1.0
 70
     8
 71
     3
 72
    18
 73
    14
 74
     0
 42
0.000000001
 43
0.0000000001
 40
0.0
 40
0.0
 40
0.0
 40
0.0
 40
0.0675849131
 40
0.1078247133
 40
0.1528906536
 40
0.2029186313
 40
0.2578624251
 40
0.3175407945
 40
0.3816692522
 40
0.5217143871
 40
0.674405067
 40
0.8354125487999999
 40
1.0
 40
1.0
 40
1.0
 40
1.0
 10
208.5345343797237
 20
1182.545865644147
 30
0.0
 10
208.7822541025237
 20
1183.138377773347
 30
0.0
 10
209.4174133089236
 20
1183.982644077048
 30
0.0
 10
210.5131667103237
 20
1184.935178920047
 30
0.0
 10
211.5783233778236
 20
1185.662108392147
 30
0.0
 10
212.8280421643237
 20
1186.351073846147
 30
0.0
 10
214.2538764614237
 20
1186.998566702647
 30
0.0
 10
215.8438768905237
 20
1187.598866360947
 30
0.0
 10
218.2364647345237
 20
1188.351829254747
 30
0.0
 10
221.5430555244236
 20
1189.125839497847
 30
0.0
 10
225.8087534743238
 20
1189.777287207547
 30
0.0
 10
230.3412194401237
 20
1190.153226982047
 30
0.0
 10
233.4370101563236
 20
1190.211405886947
 30
0.0
 10
235.0008379731237
 20
1190.191229465747
 30
0.0
  0
SPLINE
  5
A12
330
1F
100
AcDbEntity
  8
06___PRT_ALL_SURFS
  6
Continuous
 62
     7
100
AcDbSpline
210
0.0
220
0.0
230
1.0
 70
     8
 71
     3
 72
    22
 73
    18
 74
     0
 42
0.000000001
 43
0.0000000001
 40
0.0
 40
0.0
 40
0.0
 40
0.0
 40
0.1834529388
 40
0.3582891277
 40
0.4404640655
 40
0.5181555082
 40
0.5907279264000001
 40
0.6576483944
 40
0.7185156781000001
 40
0.7731016349999999
 40
0.8214141752999999
 40
0.8637952723999998
 40
0.9010652354000001
 40
0.9346863534
 40
0.9508223029999999
 40
0.9668913979999999
 40
1.0
 40
1.0
 40
1.0
 40
1.0
 10
232.5412222975237
 20
1172.564012855447
 30
0.0
 10
230.7924173918236
 20
1172.586575840948
 30
0.0
 10
227.3772922455237
 20
1172.751601451447
 30
0.0
 10
223.2050681604237
 20
1173.268223694747
 30
0.0
 10
220.0701545721238
 20
1173.868729456547
 30
0.0
 10
217.9154255493238
 20
1174.390200665847
 30
0.0
 10
215.9313059631236
 20
1174.986171939947
 30
0.0
 10
214.1387423841236
 20
1175.650251300248
 30
0.0
 10
212.5563589591236
 20
1176.375378288847
 30
0.0
 10
211.2001520609238
 20
1177.154269577147
 30
0.0
 10
210.0832724570237
 20
1177.979852991048
 30
0.0
 10
209.2165707128238
 20
1178.846680593747
 30
0.0
 10
208.6102908729237
 20
1179.750624986647
 30
0.0
 10
208.3315972036237
 20
1180.544523499147
 30
0.0
 10
208.2616506459237
 20
1181.170471485847
 30
0.0
 10
208.2861527732236
 20
1181.794589819547
 30
0.0
 10
208.4127823685236
 20
1182.254651272547
 30
0.0
 10
208.5345343797237
 20
1182.545865644147
 30
0.0
  0
SPLINE
  5
A13
330
1F
100
AcDbEntity
  8
0
  6
Continuous
 62
     7
100
AcDbSpline
210
0.0
220
0.0
230
1.0
 70
     8
 71
     3
 72
    33
 73
    29
 74
     0
 42
0.000000001
 43
0.0000000001
 40
0.0
 40
0.0
 40
0.0
 40
0.0
 40
0.0151604961
 40
0.0313037252
 40
0.0492225243
 40
0.0694457198
 40
0.0922707328
 40
0.1178236636
 40
0.1461068076
 40
0.1770340667
 40
0.2104529906
 40
0.2461587077
 40
0.323400101
 40
0.4064651457
 40
0.4927078858
 40
0.5793157006000002
 40
0.6634572655
 40
0.7424297005
 40
0.7792154106999999
 40
0.8138355769
 40
0.8460638159
 40
0.8757187152
 40
0.9026778090999998
 40
0.9268953208
 40
0.9484282698999999
 40
0.9674782758999999
 40
0.9844524449999999
 40
1.0
 40
1.0
 40
1.0
 40
1.0
 10
260.2707324065236
 20
1181.493392236447
 30
0.0
 10
260.2692827585238
 20
1181.791029030947
 30
0.0
 10
260.1771678816238
 20
1182.408096720647
 30
0.0
 10
259.7833652674237
 20
1183.300578730148
 30
0.0
 10
259.1469514016237
 20
1184.163945564247
 30
0.0
 10
258.2785653226238
 20
1184.994254976547
 30
0.0
 10
257.1865487138236
 20
1185.787951498147
 30
0.0
 10
255.8801334404236
 20
1186.539780845647
 30
0.0
 10
254.3704325085236
 20
1187.243826386148
 30
0.0
 10
252.6706681855237
 20
1187.893903224547
 30
0.0
 10
250.7960678696236
 20
1188.484125318547
 30
0.0
 10
248.0127006493237
 20
1189.202636138347
 30
0.0
 10
244.2229619833238
 20
1189.899951715047
 30
0.0
 10
239.4057927941237
 20
1190.411742759747
 30
0.0
 10
234.3811632587237
 20
1190.598526750648
 30
0.0
 10
229.3340773570237
 20
1190.453224074447
 30
0.0
 10
224.4503807286237
 20
1189.981175229747
 30
0.0
 10
220.5776856695236
 20
1189.316485568947
 30
0.0
 10
217.7068534698237
 20
1188.623516916847
 30
0.0
 10
215.7539754425236
 20
1188.049300666047
 30
0.0
 10
213.9679140031237
 20
1187.413821911347
 30
0.0
 10
212.3648332788237
 20
1186.722836375948
 30
0.0
 10
210.9589583081238
 20
1185.982590517848
 30
0.0
 10
209.7624161964236
 20
1185.199289548148
 30
0.0
 10
208.7853068559236
 20
1184.378785098247
 30
0.0
 10
208.0360618427237
 20
1183.525387387047
 30
0.0
 10
207.5239542141235
 20
1182.643213847947
 30
0.0
 10
207.3442666770234
 20
1182.021432557147
 30
0.0
 10
207.3020837477234
 20
1181.719122062848
 30
0.0
  0
SPLINE
  5
A14
330
1F
100
AcDbEntity
  8
06___PRT_ALL_SURFS
  6
Continuous
 62
     7
100
AcDbSpline
210
0.0
220
0.0
230
1.0
 70
     8
 71
     3
 72
    11
 73
     7
 74
     0
 42
0.000000001
 43
0.0000000001
 40
0.0
 40
0.0
 40
0.0
 40
0.0
 40
0.1490737911
 40
0.4268451804
 40
0.7085259544
 40
1.0
 40
1.0
 40
1.0
 40
1.0
 10
259.2411257475237
 20
1181.049010239547
 30
0.0
 10
259.2531699033236
 20
1181.135331884847
 30
0.0
 10
259.2773820884238
 20
1181.383924829047
 30
0.0
 10
259.2666462070237
 20
1181.799408594047
 30
0.0
 10
259.1746710843238
 20
1182.289792744747
 30
0.0
 10
259.0635332891236
 20
1182.607017373547
 30
0.0
 10
258.9965160151237
 20
1182.763507492947
 30
0.0
  0
SPLINE
  5
A15
330
1F
100
AcDbEntity
  8
0
  6
Continuous
 62
     7
100
AcDbSpline
210
0.0
220
0.0
230
1.0
 70
     8
 71
     3
 72
    12
 73
     8
 74
     0
 42
0.000000001
 43
0.0000000001
 40
0.0
 40
0.0
 40
0.0
 40
0.0
 40
0.3092153878
 40
0.5722879422
 40
0.7970315273999999
 40
0.9000221740999998
 40
1.0
 40
1.0
 40
1.0
 40
1.0
 10
182.7265456127234
 20
1326.414101737947
 30
0.0
 10
182.4200825838234
 20
1326.226446931048
 30
0.0
 10
181.8723979274236
 20
1325.843875472648
 30
0.0
 10
181.2136260501238
 20
1325.184292923548
 30
0.0
 10
180.8586092917239
 20
1324.583375426847
 30
0.0
 10
180.7232226447236
 20
1324.102606962147
 30
0.0
 10
180.7017323494237
 20
1323.866067125247
 30
0.0
 10
180.7022274308238
 20
1323.749879785947
 30
0.0
  0
SPLINE
  5
A16
330
1F
100
AcDbEntity
  8
0
  6
Continuous
 62
     7
100
AcDbSpline
210
0.0
220
0.0
230
1.0
 70
     8
 71
     3
 72
    13
 73
     9
 74
     0
 42
0.000000001
 43
0.0000000001
 40
0.0
 40
0.0
 40
0.0
 40
0.0
 40
0.1161926315
 40
0.2267847552
 40
0.3362123233
 40
0.4511897522
 40
0.7109829878000001
 40
1.0
 40
1.0
 40
1.0
 40
1.0
 10
181.6452308847238
 20
1298.483953034748
 30
0.0
 10
181.6583245564234
 20
1298.577790860248
 30
0.0
 10
181.7237059108238
 20
1298.757358210547
 30
0.0
 10
181.9073694272238
 20
1298.966508893247
 30
0.0
 10
182.1361651419238
 20
1299.119677192047
 30
0.0
 10
182.5007987318236
 20
1299.274819663547
 30
0.0
 10
183.0334773217236
 20
1299.391046224047
 30
0.0
 10
183.4818141641235
 20
1299.416970992448
 30
0.0
 10
183.7174676384238
 20
1299.413930604247
 30
0.0
  0
SPLINE
  5
A17
330
1F
100
AcDbEntity
  8
0
  6
Continuous
 62
     7
100
AcDbSpline
210
0.0
220
0.0
230
1.0
 70
     8
 71
     3
 72
    18
 73
    14
 74
     0
 42
0.000000001
 43
0.0000000001
 40
0.0
 40
0.0
 40
0.0
 40
0.0
 40
0.028530025
 40
0.06157191
 40
0.1017835479
 40
0.150175013
 40
0.2066725387
 40
0.2705972014
 40
0.4160196931000001
 40
0.5750193493
 40
0.7340553208000001
 40
0.8795637595
 40
1.0
 40
1.0
 40
1.0
 40
1.0
 10
182.5512879230236
 20
1283.416292584347
 30
0.0
 10
182.5515612249237
 20
1283.379314135247
 30
0.0
 10
182.5720012983238
 20
1283.299084976048
 30
0.0
 10
182.6526824990237
 20
1283.191982920347
 30
0.0
 10
182.7771204368237
 20
1283.093406016248
 30
0.0
 10
182.9430629268236
 20
1283.003513085347
 30
0.0
 10
183.147205119124
 20
1282.923613138547
 30
0.0
 10
183.4789246732234
 20
1282.828939549548
 30
0.0
 10
183.9517486881236
 20
1282.752089543547
 30
0.0
 10
184.5527327678236
 20
1282.722937907047
 30
0.0
 10
185.1539440089236
 20
1282.756914643447
 30
0.0
 10
185.6977627683236
 20
1282.850248433347
 30
0.0
 10
186.0282189122235
 20
1282.957385994647
 30
0.0
 10
186.1689741641239
 20
1283.024888534747
 30
0.0
  0
SPLINE
  5
A18
330
1F
100
AcDbEntity
  8
0
  6
Continuous
 62
     7
100
AcDbSpline
210
0.0
220
0.0
230
1.0
 70
     8
 71
     3
 72
     9
 73
     5
 74
     0
 42
0.000000001
 43
0.0000000001
 40
0.0
 40
0.0
 40
0.0
 40
0.0
 40
0.2521400831
 40
1.0
 40
1.0
 40
1.0
 40
1.0
 10
202.5001442344237
 20
1304.361920195848
 30
0.0
 10
202.9573249133236
 20
1304.356021675647
 30
0.0
 10
204.770730608424
 20
1304.357353272848
 30
0.0
 10
206.5843041684238
 20
1304.455396986747
 30
0.0
 10
207.9339981647238
 20
1304.587395532248
 30
0.0
  0
SPLINE
  5
A19
330
1F
100
AcDbEntity
  8
0
  6
Continuous
 62
     7
100
AcDbSpline
210
0.0
220
0.0
230
1.0
 70
     8
 71
     3
 72
     9
 73
     5
 74
     0
 42
0.000000001
 43
0.0000000001
 40
0.0
 40
0.0
 40
0.0
 40
0.0
 40
0.2440941064
 40
1.0
 40
1.0
 40
1.0
 40
1.0
 10
197.207894694624
 20
1304.719056144248
 30
0.0
 10
197.6362334613236
 20
1304.665215568048
 30
0.0
 10
199.3943402312234
 20
1304.471408212647
 30
0.0
 10
201.1633465523237
 20
1304.379167486647
 30
0.0
 10
202.5001442344237
 20
1304.361920195848
 30
0.0
  0
SPLINE
  5
A1A
330
1F
100
AcDbEntity
  8
0
  6
Continuous
 62
     7
100
AcDbSpline
210
0.0
220
0.0
230
1.0
 70
     8
 71
     3
 72
     9
 73
     5
 74
     0
 42
0.000000001
 43
0.0000000001
 40
0.0
 40
0.0
 40
0.0
 40
0.0
 40
0.2544888361
 40
1.0
 40
1.0
 40
1.0
 40
1.0
 10
196.119652276524
 20
1304.780723452047
 30
0.0
 10
196.2121498442238
 20
1304.781461993147
 30
0.0
 10
196.5756210423237
 20
1304.778522830747
 30
0.0
 10
196.9390350845237
 20
1304.752850788648
 30
0.0
 10
197.207894694624
 20
1304.719056144248
 30
0.0
  0
SPLINE
  5
A1B
330
1F
100
AcDbEntity
  8
0
  6
Continuous
 62
     7
100
AcDbSpline
210
0.0
220
0.0
230
1.0
 70
     8
 71
     3
 72
    14
 73
    10
 74
     0
 42
0.000000001
 43
0.0000000001
 40
0.0
 40
0.0
 40
0.0
 40
0.0
 40
0.0915374958
 40
0.1952858923
 40
0.310352464
 40
0.4354197129
 40
0.5688596485000002
 40
0.7088150578
 40
1.0
 40
1.0
 40
1.0
 40
1.0
 10
182.8317701196238
 20
1302.018776009547
 30
0.0
 10
183.1884044678236
 20
1302.237151942147
 30
0.0
 10
183.9822660329237
 20
1302.649556600447
 30
0.0
 10
185.3008364822235
 20
1303.175010757448
 30
0.0
 10
186.8033616150237
 20
1303.638708226348
 30
0.0
 10
188.4649879718235
 20
1304.032628397747
 30
0.0
 10
190.2584008584235
 20
1304.350112620247
 30
0.0
 10
192.8187372450238
 20
1304.668081987548
 30
0.0
 10
194.7894389945236
 20
1304.770102446348
 30
0.0
 10
196.119652276524
 20
1304.780723452047
 30
0.0
  0
SPLINE
  5
A1C
330
1F
100
AcDbEntity
  8
0
  6
Continuous
 62
     7
100
AcDbSpline
210
0.0
220
0.0
230
1.0
 70
     8
 71
     3
 72
    14
 73
    10
 74
     0
 42
0.000000001
 43
0.0000000001
 40
0.0
 40
0.0
 40
0.0
 40
0.0
 40
0.0856250551
 40
0.1849880964
 40
0.297500281
 40
0.4219164562
 40
0.5565321662000002
 40
0.699310538
 40
1.0
 40
1.0
 40
1.0
 40
1.0
 10
249.4122906099237
 20
1301.159757766648
 30
0.0
 10
249.0970161372236
 20
1301.402515672747
 30
0.0
 10
248.3659221430237
 20
1301.862369660847
 30
0.0
 10
247.1099003189238
 20
1302.445529630348
 30
0.0
 10
245.6334605079237
 20
1302.964050720847
 30
0.0
 10
243.9634757496238
 20
1303.407956235247
 30
0.0
 10
242.1302160234236
 20
1303.768964097847
 30
0.0
 10
239.4680670895236
 20
1304.136380487747
 30
0.0
 10
237.4063264734236
 20
1304.257816467148
 30
0.0
 10
236.0091155393236
 20
1304.275843206447
 30
0.0
  0
SPLINE
  5
A1D
330
1F
100
AcDbEntity
  8
0
  6
Continuous
 62
     7
100
AcDbSpline
210
0.0
220
0.0
230
1.0
 70
     8
 71
     3
 72
     9
 73
     5
 74
     0
 42
0.000000001
 43
0.0000000001
 40
0.0
 40
0.0
 40
0.0
 40
0.0
 40
0.2547665298
 40
1.0
 40
1.0
 40
1.0
 40
1.0
 10
207.4101170176236
 20
1284.716304565347
 30
0.0
 10
207.3320120803237
 20
1284.717312271048
 30
0.0
 10
207.0255149570239
 20
1284.725436322747
 30
0.0
 10
206.7193790827237
 20
1284.749997396748
 30
0.0
 10
206.4927146424234
 20
1284.778812147647
 30
0.0
  0
SPLINE
  5
A1E
330
1F
100
AcDbEntity
  8
0
  6
Continuous
 62
     7
100
AcDbSpline
210
0.0
220
0.0
230
1.0
 70
     8
 71
     3
 72
    11
 73
     7
 74
     0
 42
0.000000001
 43
0.0000000001
 40
0.0
 40
0.0
 40
0.0
 40
0.0
 40
0.2446570074
 40
0.4964473615
 40
0.7500287053
 40
1.0
 40
1.0
 40
1.0
 40
1.0
 10
206.4927146424234
 20
1284.778812147647
 30
0.0
 10
205.6234118892235
 20
1284.889322390448
 30
0.0
 10
203.8522226948235
 20
1285.059306863247
 30
0.0
 10
201.1667308764236
 20
1285.167339758547
 30
0.0
 10
198.4602867056237
 20
1285.131226545648
 30
0.0
 10
196.6596822747237
 20
1285.009864071348
 30
0.0
 10
195.7684851012236
 20
1284.923902561847
 30
0.0
  0
SPLINE
  5
A1F
330
1F
100
AcDbEntity
  8
0
  6
Continuous
 62
     7
100
AcDbSpline
210
0.0
220
0.0
230
1.0
 70
     8
 71
     3
 72
     9
 73
     5
 74
     0
 42
0.000000001
 43
0.0000000001
 40
0.0
 40
0.0
 40
0.0
 40
0.0
 40
0.2514050594
 40
1.0
 40
1.0
 40
1.0
 40
1.0
 10
194.6669753284236
 20
1284.890487317347
 30
0.0
 10
194.7593089765237
 20
1284.887356231348
 30
0.0
 10
195.1267499018236
 20
1284.880886350247
 30
0.0
 10
195.4946611241239
 20
1284.897490536347
 30
0.0
 10
195.7684851012236
 20
1284.923902561847
 30
0.0
  0
SPLINE
  5
A20
330
1F
100
AcDbEntity
  8
0
  6
Continuous
 62
     7
100
AcDbSpline
210
0.0
220
0.0
230
1.0
 70
     8
 71
     3
 72
    11
 73
     7
 74
     0
 42
0.000000001
 43
0.0000000001
 40
0.0
 40
0.0
 40
0.0
 40
0.0
 40
0.3174101953
 40
0.5855859152000002
 40
0.8088711393
 40
1.0
 40
1.0
 40
1.0
 40
1.0
 10
188.1850630811236
 20
1283.991752087347
 30
0.0
 10
188.2377709615239
 20
1284.017029409248
 30
0.0
 10
188.3327193789236
 20
1284.068922938547
 30
0.0
 10
188.4513857548236
 20
1284.160330898648
 30
0.0
 10
188.5325185050237
 20
1284.258204343448
 30
0.0
 10
188.5601285971233
 20
1284.331686233647
 30
0.0
 10
188.5649929851238
 20
1284.366547623648
 30
0.0
  0
SPLINE
  5
A21
330
1F
100
AcDbEntity
  8
02___PRT_ALL_AXES
  6
Continuous
 62
     7
100
AcDbSpline
210
0.0
220
0.0
230
1.0
 70
     8
 71
     3
 72
    15
 73
    11
 74
     0
 42
0.000000001
 43
0.0000000001
 40
0.0
 40
0.0
 40
0.0
 40
0.0
 40
0.0757114864
 40
0.1595325347
 40
0.2571613078
 40
0.3715669668
 40
0.5037413473
 40
0.6533994198
 40
0.8193977210999998
 40
1.0
 40
1.0
 40
1.0
 40
1.0
 10
220.5901829551237
 20
1281.248277469047
 30
0.0
 10
220.5912111888238
 20
1281.059712286947
 30
0.0
 10
220.6707693775236
 20
1280.660133199647
 30
0.0
 10
221.0008821968238
 20
1280.101269672247
 30
0.0
 10
221.5226631308237
 20
1279.573536217847
 30
0.0
 10
222.2260566874236
 20
1279.077897649447
 30
0.0
 10
223.1017721568237
 20
1278.618346813947
 30
0.0
 10
224.1376541999236
 20
1278.200883046948
 30
0.0
 10
225.3183306444237
 20
1277.831753632247
 30
0.0
 10
226.1581964754237
 20
1277.629451795847
 30
0.0
 10
226.5982582258236
 20
1277.536312225147
 30
0.0
  0
SPLINE
  5
A22
330
1F
100
AcDbEntity
  8
02___PRT_ALL_AXES
  6
Continuous
 62
     7
100
AcDbSpline
210
0.0
220
0.0
230
1.0
 70
     8
 71
     3
 72
    15
 73
    11
 74
     0
 42
0.000000001
 43
0.0000000001
 40
0.0
 40
0.0
 40
0.0
 40
0.0
 40
0.1772334672
 40
0.3409371822
 40
0.4895433655
 40
0.621981961
 40
0.7378485137000002
 40
0.8377224111
 40
0.9237188675
 40
1.0
 40
1.0
 40
1.0
 40
1.0
 10
240.1318281683237
 20
1277.598556852648
 30
0.0
 10
240.5492542177237
 20
1277.691013052647
 30
0.0
 10
241.3477839822237
 20
1277.890189458747
 30
0.0
 10
242.4741854260237
 20
1278.247835981347
 30
0.0
 10
243.4707330538238
 20
1278.648531565147
 30
0.0
 10
244.3239448838237
 20
1279.086753870547
 30
0.0
 10
245.0228827548238
 20
1279.556983230448
 30
0.0
 10
245.5590605262237
 20
1280.055194273547
 30
0.0
 10
245.9245131869236
 20
1280.578713893147
 30
0.0
 10
246.0496434374236
 20
1280.958073113347
 30
0.0
 10
246.0750734775238
 20
1281.140321433547
 30
0.0
  0
SPLINE
  5
A23
330
1F
100
AcDbEntity
  8
0
  6
Continuous
 62
     7
100
AcDbSpline
210
0.0
220
0.0
230
1.0
 70
     8
 71
     3
 72
    11
 73
     7
 74
     0
 42
0.000000001
 43
0.0000000001
 40
0.0
 40
0.0
 40
0.0
 40
0.0
 40
0.1979481647
 40
0.4306050254000002
 40
0.6985264382
 40
1.0
 40
1.0
 40
1.0
 40
1.0
 10
216.5685462670237
 20
1282.454567044847
 30
0.0
 10
216.7975996488237
 20
1282.208044688147
 30
0.0
 10
217.3616069678237
 20
1281.732675510448
 30
0.0
 10
218.3827291420237
 20
1281.120630581648
 30
0.0
 10
219.6289602944237
 20
1280.561250896847
 30
0.0
 10
220.5458646424238
 20
1280.247241558347
 30
0.0
 10
221.0362838218236
 20
1280.098423107747
 30
0.0
  0
SPLINE
  5
A24
330
1F
100
AcDbEntity
  8
0
  6
Continuous
 62
     7
100
AcDbSpline
210
0.0
220
0.0
230
1.0
 70
     8
 71
     3
 72
    19
 73
    15
 74
     0
 42
0.000000001
 43
0.0000000001
 40
0.0
 40
0.0
 40
0.0
 40
0.0
 40
0.031488355
 40
0.0648118555
 40
0.1014771299
 40
0.1425346598
 40
0.188607134
 40
0.2400024058
 40
0.2967818985
 40
0.3588435621999999
 40
0.4977055468
 40
0.6536708526
 40
0.8226746832999999
 40
1.0
 40
1.0
 40
1.0
 40
1.0
 10
180.8471134113238
 20
1290.159481413547
 30
0.0
 10
180.8478063285238
 20
1289.995159154947
 30
0.0
 10
180.8953790033238
 20
1289.655651558347
 30
0.0
 10
181.1001104719234
 20
1289.162277491147
 30
0.0
 10
181.4321949095237
 20
1288.683034999147
 30
0.0
 10
181.8866316870235
 20
1288.220462279747
 30
0.0
 10
182.4590483895235
 20
1287.776161897647
 30
0.0
 10
183.1451971048236
 20
1287.352933361247
 30
0.0
 10
183.9397390119238
 20
1286.953456829748
 30
0.0
 10
185.1826980300238
 20
1286.437552137148
 30
0.0
 10
186.9659898050236
 20
1285.886594195448
 30
0.0
 10
189.3366204238235
 20
1285.385566737447
 30
0.0
 10
191.9371488193237
 20
1285.039555060947
 30
0.0
 10
193.7421249728236
 20
1284.921849513847
 30
0.0
 10
194.6669753284236
 20
1284.890487317347
 30
0.0
  0
SPLINE
  5
A25
330
1F
100
AcDbEntity
  8
0
  6
Continuous
 62
     7
100
AcDbSpline
210
0.0
220
0.0
230
1.0
 70
     8
 71
     3
 72
    11
 73
     7
 74
     0
 42
0.000000001
 43
0.0000000001
 40
0.0
 40
0.0
 40
0.0
 40
0.0
 40
0.214310545
 40
0.4447924369
 40
0.7041260838
 40
1.0
 40
1.0
 40
1.0
 40
1.0
 10
250.6561956680236
 20
1323.380461671747
 30
0.0
 10
250.6553907256237
 20
1323.569368222647
 30
0.0
 10
250.5916737697237
 20
1323.963273632147
 30
0.0
 10
250.3202067385237
 20
1324.528756486748
 30
0.0
 10
249.8836574305236
 20
1325.072272644747
 30
0.0
 10
249.5137097861236
 20
1325.395970112448
 30
0.0
 10
249.3070661029237
 20
1325.555083495048
 30
0.0
  0
SPLINE
  5
A26
330
1F
100
AcDbEntity
  8
0
  6
Continuous
 62
     7
100
AcDbSpline
210
0.0
220
0.0
230
1.0
 70
     8
 71
     3
 72
    15
 73
    11
 74
     0
 42
0.000000001
 43
0.0000000001
 40
0.0
 40
0.0
 40
0.0
 40
0.0
 40
0.1773307154
 40
0.3395423265999999
 40
0.4857706907
 40
0.6157043434000001
 40
0.7297738316000002
 40
0.8294969699999999
 40
0.9179340904
 40
1.0
 40
1.0
 40
1.0
 40
1.0
 10
245.5704295220237
 20
1280.109871853347
 30
0.0
 10
245.9664263766238
 20
1280.232000989947
 30
0.0
 10
246.7183064733238
 20
1280.487477425947
 30
0.0
 10
247.7662268690238
 20
1280.926694051648
 30
0.0
 10
248.6758067732237
 20
1281.401189728347
 30
0.0
 10
249.4376770167237
 20
1281.906135078648
 30
0.0
 10
250.0442898029237
 20
1282.437325407247
 30
0.0
 10
250.4890209418236
 20
1282.992161520448
 30
0.0
 10
250.7639026232237
 20
1283.568253617947
 30
0.0
 10
250.8262183605236
 20
1283.969166765947
 30
0.0
 10
250.8253711988236
 20
1284.160943734047
 30
0.0
  0
SPLINE
  5
A27
330
1F
100
AcDbEntity
  8
02___PRT_ALL_AXES
  6
Continuous
 62
     7
100
AcDbSpline
210
0.0
220
0.0
230
1.0
 70
     8
 71
     3
 72
    11
 73
     7
 74
     0
 42
0.000000001
 43
0.0000000001
 40
0.0
 40
0.0
 40
0.0
 40
0.0
 40
0.2446747193
 40
0.4965415941
 40
0.750152435
 40
1.0
 40
1.0
 40
1.0
 40
1.0
 10
207.4907591413239
 20
1301.918006291047
 30
0.0
 10
206.6890694522235
 20
1302.020220686547
 30
0.0
 10
205.0553643981238
 20
1302.177127481847
 30
0.0
 10
202.578342662724
 20
1302.275807811547
 30
0.0
 10
200.0825335572236
 20
1302.240354987447
 30
0.0
 10
198.4224629706236
 20
1302.126213812748
 30
0.0
 10
197.6011436907238
 20
1302.045601570047
 30
0.0
  0
SPLINE
  5
A28
330
1F
100
AcDbEntity
  8
0
  6
Continuous
 62
     7
100
AcDbSpline
210
0.0
220
0.0
230
1.0
 70
     8
 71
     3
 72
    13
 73
     9
 74
     0
 42
0.000000001
 43
0.0000000001
 40
0.0
 40
0.0
 40
0.0
 40
0.0
 40
0.0879388811
 40
0.187038542
 40
0.297429732
 40
0.4188687594
 40
0.6922054605
 40
1.0
 40
1.0
 40
1.0
 40
1.0
 10
181.7742598741238
 20
1294.823330326247
 30
0.0
 10
181.9612724355238
 20
1295.001269741647
 30
0.0
 10
182.3896848432237
 20
1295.347876023447
 30
0.0
 10
183.1294790022239
 20
1295.814149864247
 30
0.0
 10
183.9972999072233
 20
1296.253381420347
 30
0.0
 10
185.3690218009237
 20
1296.819707132548
 30
0.0
 10
187.3482391721236
 20
1297.416241229147
 30
0.0
 10
189.0229562435233
 20
1297.751927060847
 30
0.0
 10
189.9149578682236
 20
1297.895699766747
 30
0.0
  0
SPLINE
  5
A29
330
1F
100
AcDbEntity
  8
0
  6
Continuous
 62
     7
100
AcDbSpline
210
0.0
220
0.0
230
1.0
 70
     8
 71
     3
 72
     9
 73
     5
 74
     0
 42
0.000000001
 43
0.0000000001
 40
0.0
 40
0.0
 40
0.0
 40
0.0
 40
0.2521401014
 40
1.0
 40
1.0
 40
1.0
 40
1.0
 10
208.9051775263238
 20
1295.430887210847
 30
0.0
 10
208.8268036899237
 20
1295.431898385847
 30
0.0
 10
208.5159341422236
 20
1295.431670109847
 30
0.0
 10
208.2050358176236
 20
1295.414862617647
 30
0.0
 10
207.9736597097237
 20
1295.392234296048
 30
0.0
  0
SPLINE
  5
A2A
330
1F
100
AcDbEntity
  8
0
  6
Continuous
 62
     7
100
AcDbSpline
210
0.0
220
0.0
230
1.0
 70
     8
 71
     3
 72
    19
 73
    15
 74
     0
 42
0.000000001
 43
0.0000000001
 40
0.0
 40
0.0
 40
0.0
 40
0.0
 40
0.1727108995
 40
0.3407322482
 40
0.4981475888000002
 40
0.6396477416
 40
0.7030913224999999
 40
0.7611065869
 40
0.8134570525
 40
0.8600894266999999
 40
0.9012150488999999
 40
0.9374157171
 40
0.9697803096999999
 40
1.0
 40
1.0
 40
1.0
 40
1.0
 10
232.0534644219238
 20
1295.132229276247
 30
0.0
 10
231.0099637392236
 20
1295.145692465147
 30
0.0
 10
228.9496662249237
 20
1295.100697926947
 30
0.0
 10
225.9498201888237
 20
1294.823234940748
 30
0.0
 10
223.1658229695238
 20
1294.347701075547
 30
0.0
 10
221.0451686879237
 20
1293.784980162147
 30
0.0
 10
219.5519926437237
 20
1293.238772706948
 30
0.0
 10
218.5925786465237
 20
1292.809026070848
 30
0.0
 10
217.7615666182237
 20
1292.348619254047
 30
0.0
 10
217.0667563788236
 20
1291.861491373748
 30
0.0
 10
216.5144785293237
 20
1291.351330988847
 30
0.0
 10
216.1103312181237
 20
1290.820482326747
 30
0.0
 10
215.8615597489236
 20
1290.271275613247
 30
0.0
 10
215.8053215579236
 20
1289.890955390647
 30
0.0
 10
215.8060956805236
 20
1289.708357716847
 30
0.0
  0
SPLINE
  5
A2B
330
1F
100
AcDbEntity
  8
0
  6
Continuous
 62
     7
100
AcDbSpline
210
0.0
220
0.0
230
1.0
 70
     8
 71
     3
 72
     8
 73
     4
 74
     0
 42
0.000000001
 43
0.0000000001
 40
0.0
 40
0.0
 40
0.0
 40
0.0
 40
1.0
 40
1.0
 40
1.0
 40
1.0
 10
181.168387202124
 20
1295.034107676947
 30
0.0
 10
181.1682818432236
 20
1295.058534164647
 30
0.0
 10
181.1706230145237
 20
1295.082981935447
 30
0.0
 10
181.1740243598237
 20
1295.107170677747
 30
0.0
  0
SPLINE
  5
A2C
330
1F
100
AcDbEntity
  8
0
  6
Continuous
 62
     7
100
AcDbSpline
210
0.0
220
0.0
230
1.0
 70
     8
 71
     3
 72
    14
 73
    10
 74
     0
 42
0.000000001
 43
0.0000000001
 40
0.0
 40
0.0
 40
0.0
 40
0.0
 40
0.12509887
 40
0.1898931284
 40
0.2545172464999999
 40
0.3826596038
 40
0.5093117721000002
 40
0.7578786441
 40
1.0
 40
1.0
 40
1.0
 40
1.0
 10
191.005642829924
 20
1298.523869545547
 30
0.0
 10
191.0058803608235
 20
1298.468800205448
 30
0.0
 10
190.9661849261238
 20
1298.386574020147
 30
0.0
 10
190.8907042550235
 20
1298.304774605547
 30
0.0
 10
190.8041141412236
 20
1298.230868634747
 30
0.0
 10
190.6856063690238
 20
1298.154438501147
 30
0.0
 10
190.4874892432235
 20
1298.054608844547
 30
0.0
 10
190.2312480254236
 20
1297.961402799748
 30
0.0
 10
190.0201841920234
 20
1297.912660131848
 30
0.0
 10
189.9149578682236
 20
1297.895699766747
 30
0.0
  0
SPLINE
  5
A2D
330
1F
100
AcDbEntity
  8
0
  6
Continuous
 62
     7
100
AcDbSpline
210
0.0
220
0.0
230
1.0
 70
     8
 71
     3
 72
    10
 73
     6
 74
     0
 42
0.000000001
 43
0.0000000001
 40
0.0
 40
0.0
 40
0.0
 40
0.0
 40
0.1591230798
 40
0.4049081511
 40
1.0
 40
1.0
 40
1.0
 40
1.0
 10
183.7150642990236
 20
1297.975690455247
 30
0.0
 10
183.7197744148234
 20
1298.009446229847
 30
0.0
 10
183.7257265049238
 20
1298.096081087147
 30
0.0
 10
183.7353995970234
 20
1298.309990146347
 30
0.0
 10
183.737704418224
 20
1298.490184781448
 30
0.0
 10
183.7371546338236
 20
1298.617647183747
 30
0.0
  0
SPLINE
  5
A2E
330
1F
100
AcDbEntity
  8
02___PRT_ALL_AXES
  6
Continuous
 62
     7
100
AcDbSpline
210
0.0
220
0.0
230
1.0
 70
     8
 71
     3
 72
    30
 73
    26
 74
     0
 42
0.000000001
 43
0.0000000001
 40
0.0
 40
0.0
 40
0.0
 40
0.0
 40
0.0151628053
 40
0.0313121185
 40
0.0492338738
 40
0.0694621649
 40
0.0922918364
 40
0.1178503865
 40
0.1461381318
 40
0.1770707896
 40
0.2461799845
 40
0.3234291641
 40
0.4065006326
 40
0.4927484826
 40
0.5793601378000001
 40
0.6635044954
 40
0.742478673
 40
0.8138643073999999
 40
0.8757149093999998
 40
0.9026749821999999
 40
0.9268929956
 40
0.948425057
 40
0.9674772512
 40
0.9844549187
 40
1.0
 40
1.0
 40
1.0
 40
1.0
 10
246.0898457780236
 20
1281.360979473848
 30
0.0
 10
246.0890648675236
 20
1281.504188666048
 30
0.0
 10
246.0446195014238
 20
1281.801103338847
 30
0.0
 10
245.8549913182237
 20
1282.230499935548
 30
0.0
 10
245.5486359186236
 20
1282.645881329947
 30
0.0
 10
245.1306296431237
 20
1283.045246448948
 30
0.0
 10
244.6051467716236
 20
1283.427137584048
 30
0.0
 10
243.9764584759237
 20
1283.788773261447
 30
0.0
 10
243.2500171192237
 20
1284.127517804047
 30
0.0
 10
242.1170489503238
 20
1284.560474342048
 30
0.0
 10
240.5010236703238
 20
1285.012385463947
 30
0.0
 10
238.3677599757236
 20
1285.405228408047
 30
0.0
 10
236.0498888642237
 20
1285.651295800647
 30
0.0
 10
233.6325389880236
 20
1285.741112991047
 30
0.0
 10
231.2043717575236
 20
1285.671114362948
 30
0.0
 10
228.8547610858236
 20
1285.444005548547
 30
0.0
 10
226.6694420946237
 20
1285.068673750547
 30
0.0
 10
224.7282106736236
 20
1284.559490439648
 30
0.0
 10
223.3100570155236
 20
1284.017873527047
 30
0.0
 10
222.3642178192238
 20
1283.520161526847
 30
0.0
 10
221.7886108280236
 20
1283.143254505548
 30
0.0
 10
221.3185260428236
 20
1282.748529546648
 30
0.0
 10
220.9580212826236
 20
1282.337947356547
 30
0.0
 10
220.7117629413237
 20
1281.913460064547
 30
0.0
 10
220.6252454899236
 20
1281.614348616247
 30
0.0
 10
220.6049552555237
 20
1281.468935509347
 30
0.0
  0
SPLINE
  5
A2F
330
1F
100
AcDbEntity
  8
0
  6
Continuous
 62
     7
100
AcDbSpline
210
0.0
220
0.0
230
1.0
 70
     8
 71
     3
 72
    13
 73
     9
 74
     0
 42
0.000000001
 43
0.0000000001
 40
0.0
 40
0.0
 40
0.0
 40
0.0
 40
0.0939348768
 40
0.2177410859
 40
0.5186338236
 40
0.8083500297
 40
0.9197988026
 40
1.0
 40
1.0
 40
1.0
 40
1.0
 10
183.8882462785236
 20
1285.957332365747
 30
0.0
 10
183.8642853385236
 20
1285.976976849447
 30
0.0
 10
183.7987586871236
 20
1286.009548499647
 30
0.0
 10
183.6334595689236
 20
1286.054632633347
 30
0.0
 10
183.3963280537236
 20
1286.069908059047
 30
0.0
 10
183.1634694131235
 20
1286.043058996648
 30
0.0
 10
183.0140870133236
 20
1285.988994333947
 30
0.0
 10
182.9599956058236
 20
1285.952119571347
 30
0.0
 10
182.943933929424
 20
1285.931099232747
 30
0.0
  0
SPLINE
  5
A30
330
1F
100
AcDbEntity
  8
0
  6
Continuous
 62
     7
100
AcDbSpline
210
0.0
220
0.0
230
1.0
 70
     8
 71
     3
 72
    18
 73
    14
 74
     0
 42
0.000000001
 43
0.0000000001
 40
0.0
 40
0.0
 40
0.0
 40
0.0
 40
0.1633928237
 40
0.3124243182
 40
0.4479738926
 40
0.5703267368000002
 40
0.6791037976000001
 40
0.7730769173000001
 40
0.8142426022
 40
0.8526150079
 40
0.8967795276999998
 40
0.9332555480999999
 40
1.0
 40
1.0
 40
1.0
 40
1.0
 10
181.7742598741238
 20
1294.823330326247
 30
0.0
 10
181.7428766169236
 20
1294.793469666647
 30
0.0
 10
181.6816527978235
 20
1294.737636012447
 30
0.0
 10
181.5906384472237
 20
1294.661275084247
 30
0.0
 10
181.5051072174237
 20
1294.595481957247
 30
0.0
 10
181.4251676310236
 20
1294.539991391447
 30
0.0
 10
181.351178523224
 20
1294.495862990647
 30
0.0
 10
181.2918287915236
 20
1294.468763457347
 30
0.0
 10
181.2467449404239
 20
1294.459147136547
 30
0.0
 10
181.2128826598236
 20
1294.460944000747
 30
0.0
 10
181.1864270135238
 20
1294.482448492648
 30
0.0
 10
181.1724533576234
 20
1294.519653576347
 30
0.0
 10
181.1704870760236
 20
1294.547271401547
 30
0.0
 10
181.1704107503237
 20
1294.564966797548
 30
0.0
  0
SPLINE
  5
A31
330
1F
100
AcDbEntity
  8
0
  6
Continuous
 62
     7
100
AcDbSpline
210
0.0
220
0.0
230
1.0
 70
     8
 71
     3
 72
    11
 73
     7
 74
     0
 42
0.000000001
 43
0.0000000001
 40
0.0
 40
0.0
 40
0.0
 40
0.0
 40
0.2565441697
 40
0.5101135325000002
 40
0.757779199
 40
1.0
 40
1.0
 40
1.0
 40
1.0
 10
182.1444804131238
 20
1297.476573147647
 30
0.0
 10
182.0794710545238
 20
1297.477411894847
 30
0.0
 10
181.9492783132236
 20
1297.503198298447
 30
0.0
 10
181.7834204367236
 20
1297.608469076547
 30
0.0
 10
181.6706583257237
 20
1297.765350024147
 30
0.0
 10
181.6433075513237
 20
1297.890773145347
 30
0.0
 10
181.6430427821236
 20
1297.952157440347
 30
0.0
  0
SPLINE
  5
A32
330
1F
100
AcDbEntity
  8
0
  6
Continuous
 62
     7
100
AcDbSpline
210
0.0
220
0.0
230
1.0
 70
     8
 71
     3
 72
    17
 73
    13
 74
     0
 42
0.000000001
 43
0.0000000001
 40
0.0
 40
0.0
 40
0.0
 40
0.0
 40
0.1626920571
 40
0.3220247994
 40
0.4735355783000001
 40
0.6130998172
 40
0.7372197032
 40
0.7926701986
 40
0.8434060779000001
 40
0.8893443625999999
 40
0.9305637403
 40
1.0
 40
1.0
 40
1.0
 40
1.0
 10
232.0777470005237
 20
1289.502538723547
 30
0.0
 10
231.1488197247236
 20
1289.514523692547
 30
0.0
 10
229.3088898653236
 20
1289.481270653247
 30
0.0
 10
226.6119405325237
 20
1289.263493665247
 30
0.0
 10
224.0656989152237
 20
1288.885314845448
 30
0.0
 10
221.7514843021236
 20
1288.359221406647
 30
0.0
 10
220.0151820013236
 20
1287.793115994048
 30
0.0
 10
218.8079138480237
 20
1287.269091417447
 30
0.0
 10
218.0376639182236
 20
1286.865927467647
 30
0.0
 10
217.3730814957237
 20
1286.440182604547
 30
0.0
 10
216.6764926642236
 20
1285.880338961847
 30
0.0
 10
216.2566488454238
 20
1285.386640556847
 30
0.0
 10
216.0742577084236
 20
1285.034586812247
 30
0.0
  0
SPLINE
  5
A33
330
1F
100
AcDbEntity
  8
02___PRT_ALL_AXES
  6
Continuous
 62
     7
100
AcDbSpline
210
0.0
220
0.0
230
1.0
 70
     8
 71
     3
 72
    30
 73
    26
 74
     0
 42
0.000000001
 43
0.0000000001
 40
0.0
 40
0.0
 40
0.0
 40
0.0
 40
0.0151626679
 40
0.0313106315
 40
0.0492317024
 40
0.0694591922
 40
0.0922883674
 40
0.1178453761
 40
0.1461331121
 40
0.1770643235
 40
0.2461728716
 40
0.3234218768
 40
0.4064933936
 40
0.4927416128
 40
0.579354119
 40
0.6634997056000001
 40
0.7424750765000001
 40
0.8138616632999998
 40
0.8757130743000001
 40
0.9026738973
 40
0.926891904
 40
0.9484249681999996
 40
0.967476644
 40
0.9844538527999999
 40
1.0
 40
1.0
 40
1.0
 40
1.0
 10
246.0777114747236
 20
1284.175648685147
 30
0.0
 10
246.0769534354238
 20
1284.318857636947
 30
0.0
 10
246.0325501469238
 20
1284.615768860147
 30
0.0
 10
245.8429515859236
 20
1285.045160613147
 30
0.0
 10
245.5366432020237
 20
1285.460544443747
 30
0.0
 10
245.1186945639238
 20
1285.859951246147
 30
0.0
 10
244.5932223975237
 20
1286.241819647947
 30
0.0
 10
243.9645826218237
 20
1286.603508726847
 30
0.0
 10
243.2381516502237
 20
1286.942223998047
 30
0.0
 10
242.1052251726237
 20
1287.375251520248
 30
0.0
 10
240.4892027907238
 20
1287.827150526147
 30
0.0
 10
238.3559402213236
 20
1288.220023753947
 30
0.0
 10
236.0380525168237
 20
1288.466109622747
 30
0.0
 10
233.6206761956237
 20
1288.555953046947
 30
0.0
 10
231.1924693016238
 20
1288.485978043347
 30
0.0
 10
228.8428096566238
 20
1288.258888848247
 30
0.0
 10
226.6574442418237
 20
1287.883558476147
 30
0.0
 10
224.7161660668237
 20
1287.374381081447
 30
0.0
 10
223.2979923469236
 20
1286.832733544047
 30
0.0
 10
222.3521103881237
 20
1286.335052633247
 30
0.0
 10
221.7765030255236
 20
1285.958109311447
 30
0.0
 10
221.3063957962238
 20
1285.563396321847
 30
0.0
 10
220.9459011917236
 20
1285.152803230448
 30
0.0
 10
220.6996045853236
 20
1284.728331583347
 30
0.0
 10
220.6131057243238
 20
1284.429204812047
 30
0.0
 10
220.5928139663238
 20
1284.283780785647
 30
0.0
  0
SPLINE
  5
A34
330
1F
100
AcDbEntity
  8
0
  6
Continuous
 62
     7
100
AcDbSpline
210
0.0
220
0.0
230
1.0
 70
     8
 71
     3
 72
     8
 73
     4
 74
     0
 42
0.000000001
 43
0.0000000001
 40
0.0
 40
0.0
 40
0.0
 40
0.0
 40
1.0
 40
1.0
 40
1.0
 40
1.0
 10
181.6410192339235
 20
1298.421298319748
 30
0.0
 10
181.6434629784234
 20
1298.438811794147
 30
0.0
 10
181.6478581991237
 20
1298.456131401547
 30
0.0
 10
181.6538112841235
 20
1298.472782361147
 30
0.0
  0
SPLINE
  5
A35
330
1F
100
AcDbEntity
  8
0
  6
Continuous
 62
     7
100
AcDbSpline
210
0.0
220
0.0
230
1.0
 70
     8
 71
     3
 72
     9
 73
     5
 74
     0
 42
0.000000001
 43
0.0000000001
 40
0.0
 40
0.0
 40
0.0
 40
0.0
 40
0.2315078951
 40
1.0
 40
1.0
 40
1.0
 40
1.0
 10
181.6538112841235
 20
1298.472782361147
 30
0.0
 10
181.6577196241237
 20
1298.483714106947
 30
0.0
 10
181.6775290565238
 20
1298.529895955447
 30
0.0
 10
181.7079220948235
 20
1298.571006390347
 30
0.0
 10
181.7340522442236
 20
1298.599332232447
 30
0.0
  0
SPLINE
  5
A36
330
1F
100
AcDbEntity
  8
0
  6
Continuous
 62
     7
100
AcDbSpline
210
0.0
220
0.0
230
1.0
 70
     8
 71
     3
 72
    12
 73
     8
 74
     0
 42
0.000000001
 43
0.0000000001
 40
0.0
 40
0.0
 40
0.0
 40
0.0
 40
0.0776926547
 40
0.1718197982
 40
0.4071084820000002
 40
0.6914095812000002
 40
1.0
 40
1.0
 40
1.0
 40
1.0
 10
181.7340522442236
 20
1298.599332232447
 30
0.0
 10
181.7709209322238
 20
1298.639298962847
 30
0.0
 10
181.8656763558236
 20
1298.715392639548
 30
0.0
 10
182.1168574825237
 20
1298.851540834148
 30
0.0
 10
182.5301337007236
 20
1298.980536916747
 30
0.0
 10
183.1034151747235
 20
1299.072140397848
 30
0.0
 10
183.5191749526238
 20
1299.089574317447
 30
0.0
 10
183.7351310817239
 20
1299.086788063148
 30
0.0
  0
SPLINE
  5
A37
330
1F
100
AcDbEntity
  8
0
  6
Continuous
 62
     7
100
AcDbSpline
210
0.0
220
0.0
230
1.0
 70
     8
 71
     3
 72
     9
 73
     5
 74
     0
 42
0.000000001
 43
0.0000000001
 40
0.0
 40
0.0
 40
0.0
 40
0.0
 40
0.260388103
 40
1.0
 40
1.0
 40
1.0
 40
1.0
 10
216.0823519013236
 20
1283.158023294747
 30
0.0
 10
216.0533020507237
 20
1283.101950895348
 30
0.0
 10
215.9497435669237
 20
1282.882647547147
 30
0.0
 10
215.8812632595236
 20
1282.646083090047
 30
0.0
 10
215.8564743726238
 20
1282.468429693947
 30
0.0
  0
SPLINE
  5
A38
330
1F
100
AcDbEntity
  8
0
  6
Continuous
 62
     7
100
AcDbSpline
210
0.0
220
0.0
230
1.0
 70
     8
 71
     3
 72
    14
 73
    10
 74
     0
 42
0.000000001
 43
0.0000000001
 40
0.0
 40
0.0
 40
0.0
 40
0.0
 40
0.33668206
 40
0.4931011709000001
 40
0.6347597550000002
 40
0.7575633222000002
 40
0.8110718438999999
 40
0.8590922251
 40
1.0
 40
1.0
 40
1.0
 40
1.0
 10
183.7371546299237
 20
1298.617647183847
 30
0.0
 10
183.4794926147237
 20
1298.620971525147
 30
0.0
 10
183.100941566624
 20
1298.601460196147
 30
0.0
 10
182.6211872494236
 20
1298.522653726447
 30
0.0
 10
182.3084911851236
 20
1298.442932655647
 30
0.0
 10
182.0800657740237
 20
1298.357747088747
 30
0.0
 10
181.9268240328238
 20
1298.278416415547
 30
0.0
 10
181.7725941747239
 20
1298.179812139347
 30
0.0
 10
181.6579466085236
 20
1298.058968024047
 30
0.0
 10
181.6430427821236
 20
1297.952157440347
 30
0.0
  0
SPLINE
  5
A39
330
1F
100
AcDbEntity
  8
0
  6
Continuous
 62
     7
100
AcDbSpline
210
0.0
220
0.0
230
1.0
 70
     8
 71
     3
 72
     9
 73
     5
 74
     0
 42
0.000000001
 43
0.0000000001
 40
0.0
 40
0.0
 40
0.0
 40
0.0
 40
0.2712546498
 40
1.0
 40
1.0
 40
1.0
 40
1.0
 10
182.943933929424
 20
1285.931099232747
 30
0.0
 10
182.9352172453236
 20
1285.919691478848
 30
0.0
 10
182.9051642098238
 20
1285.876191530847
 30
0.0
 10
182.8848443079237
 20
1285.825206593848
 30
0.0
 10
182.8795140007237
 20
1285.787006121748
 30
0.0
  0
SPLINE
  5
A3A
330
1F
100
AcDbEntity
  8
0
  6
Continuous
 62
     7
100
AcDbSpline
210
0.0
220
0.0
230
1.0
 70
     8
 71
     3
 72
    14
 73
    10
 74
     0
 42
0.000000001
 43
0.0000000001
 40
0.0
 40
0.0
 40
0.0
 40
0.0
 40
0.2529677871
 40
0.378666958
 40
0.5036950192000002
 40
0.62793155
 40
0.7512535286
 40
0.8741264804
 40
1.0
 40
1.0
 40
1.0
 40
1.0
 10
190.2644330476237
 20
1299.329462363048
 30
0.0
 10
190.3381925339236
 20
1299.328494370848
 30
0.0
 10
190.4487248028235
 20
1299.320941894647
 30
0.0
 10
190.5935867299236
 20
1299.296014509947
 30
0.0
 10
190.6995923994236
 20
1299.268643490247
 30
0.0
 10
190.8016744040237
 20
1299.230559426847
 30
0.0
 10
190.8963626846234
 20
1299.177613363047
 30
0.0
 10
190.9778450784238
 20
1299.103039011447
 30
0.0
 10
191.0034609635236
 20
1299.029715016347
 30
0.0
 10
191.0036192816237
 20
1298.993010424947
 30
0.0
  0
SPLINE
  5
A3B
330
1F
100
AcDbEntity
  8
0
  6
Continuous
 62
     7
100
AcDbSpline
210
0.0
220
0.0
230
1.0
 70
     8
 71
     3
 72
    13
 73
     9
 74
     0
 42
0.000000001
 43
0.0000000001
 40
0.0
 40
0.0
 40
0.0
 40
0.0
 40
0.3367155768
 40
0.493157879
 40
0.6348347839999999
 40
0.7576541001
 40
0.8590784854999997
 40
1.0
 40
1.0
 40
1.0
 40
1.0
 10
183.7150642990236
 20
1297.975690455247
 30
0.0
 10
183.5218213927237
 20
1297.978183664747
 30
0.0
 10
183.2379640025236
 20
1297.963621144747
 30
0.0
 10
182.878011746624
 20
1297.904340460247
 30
0.0
 10
182.6438285836238
 20
1297.844996202147
 30
0.0
 10
182.4456601480236
 20
1297.770126785747
 30
0.0
 10
182.2647307473235
 20
1297.671486323647
 30
0.0
 10
182.1556580519236
 20
1297.556679427348
 30
0.0
 10
182.1444804131238
 20
1297.476573147647
 30
0.0
  0
SPLINE
  5
A3C
330
1F
100
AcDbEntity
  8
02___PRT_ALL_AXES
  6
Continuous
 62
     7
100
AcDbSpline
210
0.0
220
0.0
230
1.0
 70
     8
 71
     3
 72
     9
 73
     5
 74
     0
 42
0.000000001
 43
0.0000000001
 40
0.0
 40
0.0
 40
0.0
 40
0.0
 40
0.4968447975000001
 40
1.0
 40
1.0
 40
1.0
 40
1.0
 10
197.6173320763237
 20
1298.292474534847
 30
0.0
 10
199.2463459885239
 20
1298.102494246447
 30
0.0
 10
202.5476225124239
 20
1297.901711924947
 30
0.0
 10
205.8524430434236
 20
1298.019437901347
 30
0.0
 10
207.5069475270238
 20
1298.164879255948
 30
0.0
  0
SPLINE
  5
A3D
330
1F
100
AcDbEntity
  8
0
  6
Continuous
 62
     7
100
AcDbSpline
210
0.0
220
0.0
230
1.0
 70
     8
 71
     3
 72
    14
 73
    10
 74
     0
 42
0.000000001
 43
0.0000000001
 40
0.0
 40
0.0
 40
0.0
 40
0.0
 40
0.0206080767
 40
0.0740254963
 40
0.1603774202
 40
0.2781101975
 40
0.4245536822
 40
0.5967606355
 40
1.0
 40
1.0
 40
1.0
 40
1.0
 10
183.7174674395237
 20
1299.413915133947
 30
0.0
 10
183.7197253088234
 20
1299.413932943447
 30
0.0
 10
183.722026174024
 20
1299.402828446247
 30
0.0
 10
183.7249176680234
 20
1299.388384384547
 30
0.0
 10
183.7275192400238
 20
1299.358698401148
 30
0.0
 10
183.7299648492235
 20
1299.321042375147
 30
0.0
 10
183.7319947106234
 20
1299.273019874848
 30
0.0
 10
183.7342261755239
 20
1299.194067370647
 30
0.0
 10
183.7349405163235
 20
1299.130968878947
 30
0.0
 10
183.7351310817239
 20
1299.086788063148
 30
0.0
  0
SPLINE
  5
A3E
330
1F
100
AcDbEntity
  8
02___PRT_ALL_AXES
  6
Continuous
 62
     7
100
AcDbSpline
210
0.0
220
0.0
230
1.0
 70
     8
 71
     3
 72
    11
 73
     7
 74
     0
 42
0.000000001
 43
0.0000000001
 40
0.0
 40
0.0
 40
0.0
 40
0.0
 40
0.2446747193
 40
0.4965415941
 40
0.750152435
 40
1.0
 40
1.0
 40
1.0
 40
1.0
 10
207.5069475270238
 20
1298.164879255948
 30
0.0
 10
206.7052578379235
 20
1298.267093651447
 30
0.0
 10
205.0715527837237
 20
1298.424000446747
 30
0.0
 10
202.594531048424
 20
1298.522680776347
 30
0.0
 10
200.0987219429235
 20
1298.487227952347
 30
0.0
 10
198.4386513563236
 20
1298.373086777647
 30
0.0
 10
197.6173320763237
 20
1298.292474534847
 30
0.0
  0
SPLINE
  5
A3F
330
1F
100
AcDbEntity
  8
0
  6
Continuous
 62
     7
100
AcDbSpline
210
0.0
220
0.0
230
1.0
 70
     8
 71
     3
 72
    19
 73
    15
 74
     0
 42
0.000000001
 43
0.0000000001
 40
0.0
 40
0.0
 40
0.0
 40
0.0
 40
0.1746396004
 40
0.3431414532999999
 40
0.5000511286
 40
0.6405394793000001
 40
0.7034367040000002
 40
0.7609534351000002
 40
0.8129019901999999
 40
0.8592807178000001
 40
0.900332777
 40
0.9366626925
 40
0.9693443528999999
 40
1.0
 40
1.0
 40
1.0
 40
1.0
 10
196.1593138214239
 20
1295.585562215947
 30
0.0
 10
195.1585057353236
 20
1295.577571325647
 30
0.0
 10
193.1919244765236
 20
1295.496485917447
 30
0.0
 10
190.3411130051236
 20
1295.181136126647
 30
0.0
 10
187.7147657742234
 20
1294.685286032748
 30
0.0
 10
185.7245551889236
 20
1294.119231189347
 30
0.0
 10
184.3292198352236
 20
1293.579181587448
 30
0.0
 10
183.4347787237238
 20
1293.157659457248
 30
0.0
 10
182.6612795712234
 20
1292.708509884147
 30
0.0
 10
182.0153552476235
 20
1292.235422172647
 30
0.0
 10
181.5026503078234
 20
1291.741469191548
 30
0.0
 10
181.1280681633234
 20
1291.228924779847
 30
0.0
 10
180.8981421253238
 20
1290.700104127147
 30
0.0
 10
180.8463725900237
 20
1290.335163930947
 30
0.0
 10
180.8471134113238
 20
1290.159481413547
 30
0.0
  0
SPLINE
  5
A40
330
1F
100
AcDbEntity
  8
0
  6
Continuous
 62
     7
100
AcDbSpline
210
0.0
220
0.0
230
1.0
 70
     8
 71
     3
 72
     9
 73
     5
 74
     0
 42
0.000000001
 43
0.0000000001
 40
0.0
 40
0.0
 40
0.0
 40
0.0
 40
0.2437394217
 40
1.0
 40
1.0
 40
1.0
 40
1.0
 10
197.2475562395239
 20
1295.523894908148
 30
0.0
 10
197.1596535201233
 20
1295.534943950247
 30
0.0
 10
196.7982038550235
 20
1295.573686258447
 30
0.0
 10
196.4341906689237
 20
1295.587756953147
 30
0.0
 10
196.1593138214239
 20
1295.585562215947
 30
0.0
  0
SPLINE
  5
A41
330
1F
100
AcDbEntity
  8
0
  6
Continuous
 62
     7
100
AcDbSpline
210
0.0
220
0.0
230
1.0
 70
     8
 71
     3
 72
    11
 73
     7
 74
     0
 42
0.000000001
 43
0.0000000001
 40
0.0
 40
0.0
 40
0.0
 40
0.0
 40
0.244843444
 40
0.4966969648
 40
0.7502156334000001
 40
1.0
 40
1.0
 40
1.0
 40
1.0
 10
197.2475562395239
 20
1295.523894908148
 30
0.0
 10
198.1178130229235
 20
1295.414506895047
 30
0.0
 10
199.8903912339237
 20
1295.246762797148
 30
0.0
 10
202.5771070726237
 20
1295.142059666648
 30
0.0
 10
205.2832621725238
 20
1295.181522945647
 30
0.0
 10
207.0831039077238
 20
1295.305138946448
 30
0.0
 10
207.9736597097237
 20
1295.392234296048
 30
0.0
  0
SPLINE
  5
A42
330
1F
100
AcDbEntity
  8
0
  6
Continuous
 62
     7
100
AcDbSpline
210
0.0
220
0.0
230
1.0
 70
     8
 71
     3
 72
    19
 73
    15
 74
     0
 42
0.000000001
 43
0.0000000001
 40
0.0
 40
0.0
 40
0.0
 40
0.0
 40
0.0309657506
 40
0.0638817215
 40
0.1003262558
 40
0.141361928
 40
0.187604075
 40
0.2393195727
 40
0.2965339184
 40
0.3590931865
 40
0.4989358907
 40
0.6554899453000002
 40
0.8242314156999999
 40
1.0
 40
1.0
 40
1.0
 40
1.0
 10
250.8253711988236
 20
1284.160943734047
 30
0.0
 10
250.8246149015239
 20
1284.332151184448
 30
0.0
 10
250.7725430979237
 20
1284.686748160247
 30
0.0
 10
250.5500156954238
 20
1285.200429847447
 30
0.0
 10
250.1897188387236
 20
1285.697912307447
 30
0.0
 10
249.6977887084238
 20
1286.176937951047
 30
0.0
 10
249.0787763867238
 20
1286.635409231647
 30
0.0
 10
248.3378525598237
 20
1287.070499808948
 30
0.0
 10
247.4810793875238
 20
1287.478900741447
 30
0.0
 10
246.1435655372236
 20
1288.002602563848
 30
0.0
 10
244.2323853865237
 20
1288.553047528647
 30
0.0
 10
241.7041754745237
 20
1289.038322283547
 30
0.0
 10
238.9492685038238
 20
1289.352181709447
 30
0.0
 10
237.0448003709237
 20
1289.438454071947
 30
0.0
 10
236.0730596628236
 20
1289.450991417547
 30
0.0
  0
LINE
  5
A43
330
1F
100
AcDbEntity
  8
02___PRT_ALL_AXES
  6
Continuous
 62
     7
100
AcDbLine
 10
206.2713328691234
 20
1181.262423445147
 30
0.0
 11
206.2713556037238
 21
1181.257050579847
 31
0.0
  0
SPLINE
  5
A44
330
1F
100
AcDbEntity
  8
02___PRT_ALL_AXES
  6
Continuous
 62
     7
100
AcDbSpline
210
0.0
220
0.0
230
1.0
 70
     8
 71
     3
 72
    11
 73
     7
 74
     0
 42
0.000000001
 43
0.0000000001
 40
0.0
 40
0.0
 40
0.0
 40
0.0
 40
0.2273207796
 40
0.4661706109000001
 40
0.7222595122
 40
1.0
 40
1.0
 40
1.0
 40
1.0
 10
261.2424455324237
 20
1181.913179456548
 30
0.0
 10
261.2140899615237
 20
1182.129260611947
 30
0.0
 10
261.1122125951238
 20
1182.567603450847
 30
0.0
 10
260.8357245823238
 20
1183.205866689047
 30
0.0
 10
260.4366244824237
 20
1183.833031819747
 30
0.0
 10
260.1051212917237
 20
1184.224927885247
 30
0.0
 10
259.9223590518236
 20
1184.418572942547
 30
0.0
  0
SPLINE
  5
A45
330
1F
100
AcDbEntity
  8
02___PRT_ALL_AXES
  6
Continuous
 62
     7
100
AcDbSpline
210
0.0
220
0.0
230
1.0
 70
     8
 71
     3
 72
    15
 73
    11
 74
     0
 42
0.000000001
 43
0.0000000001
 40
0.0
 40
0.0
 40
0.0
 40
0.0
 40
0.0791694141
 40
0.173421028
 40
0.2828017077
 40
0.4062843193
 40
0.5421356213000001
 40
0.6881294099
 40
0.8416893826999999
 40
1.0
 40
1.0
 40
1.0
 40
1.0
 10
259.9223590518236
 20
1184.418572942547
 30
0.0
 10
259.4675157724237
 20
1184.900500461647
 30
0.0
 10
258.3309094869237
 20
1185.823567310447
 30
0.0
 10
256.2650358288238
 20
1186.991800075148
 30
0.0
 10
253.7313322603236
 20
1188.044123311147
 30
0.0
 10
250.7799587684238
 20
1188.958108768948
 30
0.0
 10
247.4699517355237
 20
1189.715074972947
 30
0.0
 10
243.8702118587237
 20
1190.298321862347
 30
0.0
 10
240.0565043907236
 20
1190.695092638248
 30
0.0
 10
237.4480833250236
 20
1190.828296086847
 30
0.0
 10
236.1234156846237
 20
1190.862588214347
 30
0.0
  0
LINE
  5
A46
330
1F
100
AcDbEntity
  8
02___PRT_ALL_AXES
  6
Continuous
 62
     7
100
AcDbLine
 10
207.6127238116237
 20
1184.212563470548
 30
0.0
 11
207.5962259671237
 21
1184.194849603247
 31
0.0
  0
SPLINE
  5
A47
330
1F
100
AcDbEntity
  8
02___PRT_ALL_AXES
  6
Continuous
 62
     7
100
AcDbSpline
210
0.0
220
0.0
230
1.0
 70
     8
 71
     3
 72
     9
 73
     5
 74
     0
 42
0.000000001
 43
0.0000000001
 40
0.0
 40
0.0
 40
0.0
 40
0.0
 40
0.5200975865
 40
1.0
 40
1.0
 40
1.0
 40
1.0
 10
207.0791034377235
 20
1183.564629147147
 30
0.0
 10
206.9058967095234
 20
1183.322322103147
 30
0.0
 10
206.6087633017237
 20
1182.828733101547
 30
0.0
 10
206.4158862445238
 20
1182.284023328647
 30
0.0
 10
206.3552066139237
 20
1182.015976864748
 30
0.0
  0
SPLINE
  5
A48
330
1F
100
AcDbEntity
  8
02___PRT_ALL_AXES
  6
Continuous
 62
     7
100
AcDbSpline
210
0.0
220
0.0
230
1.0
 70
     8
 71
     3
 72
     9
 73
     5
 74
     0
 42
0.000000001
 43
0.0000000001
 40
0.0
 40
0.0
 40
0.0
 40
0.0
 40
0.2478323847
 40
1.0
 40
1.0
 40
1.0
 40
1.0
 10
261.9065022004238
 20
1265.945577422948
 30
0.0
 10
261.9061759058236
 20
1266.022079822647
 30
0.0
 10
261.8945243574237
 20
1266.330665976247
 30
0.0
 10
261.8407156865237
 20
1266.637412254548
 30
0.0
 10
261.7792556864237
 20
1266.861316019947
 30
0.0
  0
SPLINE
  5
A49
330
1F
100
AcDbEntity
  8
02___PRT_ALL_AXES
  6
Continuous
 62
     7
100
AcDbSpline
210
0.0
220
0.0
230
1.0
 70
     8
 71
     3
 72
     9
 73
     5
 74
     0
 42
0.000000001
 43
0.0000000001
 40
0.0
 40
0.0
 40
0.0
 40
0.0
 40
0.2478323847
 40
1.0
 40
1.0
 40
1.0
 40
1.0
 10
205.2713193924237
 20
1181.255023189147
 30
0.0
 10
205.2716456870239
 20
1181.178520789448
 30
0.0
 10
205.2832972354236
 20
1180.869934635747
 30
0.0
 10
205.3371059064239
 20
1180.563188357547
 30
0.0
 10
205.3985659064238
 20
1180.339284592147
 30
0.0
  0
SPLINE
  5
A4A
330
1F
100
AcDbEntity
  8
02___PRT_ALL_AXES
  6
Continuous
 62
     7
100
AcDbSpline
210
0.0
220
0.0
230
1.0
 70
     8
 71
     3
 72
    20
 73
    16
 74
     0
 42
0.000000001
 43
0.0000000001
 40
0.0
 40
0.0
 40
0.0
 40
0.0
 40
0.1727022121
 40
0.3407187599
 40
0.4981252901000002
 40
0.5711781772000001
 40
0.6396674155
 40
0.7031076332
 40
0.7611209005
 40
0.8134675749999999
 40
0.8600972108
 40
0.9012209221
 40
0.9374189726999999
 40
0.9697817743999999
 40
1.0
 40
1.0
 40
1.0
 40
1.0
 10
235.1455212482238
 20
1191.228124560548
 30
0.0
 10
233.2268193227237
 20
1191.252879548047
 30
0.0
 10
229.4383519691237
 20
1191.170180792347
 30
0.0
 10
223.9229885162238
 20
1190.659831305647
 30
0.0
 10
219.5528037675237
 20
1189.914167859247
 30
0.0
 10
216.3247120634237
 20
1189.126657186547
 30
0.0
 10
214.1419830872237
 20
1188.472292799147
 30
0.0
 10
212.1587715176238
 20
1187.746452042447
 30
0.0
 10
210.3946547204237
 20
1186.956388614047
 30
0.0
 10
208.8667014467237
 20
1186.109751542548
 30
0.0
 10
207.5891718274238
 20
1185.214057913948
 30
0.0
 10
206.5736802563238
 20
1184.276035906947
 30
0.0
 10
205.8306454097237
 20
1183.299909681647
 30
0.0
 10
205.3732394042236
 20
1182.290077500447
 30
0.0
 10
205.2698873839235
 20
1181.590769123948
 30
0.0
 10
205.2713193924237
 20
1181.255023189147
 30
0.0
  0
SPLINE
  5
A4B
330
1F
100
AcDbEntity
  8
02___PRT_ALL_AXES
  6
Continuous
 62
     7
100
AcDbSpline
210
0.0
220
0.0
230
1.0
 70
     8
 71
     3
 72
    32
 73
    28
 74
     0
 42
0.000000001
 43
0.0000000001
 40
0.0
 40
0.0
 40
0.0
 40
0.0
 40
0.0151613637
 40
0.0313063234
 40
0.0492258186
 40
0.0694504085
 40
0.0922773626
 40
0.1178313415
 40
0.1461159999
 40
0.1770451109
 40
0.2104649356
 40
0.2461719583
 40
0.3234155509
 40
0.4064824514
 40
0.4927264966
 40
0.5793352957
 40
0.6634774970000002
 40
0.7424501020000001
 40
0.8138347768
 40
0.8460626544
 40
0.8757180136
 40
0.9026772634
 40
0.9268946155
 40
0.9484276768
 40
0.9674778384999999
 40
0.9844531712
 40
1.0
 40
1.0
 40
1.0
 40
1.0
 10
206.2713556037238
 20
1181.257050579847
 30
0.0
 10
206.2729145774238
 20
1180.948173787947
 30
0.0
 10
206.3685695282238
 20
1180.307798872747
 30
0.0
 10
206.7773649625237
 20
1179.381651031347
 30
0.0
 10
207.4379044264238
 20
1178.485734160447
 30
0.0
 10
208.3391475021238
 20
1177.624116253447
 30
0.0
 10
209.4724775706236
 20
1176.800532999247
 30
0.0
 10
210.8282409135236
 20
1176.020330105647
 30
0.0
 10
212.3949740309238
 20
1175.289751496047
 30
0.0
 10
214.1589413031236
 20
1174.615216610947
 30
0.0
 10
216.1043034911238
 20
1174.002716780447
 30
0.0
 10
218.9927238830237
 20
1173.257157029947
 30
0.0
 10
222.9254740667236
 20
1172.533576867947
 30
0.0
 10
227.9243859117237
 20
1172.002549333047
 30
0.0
 10
233.1385896746237
 20
1171.808748413647
 30
0.0
 10
238.3759186558236
 20
1171.959619355747
 30
0.0
 10
243.4442152956237
 20
1172.449331706947
 30
0.0
 10
248.1570751478237
 20
1173.259100296547
 30
0.0
 10
251.7621224211236
 20
1174.203317162947
 30
0.0
 10
254.3216271824237
 20
1175.113698350148
 30
0.0
 10
255.9851610193236
 20
1175.830774804347
 30
0.0
 10
257.4440563721237
 20
1176.598927484347
 30
0.0
 10
258.6856730286235
 20
1177.411829882647
 30
0.0
 10
259.6996604869237
 20
1178.263227652148
 30
0.0
 10
260.4771741695238
 20
1179.148837550847
 30
0.0
 10
261.0085267016236
 20
1180.064319116548
 30
0.0
 10
261.1950332687236
 20
1180.709538774047
 30
0.0
 10
261.2388046885237
 20
1181.023233431847
 30
0.0
  0
LINE
  5
A4C
330
1F
100
AcDbEntity
  8
02___PRT_ALL_AXES
  6
Continuous
 62
     7
100
AcDbLine
 10
262.2707408783238
 20
1181.500219132047
 30
0.0
 11
262.2707311723236
 21
1181.502336151647
 31
0.0
  0
SPLINE
  5
A4D
330
1F
100
AcDbEntity
  8
02___PRT_ALL_AXES
  6
Continuous
 62
     7
100
AcDbSpline
210
0.0
220
0.0
230
1.0
 70
     8
 71
     3
 72
    17
 73
    13
 74
     0
 42
0.000000001
 43
0.0000000001
 40
0.0
 40
0.0
 40
0.0
 40
0.0
 40
0.1563318107
 40
0.3094440482
 40
0.4560383157000001
 40
0.5929952649
 40
0.7175869169000002
 40
0.8276305906999999
 40
0.8767551831
 40
0.9218170225999999
 40
0.9628467650999999
 40
1.0
 40
1.0
 40
1.0
 40
1.0
 10
234.0693093929238
 20
1190.889082532248
 30
0.0
 10
232.6183229814237
 20
1190.888987440748
 30
0.0
 10
229.7455985901238
 20
1190.810690881547
 30
0.0
 10
225.5251869771237
 20
1190.460834827647
 30
0.0
 10
221.5103702412236
 20
1189.888285135447
 30
0.0
 10
217.8001525368236
 20
1189.107735063347
 30
0.0
 10
214.4862011169237
 20
1188.139290097947
 30
0.0
 10
212.0336748436236
 20
1187.162454047947
 30
0.0
 10
210.3486236386236
 20
1186.291183816247
 30
0.0
 10
209.2792630159238
 20
1185.631490693247
 30
0.0
 10
208.3622723513238
 20
1184.944878560247
 30
0.0
 10
207.8308543245237
 20
1184.447557763947
 30
0.0
 10
207.5962393978234
 20
1184.194837136048
 30
0.0
  0
SPLINE
  5
A4E
330
1F
100
AcDbEntity
  8
02___PRT_ALL_AXES
  6
Continuous
 62
     7
100
AcDbSpline
210
0.0
220
0.0
230
1.0
 70
     8
 71
     3
 72
     9
 73
     5
 74
     0
 42
0.000000001
 43
0.0000000001
 40
0.0
 40
0.0
 40
0.0
 40
0.0
 40
0.2584630102
 40
1.0
 40
1.0
 40
1.0
 40
1.0
 10
207.5962393978234
 20
1184.194837136048
 30
0.0
 10
207.546990443524
 20
1184.141787541947
 30
0.0
 10
207.3595228651238
 20
1183.933722458947
 30
0.0
 10
207.1848204902235
 20
1183.713993243047
 30
0.0
 10
207.0648082131238
 20
1183.544503441547
 30
0.0
  0
SPLINE
  5
A4F
330
1F
100
AcDbEntity
  8
02___PRT_ALL_AXES
  6
Continuous
 62
     7
100
AcDbSpline
210
0.0
220
0.0
230
1.0
 70
     8
 71
     3
 72
    11
 73
     7
 74
     0
 42
0.000000001
 43
0.0000000001
 40
0.0
 40
0.0
 40
0.0
 40
0.0
 40
0.2267645314
 40
0.4653585834000002
 40
0.7216328515
 40
1.0
 40
1.0
 40
1.0
 40
1.0
 10
261.2425154213238
 20
1181.913181390547
 30
0.0
 10
261.2136682734238
 20
1182.132771567347
 30
0.0
 10
261.1091879677238
 20
1182.578444666547
 30
0.0
 10
260.8250957219236
 20
1183.227038553047
 30
0.0
 10
260.4142082395238
 20
1183.863921700547
 30
0.0
 10
260.0731977468238
 20
1184.261423531647
 30
0.0
 10
259.8851432079237
 20
1184.457770601347
 30
0.0
  0
SPLINE
  5
A50
330
1F
100
AcDbEntity
  8
02___PRT_ALL_AXES
  6
Continuous
 62
     7
100
AcDbSpline
210
0.0
220
0.0
230
1.0
 70
     8
 71
     3
 72
    15
 73
    11
 74
     0
 42
0.000000001
 43
0.0000000001
 40
0.0
 40
0.0
 40
0.0
 40
0.0
 40
0.0794489943
 40
0.1739204763
 40
0.2834279087
 40
0.4069362913
 40
0.5427175985
 40
0.688563177
 40
0.8419057357999999
 40
1.0
 40
1.0
 40
1.0
 40
1.0
 10
259.8851432079237
 20
1184.457770601347
 30
0.0
 10
259.4261446268238
 20
1184.937009373947
 30
0.0
 10
258.2839786949237
 20
1185.854346412347
 30
0.0
 10
256.2142812563236
 20
1187.015843342948
 30
0.0
 10
253.6810226809237
 20
1188.061763697347
 30
0.0
 10
250.7341356688237
 20
1188.970010188847
 30
0.0
 10
247.4321674248238
 20
1189.722120608647
 30
0.0
 10
243.8434431300236
 20
1190.301574243847
 30
0.0
 10
240.0426537303238
 20
1190.695953459147
 30
0.0
 10
237.4434390652236
 20
1190.828370297147
 30
0.0
 10
236.1234186072236
 20
1190.862580527247
 30
0.0
  0
SPLINE
  5
A51
330
1F
100
AcDbEntity
  8
02___PRT_ALL_AXES
  6
Continuous
 62
     7
100
AcDbSpline
210
0.0
220
0.0
230
1.0
 70
     8
 71
     3
 72
    20
 73
    16
 74
     0
 42
0.000000001
 43
0.0000000001
 40
0.0
 40
0.0
 40
0.0
 40
0.0
 40
0.030970454
 40
0.0638882544
 40
0.1003318851
 40
0.1413695567
 40
0.1876121207
 40
0.2393277408
 40
0.2965404824
 40
0.3590971454
 40
0.426707765
 40
0.4989807921000002
 40
0.6555204743000002
 40
0.8242540624
 40
1.0
 40
1.0
 40
1.0
 40
1.0
 10
205.2713582007236
 20
1181.252906312247
 30
0.0
 10
205.2729173084235
 20
1180.938053902248
 30
0.0
 10
205.3686547380239
 20
1180.285983513647
 30
0.0
 10
205.7783070726237
 20
1179.341577530947
 30
0.0
 10
206.440942381224
 20
1178.426939339547
 30
0.0
 10
207.3456542539234
 20
1177.546291352447
 30
0.0
 10
208.4839489944236
 20
1176.703381033047
 30
0.0
 10
209.8463844369237
 20
1175.903494187647
 30
0.0
 10
211.4217759657238
 20
1175.152723033647
 30
0.0
 10
213.1967967855237
 20
1174.457485562747
 30
0.0
 10
215.1560259374237
 20
1173.823749137647
 30
0.0
 10
218.0691482415237
 20
1173.047936275047
 30
0.0
 10
222.0437823922237
 20
1172.285900450947
 30
0.0
 10
227.1083701628236
 20
1171.708759999547
 30
0.0
 10
230.6099941624236
 20
1171.550167665047
 30
0.0
 10
232.3965390225237
 20
1171.527117760647
 30
0.0
  0
SPLINE
  5
A52
330
1F
100
AcDbEntity
  8
02___PRT_ALL_AXES
  6
Continuous
 62
     7
100
AcDbSpline
210
0.0
220
0.0
230
1.0
 70
     8
 71
     3
 72
    20
 73
    16
 74
     0
 42
0.000000001
 43
0.0000000001
 40
0.0
 40
0.0
 40
0.0
 40
0.0
 40
0.1699318055
 40
0.3355830806
 40
0.4914432952000001
 40
0.5641405668
 40
0.6325968421
 40
0.6963438612
 40
0.7550024714
 40
0.8083100370999998
 40
0.8561591801999998
 40
0.8986478248
 40
0.9361645512999999
 40
0.9695156562000001
 40
1.0
 40
1.0
 40
1.0
 40
1.0
 10
232.3965390225237
 20
1171.527117760647
 30
0.0
 10
234.2567855252237
 20
1171.503116961847
 30
0.0
 10
237.9333080450237
 20
1171.579565895047
 30
0.0
 10
243.2962413430237
 20
1172.058228518047
 30
0.0
 10
247.5600833583237
 20
1172.759193500447
 30
0.0
 10
250.7273321949238
 20
1173.500022649047
 30
0.0
 10
252.8849185151237
 20
1174.117733934847
 30
0.0
 10
254.8597799618237
 20
1174.804244663947
 30
0.0
 10
256.6334594858239
 20
1175.553113234947
 30
0.0
 10
258.1896711676236
 20
1176.357376002147
 30
0.0
 10
259.5145526983237
 20
1177.210016734447
 30
0.0
 10
260.5966160857238
 20
1178.104394885747
 30
0.0
 10
261.4262755107236
 20
1179.035713858947
 30
0.0
 10
261.9930779257238
 20
1179.999434369447
 30
0.0
 10
262.1915111765236
 20
1180.679808461347
 30
0.0
 10
262.2376328541236
 20
1181.010346605347
 30
0.0
  0
SPLINE
  5
A53
330
1F
100
AcDbEntity
  8
02___PRT_ALL_AXES
  6
Continuous
 62
     7
100
AcDbSpline
210
0.0
220
0.0
230
1.0
 70
     8
 71
     3
 72
    20
 73
    16
 74
     0
 42
0.000000001
 43
0.0000000001
 40
0.0
 40
0.0
 40
0.0
 40
0.0
 40
0.030970454
 40
0.0638882544
 40
0.1003318851
 40
0.1413695567
 40
0.1876121207
 40
0.2393277408
 40
0.2965404824
 40
0.3590971454
 40
0.426707765
 40
0.4989807921000002
 40
0.6555204743000002
 40
0.8242540624
 40
1.0
 40
1.0
 40
1.0
 40
1.0
 10
261.9064633921237
 20
1265.947694299847
 30
0.0
 10
261.9049042844238
 20
1266.262546709847
 30
0.0
 10
261.8091668548236
 20
1266.914617098348
 30
0.0
 10
261.3995145202236
 20
1267.859023081147
 30
0.0
 10
260.7368792116238
 20
1268.773661272447
 30
0.0
 10
259.8321673389237
 20
1269.654309259548
 30
0.0
 10
258.6938725984237
 20
1270.497219579048
 30
0.0
 10
257.3314371559236
 20
1271.297106424347
 30
0.0
 10
255.7560456271237
 20
1272.047877578347
 30
0.0
 10
253.9810248074236
 20
1272.743115049247
 30
0.0
 10
252.0217956554236
 20
1273.376851474347
 30
0.0
 10
249.1086733513236
 20
1274.152664337047
 30
0.0
 10
245.1340392006236
 20
1274.914700161048
 30
0.0
 10
240.0694514300237
 20
1275.491840612547
 30
0.0
 10
236.5678274304237
 20
1275.650432947047
 30
0.0
 10
234.7812825703236
 20
1275.673482851347
 30
0.0
  0
SPLINE
  5
A54
330
1F
100
AcDbEntity
  8
02___PRT_ALL_AXES
  6
Continuous
 62
     7
100
AcDbSpline
210
0.0
220
0.0
230
1.0
 70
     8
 71
     3
 72
    20
 73
    16
 74
     0
 42
0.000000001
 43
0.0000000001
 40
0.0
 40
0.0
 40
0.0
 40
0.0
 40
0.1699318055
 40
0.3355830806
 40
0.4914432952000001
 40
0.5641405668
 40
0.6325968421
 40
0.6963438612
 40
0.7550024714
 40
0.8083100370999998
 40
0.8561591801999998
 40
0.8986478248
 40
0.9361645512999999
 40
0.9695156562000001
 40
1.0
 40
1.0
 40
1.0
 40
1.0
 10
234.7812825703236
 20
1275.673482851347
 30
0.0
 10
232.9210360676236
 20
1275.697483650248
 30
0.0
 10
229.2445135478238
 20
1275.621034716947
 30
0.0
 10
223.8815802498236
 20
1275.142372093947
 30
0.0
 10
219.6177382345236
 20
1274.441407111547
 30
0.0
 10
216.4504893979238
 20
1273.700577963048
 30
0.0
 10
214.2929030777235
 20
1273.082866677248
 30
0.0
 10
212.3180416310238
 20
1272.396355948147
 30
0.0
 10
210.5443621070238
 20
1271.647487377147
 30
0.0
 10
208.9881504252237
 20
1270.843224609847
 30
0.0
 10
207.6632688945238
 20
1269.990583877647
 30
0.0
 10
206.5812055072238
 20
1269.096205726248
 30
0.0
 10
205.7515460821237
 20
1268.164886753148
 30
0.0
 10
205.1847436671237
 20
1267.201166242647
 30
0.0
 10
204.9863104163237
 20
1266.520792150747
 30
0.0
 10
204.9401887387239
 20
1266.190254006647
 30
0.0
  0
LINE
  5
A55
330
1F
100
AcDbEntity
  8
02___PRT_ALL_AXES
  6
Continuous
 62
     7
100
AcDbLine
 10
206.2712992857237
 20
1181.258513881347
 30
0.0
 11
206.2713060434234
 21
1181.257050339647
 31
0.0
  0
SPLINE
  5
A56
330
1F
100
AcDbEntity
  8
02___PRT_ALL_AXES
  6
Continuous
 62
     7
100
AcDbSpline
210
0.0
220
0.0
230
1.0
 70
     8
 71
     3
 72
    33
 73
    29
 74
     0
 42
0.000000001
 43
0.0000000001
 40
0.0
 40
0.0
 40
0.0
 40
0.0
 40
0.015160771
 40
0.0313046125
 40
0.0492235647
 40
0.0694471361
 40
0.0922728834
 40
0.1178261109
 40
0.1461094575
 40
0.1770373955
 40
0.2104565307
 40
0.246162205
 40
0.3234041114
 40
0.4064690333
 40
0.4927114688000002
 40
0.5793188439
 40
0.6634600273000001
 40
0.7424316225
 40
0.7792173130000001
 40
0.8138369773999999
 40
0.8460648069999997
 40
0.8757197475999999
 40
0.9026784815
 40
0.9268957207999999
 40
0.9484285646
 40
0.9674783781
 40
0.9844529268
 40
1.0
 40
1.0
 40
1.0
 40
1.0
 10
262.2707020699236
 20
1181.502336008947
 30
0.0
 10
262.2691169544237
 20
1181.822440564648
 30
0.0
 10
262.1700215115236
 20
1182.486090151147
 30
0.0
 10
261.7464322182236
 20
1183.445923325847
 30
0.0
 10
261.0619302544237
 20
1184.374429538147
 30
0.0
 10
260.1279744403237
 20
1185.267403885047
 30
0.0
 10
258.9534828021237
 20
1186.120964648047
 30
0.0
 10
257.5484441880237
 20
1186.929527932047
 30
0.0
 10
255.9247831106236
 20
1187.686712204047
 30
0.0
 10
254.0966996784236
 20
1188.385806875247
 30
0.0
 10
252.0806059414237
 20
1189.020561635947
 30
0.0
 10
249.0871699255237
 20
1189.793305284447
 30
0.0
 10
245.0114060725236
 20
1190.543176474947
 30
0.0
 10
239.8306948805236
 20
1191.093595076947
 30
0.0
 10
234.4268816814238
 20
1191.294453449447
 30
0.0
 10
228.9989288055238
 20
1191.138133296447
 30
0.0
 10
223.7466996029236
 20
1190.630493134447
 30
0.0
 10
219.5817766120238
 20
1189.915584789448
 30
0.0
 10
216.4943097919238
 20
1189.170352524447
 30
0.0
 10
214.3940778013237
 20
1188.552779735947
 30
0.0
 10
212.4732502409238
 20
1187.869331384247
 30
0.0
 10
210.7491928851236
 20
1187.126226314147
 30
0.0
 10
209.2372368735237
 20
1186.330105310647
 30
0.0
 10
207.9504247737236
 20
1185.487674483947
 30
0.0
 10
206.8995661118238
 20
1184.605278771347
 30
0.0
 10
206.0937794985238
 20
1183.687467367347
 30
0.0
 10
205.5430588927238
 20
1182.738707981447
 30
0.0
 10
205.3497924056237
 20
1182.070010934247
 30
0.0
 10
205.3044274166236
 20
1181.744895715847
 30
0.0
  0
SPLINE
  5
A57
330
1F
100
AcDbEntity
  8
02___PRT_ALL_AXES
  6
Continuous
 62
     7
100
AcDbSpline
210
0.0
220
0.0
230
1.0
 70
     8
 71
     3
 72
    20
 73
    16
 74
     0
 42
0.000000001
 43
0.0000000001
 40
0.0
 40
0.0
 40
0.0
 40
0.0
 40
0.1727075813
 40
0.3407268311
 40
0.498136772
 40
0.5711895663000001
 40
0.6396788921000001
 40
0.7031191779000002
 40
0.7611305739000001
 40
0.8134752405
 40
0.8601036720999999
 40
0.9012246765999998
 40
0.9374199425
 40
0.9697817924999998
 40
1.0
 40
1.0
 40
1.0
 40
1.0
 10
232.4447667809236
 20
1171.872749458947
 30
0.0
 10
234.2962497407236
 20
1171.848861726847
 30
0.0
 10
237.9519678332238
 20
1171.928661342747
 30
0.0
 10
243.2740589552236
 20
1172.421187548547
 30
0.0
 10
247.4910749649236
 20
1173.140716692247
 30
0.0
 10
250.6059934404236
 20
1173.900709330648
 30
0.0
 10
252.7121755265237
 20
1174.532170921647
 30
0.0
 10
254.6258232781238
 20
1175.232579713147
 30
0.0
 10
256.3280066061236
 20
1175.995017454448
 30
0.0
 10
257.8022853157238
 20
1176.812032107148
 30
0.0
 10
259.0349373973236
 20
1177.676326183147
 30
0.0
 10
260.0146777868238
 20
1178.581525064547
 30
0.0
 10
260.7314223720237
 20
1179.523504985447
 30
0.0
 10
261.1726975741238
 20
1180.497943444947
 30
0.0
 10
261.2721825388237
 20
1181.172755319947
 30
0.0
 10
261.2707609850236
 20
1181.496728439847
 30
0.0
  0
SPLINE
  5
A58
330
1F
100
AcDbEntity
  8
0
  6
Continuous
100
AcDbSpline
210
0.0
220
0.0
230
1.0
 70
     8
 71
     3
 72
    16
 73
    12
 74
     0
 42
0.000000001
 43
0.0000000001
 40
0.0
 40
0.0
 40
0.0
 40
0.0
 40
0.0673920077
 40
0.1335353138
 40
0.1984302989
 40
0.2624062658
 40
0.3884577974
 40
0.5129174056
 40
0.636159887
 40
0.7583727835
 40
1.0
 40
1.0
 40
1.0
 40
1.0
 10
182.1227292146609
 20
1517.031703895223
 30
0.0
 10
182.1227292146609
 20
1517.003279080223
 30
0.0
 10
182.1105628201611
 20
1516.946568966623
 30
0.0
 10
182.0666406641612
 20
1516.874224126422
 30
0.0
 10
182.009397328261
 20
1516.814564178623
 30
0.0
 10
181.924289774161
 20
1516.748452681922
 30
0.0
 10
181.8075482553608
 20
1516.684006255323
 30
0.0
 10
181.6606320485606
 20
1516.626164270623
 30
0.0
 10
181.510319650461
 20
1516.583463658923
 30
0.0
 10
181.308580018861
 20
1516.543932999923
 30
0.0
 10
181.1547951935608
 20
1516.531703895223
 30
0.0
 10
181.0528808988611
 20
1516.531703895223
 30
0.0
  0
SPLINE
  5
A59
330
1F
100
AcDbEntity
  8
0
  6
Continuous
100
AcDbSpline
210
0.0
220
0.0
230
1.0
 70
     8
 71
     3
 72
    16
 73
    12
 74
     0
 42
0.000000001
 43
0.0000000001
 40
0.0
 40
0.0
 40
0.0
 40
0.0
 40
0.2416290048
 40
0.3638426653
 40
0.4870858628
 40
0.6115460924000002
 40
0.7375989286
 40
0.8015753118999999
 40
0.8664684573
 40
0.9326095541
 40
1.0
 40
1.0
 40
1.0
 40
1.0
 10
181.0528808988611
 20
1518.031703895223
 30
0.0
 10
181.1547959592608
 20
1518.031703895223
 30
0.0
 10
181.3085818881608
 20
1518.019474665023
 30
0.0
 10
181.510322845961
 20
1517.979943450723
 30
0.0
 10
181.6606360065607
 20
1517.937242197523
 30
0.0
 10
181.807553008261
 20
1517.879399039923
 30
0.0
 10
181.924295286261
 20
1517.814952287423
 30
0.0
 10
182.009402733961
 20
1517.748839978121
 30
0.0
 10
182.066640126161
 20
1517.689177253623
 30
0.0
 10
182.1105670585611
 20
1517.616837861023
 30
0.0
 10
182.1227292146609
 20
1517.560128054723
 30
0.0
 10
182.1227292146609
 20
1517.531703895223
 30
0.0
  0
LINE
  5
A5A
330
1F
100
AcDbEntity
  8
02___PRT_ALL_AXES
  6
Continuous
100
AcDbLine
 10
253.6457135572609
 20
1377.83877935188
 30
0.0
 11
196.6457135572609
 21
1377.83877935188
 31
0.0
  0
LINE
  5
A5B
330
1F
100
AcDbEntity
  8
02___PRT_ALL_AXES
  6
Continuous
100
AcDbLine
 10
181.7435753865138
 20
1488.031703895223
 30
0.0
 11
181.7435753865138
 21
1398.031703895223
 31
0.0
  0
LINE
  5
A5C
330
1F
100
AcDbEntity
  8
02___PRT_ALL_AXES
  6
Continuous
100
AcDbLine
 10
154.0341205801187
 20
1550.130288789402
 30
0.0
 11
154.0341205801187
 21
1396.500051491283
 31
0.0
  0
TEXT
  5
1207
330
1F
100
AcDbEntity
  8
231
 62
     0
100
AcDbText
 10
126.6333699041738
 20
1463.159426650597
 30
0.0
 40
12.0024
  1
151
  7
宋体
100
AcDbText
  0
TEXT
  5
1208
330
1F
100
AcDbEntity
  8
231
 62
     0
100
AcDbText
 10
162.8582229555669
 20
1436.358595316941
 30
0.0
 40
12.0024
  1
90
  7
宋体
100
AcDbText
  0
TEXT
  5
120A
330
1F
100
AcDbEntity
  8
231
 62
     0
100
AcDbText
 10
208.9813465555018
 20
1360.45133533492
 30
0.0
 40
12.0024
  1
∅
  7
MtXpl_ISOCPEUR
100
AcDbText
  0
TEXT
  5
120C
330
1F
100
AcDbEntity
  8
231
 62
     0
100
AcDbText
 10
219.7835065555018
 20
1360.45133533492
 30
0.0
 40
12.0024
  1
57
  7
宋体
100
AcDbText
  0
ENDSEC
  0
SECTION
  2
OBJECTS
  0
DICTIONARY
  5
C
330
0
100
AcDbDictionary
281
     1
  3
ACAD_CIP_PREVIOUS_PRODUCT_INFO
350
145
  3
ACAD_COLOR
350
6B
  3
ACAD_DETAILVIEWSTYLE
350
13F
  3
ACAD_GROUP
350
D
  3
ACAD_LAYOUT
350
1A
  3
ACAD_MATERIAL
350
6A
  3
ACAD_MLEADERSTYLE
350
13B
  3
ACAD_MLINESTYLE
350
17
  3
ACAD_PLOTSETTINGS
350
19
  3
ACAD_PLOTSTYLENAME
350
E
  3
ACAD_SCALELIST
350
129
  3
ACAD_SECTIONVIEWSTYLE
350
13D
  3
ACAD_TABLESTYLE
350
7E
  3
ACAD_VISUALSTYLE
350
F0
  3
ACDB_RECOMPOSE_DATA
350
121F
  3
AcDbVariableDictionary
350
5E
  0
DICTIONARY
  5
115E
330
8
100
AcDbDictionary
280
     1
281
     1
  0
DICTIONARY
  5
17F
330
2
100
AcDbDictionary
280
     1
281
     1
  3
ACAD_LAYERSTATES
360
180
  0
DICTIONARY
  5
1149
330
10
100
AcDbDictionary
280
     1
281
     1
  3
ADSK_XREC_LAYER_RECONCILED
360
114A
  0
DICTIONARY
  5
160
330
15F
100
AcDbDictionary
280
     1
281
     1
  3
ADSK_XREC_LAYER_RECONCILED
360
114B
  0
DICTIONARY
  5
162
330
161
100
AcDbDictionary
280
     1
281
     1
  0
DICTIONARY
  5
164
330
163
100
AcDbDictionary
280
     1
281
     1
  3
ADSK_XREC_LAYER_RECONCILED
360
114C
  0
DICTIONARY
  5
166
330
165
100
AcDbDictionary
280
     1
281
     1
  3
ADSK_XREC_LAYER_RECONCILED
360
114D
  0
DICTIONARY
  5
114E
330
167
100
AcDbDictionary
280
     1
281
     1
  3
ADSK_XREC_LAYER_RECONCILED
360
114F
  0
DICTIONARY
  5
1150
330
168
100
AcDbDictionary
280
     1
281
     1
  3
ADSK_XREC_LAYER_RECONCILED
360
1151
  0
DICTIONARY
  5
1152
330
169
100
AcDbDictionary
280
     1
281
     1
  3
ADSK_XREC_LAYER_RECONCILED
360
1153
  0
DICTIONARY
  5
1154
330
16A
100
AcDbDictionary
280
     1
281
     1
  3
ADSK_XREC_LAYER_RECONCILED
360
1155
  0
DICTIONARY
  5
1156
330
16B
100
AcDbDictionary
280
     1
281
     1
  3
ADSK_XREC_LAYER_RECONCILED
360
1157
  0
DICTIONARY
  5
1158
330
16C
100
AcDbDictionary
280
     1
281
     1
  3
ADSK_XREC_LAYER_RECONCILED
360
1159
  0
DICTIONARY
  5
1205
330
1F
100
AcDbDictionary
280
     1
281
     1
  3
ACAD_SORTENTS
360
1206
  0
XRECORD
  5
145
102
{ACAD_REACTORS
330
C
102
}
330
C
100
AcDbXrecord
280
     1
300
ACD
300
2022
300

  0
DICTIONARY
  5
6B
102
{ACAD_REACTORS
330
C
102
}
330
C
100
AcDbDictionary
281
     1
  0
DICTIONARY
  5
13F
102
{ACAD_REACTORS
330
C
102
}
330
C
100
AcDbDictionary
281
     1
  3
Metric50
350
140
  0
DICTIONARY
  5
D
102
{ACAD_REACTORS
330
C
102
}
330
C
100
AcDbDictionary
281
     1
  0
DICTIONARY
  5
1A
102
{ACAD_REACTORS
330
C
102
}
330
C
100
AcDbDictionary
281
     1
  3
Model
350
22
  3
布局1
350
D3
  3
布局2
350
D7
1001
AcadStringInfo
1000
MIFCodePage
1070
     5
  0
DICTIONARY
  5
6A
102
{ACAD_REACTORS
330
C
102
}
330
C
100
AcDbDictionary
281
     1
  3
ByBlock
350
EE
  3
ByLayer
350
ED
  3
Global
350
EF
  0
DICTIONARY
  5
13B
102
{ACAD_REACTORS
330
C
102
}
330
C
100
AcDbDictionary
281
     1
  3
Standard
350
13C
  0
DICTIONARY
  5
17
102
{ACAD_REACTORS
330
C
102
}
330
C
100
AcDbDictionary
281
     1
  3
Standard
350
18
  0
DICTIONARY
  5
19
102
{ACAD_REACTORS
330
C
102
}
330
C
100
AcDbDictionary
281
     1
  0
ACDBDICTIONARYWDFLT
  5
E
102
{ACAD_REACTORS
330
C
102
}
330
C
100
AcDbDictionary
281
     1
  3
Normal
350
F
100
AcDbDictionaryWithDefault
340
F
  0
DICTIONARY
  5
129
102
{ACAD_REACTORS
330
C
102
}
330
C
100
AcDbDictionary
281
     1
  3
A0
350
12A
  3
A1
350
12B
  3
A2
350
12C
  3
A3
350
12D
  3
A4
350
12E
  3
A5
350
12F
  3
A6
350
130
  3
A7
350
131
  3
A8
350
132
  3
A9
350
133
  3
B0
350
134
  3
B1
350
135
  3
B2
350
136
  3
B3
350
137
  3
B4
350
138
  3
B5
350
139
  3
B6
350
13A
  0
DICTIONARY
  5
13D
102
{ACAD_REACTORS
330
C
102
}
330
C
100
AcDbDictionary
281
     1
  3
Metric50
350
13E
  0
DICTIONARY
  5
7E
102
{ACAD_REACTORS
330
C
102
}
330
C
100
AcDbDictionary
281
     1
  3
Standard
350
7F
  0
DICTIONARY
  5
F0
102
{ACAD_REACTORS
330
C
102
}
330
C
100
AcDbDictionary
281
     1
  3
2dWireframe
350
F6
  3
3D Hidden
350
F8
  3
3dWireframe
350
F7
  3
Basic
350
F5
  3
Brighten
350
FC
  3
ColorChange
350
100
  3
Conceptual
350
F9
  3
Dim
350
FB
  3
EdgeColorOff
350
128
  3
Facepattern
350
FF
  3
Flat
350
F1
  3
FlatWithEdges
350
F2
  3
Gouraud
350
F3
  3
GouraudWithEdges
350
F4
  3
Hidden
350
120
  3
JitterOff
350
126
  3
Linepattern
350
FE
  3
OverhangOff
350
127
  3
Realistic
350
FA
  3
Shaded
350
125
  3
Shaded with edges
350
124
  3
Shades of Gray
350
121
  3
Sketchy
350
122
  3
Thicken
350
FD
  3
Wireframe
350
11F
  3
X-Ray
350
123
  0
XRECORD
  5
121F
102
{ACAD_REACTORS
330
C
102
}
330
C
100
AcDbXrecord
280
     1
 90
        1
330
7F
  0
DICTIONARY
  5
5E
102
{ACAD_REACTORS
330
C
102
}
330
C
100
AcDbDictionary
281
     1
  3
CANNOSCALE
350
11A7
  3
CMLEADERSTYLE
350
11A4
  3
CTABLESTYLE
350
84
  3
CVIEWDETAILSTYLE
350
11A5
  3
CVIEWSECTIONSTYLE
350
11A6
  3
DIMASSOC
350
5F
  3
HIDETEXT
350
63
  3
LAYEREVAL
350
11F7
  3
LAYERNOTIFY
350
11F8
  3
LIGHTINGUNITS
350
11F6
  3
MSLTSCALE
350
11F5
  3
SOLIDHIST
350
11A8
  0
DICTIONARY
  5
180
102
{ACAD_REACTORS
330
17F
102
}
330
17F
100
AcDbDictionary
281
     1
  0
XRECORD
  5
114A
102
{ACAD_REACTORS
330
1149
102
}
330
1149
100
AcDbXrecord
280
     1
290
     1
  0
XRECORD
  5
114B
102
{ACAD_REACTORS
330
160
102
}
330
160
100
AcDbXrecord
280
     1
290
     1
  0
XRECORD
  5
114C
102
{ACAD_REACTORS
330
164
102
}
330
164
100
AcDbXrecord
280
     1
290
     1
  0
XRECORD
  5
114D
102
{ACAD_REACTORS
330
166
102
}
330
166
100
AcDbXrecord
280
     1
290
     1
  0
XRECORD
  5
114F
102
{ACAD_REACTORS
330
114E
102
}
330
114E
100
AcDbXrecord
280
     1
290
     1
  0
XRECORD
  5
1151
102
{ACAD_REACTORS
330
1150
102
}
330
1150
100
AcDbXrecord
280
     1
290
     1
  0
XRECORD
  5
1153
102
{ACAD_REACTORS
330
1152
102
}
330
1152
100
AcDbXrecord
280
     1
290
     1
  0
XRECORD
  5
1155
102
{ACAD_REACTORS
330
1154
102
}
330
1154
100
AcDbXrecord
280
     1
290
     1
  0
XRECORD
  5
1157
102
{ACAD_REACTORS
330
1156
102
}
330
1156
100
AcDbXrecord
280
     1
290
     1
  0
XRECORD
  5
1159
102
{ACAD_REACTORS
330
1158
102
}
330
1158
100
AcDbXrecord
280
     1
290
     1
  0
SORTENTSTABLE
  5
1206
102
{ACAD_REACTORS
330
1205
102
}
330
1205
100
AcDbSortentsTable
330
1F
  0
ACDBDETAILVIEWSTYLE
  5
140
102
{ACAD_XDICTIONARY
360
1222
102
}
102
{ACAD_REACTORS
330
13F
102
}
330
13F
100
AcDbModelDocViewStyle
 70
     0
  3
Metric50
290
     0
100
AcDbDetailViewStyle
 70
     0
 71
     0
 90
        3
 71
     1
340
11
 62
   256
 40
5.0
340
0
 62
   256
 40
5.0
300

 40
0.0
280
     1
 71
     2
340
16
 90
       25
 62
   256
 71
     3
340
11
 62
   256
 40
5.0
 90
        0
 40
15.0
 90
        1
300
%<\AcVar ViewDetailId>% (%<\AcVar ViewScale \f "%sn">%)
 71
     4
340
16
 90
       25
 62
   256
340
16
 90
       25
 62
   256
280
     0
  0
LAYOUT
  5
22
102
{ACAD_REACTORS
330
1A
102
}
330
1A
100
AcDbPlotSettings
  1

  2
none_device
  4
ISO_A4_(210.00_x_297.00_MM)
  6

 40
7.5
 41
20.0
 42
7.5
 43
20.0
 44
210.0
 45
297.0
 46
11.54999923706054
 47
-13.65000009536743
 48
0.0
 49
0.0
140
0.0
141
0.0
142
1.0
143
8.704084754739808
 70
 11952
 72
     1
 73
     0
 74
     0
  7

 75
     0
147
0.1148885871608098
 76
     0
 77
     2
 78
   300
148
0.0
149
0.0
100
AcDbLayout
  1
Model
 70
     1
 71
     0
 10
0.0
 20
0.0
 11
12.0
 21
9.0
 12
0.0
 22
0.0
 32
0.0
 14
0.0
 24
0.0
 34
0.0
 15
0.0
 25
0.0
 35
0.0
146
0.0
 13
0.0
 23
0.0
 33
0.0
 16
1.0
 26
0.0
 36
0.0
 17
0.0
 27
1.0
 37
0.0
 76
     0
330
1F
331
EB
1001
ACAD_PSEXT
1000
None
1000
None
1000
Not applicable
1000
The layout will not be plotted unless a new plotter configuration name is selected.
1070
     0
  0
LAYOUT
  5
D3
102
{ACAD_REACTORS
330
1A
102
}
330
1A
100
AcDbPlotSettings
  1

  2
C:\Documents and Settings\basas\Application Data\Autodesk\AutoCAD 2005\R16.1\enu\plotters\Default Windows System Printer.pc3
  4

  6

 40
0.0
 41
0.0
 42
0.0
 43
0.0
 44
0.0
 45
0.0
 46
0.0
 47
0.0
 48
0.0
 49
0.0
140
0.0
141
0.0
142
1.0
143
1.0
 70
   688
 72
     0
 73
     0
 74
     5
  7

 75
    16
147
1.0
 76
     0
 77
     2
 78
   300
148
0.0
149
0.0
100
AcDbLayout
  1
布局1
 70
     1
 71
     1
 10
0.0
 20
0.0
 11
12.0
 21
9.0
 12
0.0
 22
0.0
 32
0.0
 14
0.0
 24
0.0
 34
0.0
 15
0.0
 25
0.0
 35
0.0
146
0.0
 13
0.0
 23
0.0
 33
0.0
 16
1.0
 26
0.0
 36
0.0
 17
0.0
 27
1.0
 37
0.0
 76
     0
330
D2
1001
AcadStringInfo
1000
MIFCodePage
1070
     5
  0
LAYOUT
  5
D7
102
{ACAD_REACTORS
330
1A
102
}
330
1A
100
AcDbPlotSettings
  1

  2
C:\Documents and Settings\basas\Application Data\Autodesk\AutoCAD 2005\R16.1\enu\plotters\Default Windows System Printer.pc3
  4

  6

 40
0.0
 41
0.0
 42
0.0
 43
0.0
 44
0.0
 45
0.0
 46
0.0
 47
0.0
 48
0.0
 49
0.0
140
0.0
141
0.0
142
1.0
143
1.0
 70
   688
 72
     0
 73
     0
 74
     5
  7

 75
    16
147
1.0
 76
     0
 77
     2
 78
   300
148
0.0
149
0.0
100
AcDbLayout
  1
布局2
 70
     1
 71
     2
 10
0.0
 20
0.0
 11
12.0
 21
9.0
 12
0.0
 22
0.0
 32
0.0
 14
0.0
 24
0.0
 34
0.0
 15
0.0
 25
0.0
 35
0.0
146
0.0
 13
0.0
 23
0.0
 33
0.0
 16
1.0
 26
0.0
 36
0.0
 17
0.0
 27
1.0
 37
0.0
 76
     0
330
D6
1001
AcadStringInfo
1000
MIFCodePage
1070
     5
  0
MATERIAL
  5
EE
102
{ACAD_REACTORS
330
6A
102
}
330
6A
100
AcDbMaterial
  1
ByBlock
 73
     1
 78
     1
172
     1
176
     1
270
     1
274
     1
 94
       63
  0
MATERIAL
  5
ED
102
{ACAD_REACTORS
330
6A
102
}
330
6A
100
AcDbMaterial
  1
ByLayer
 73
     1
 78
     1
172
     1
176
     1
270
     1
274
     1
 94
       63
  0
MATERIAL
  5
EF
102
{ACAD_REACTORS
330
6A
102
}
330
6A
100
AcDbMaterial
  1
Global
 73
     1
 78
     1
172
     1
176
     1
270
     1
274
     1
 94
       63
  0
MLEADERSTYLE
  5
13C
102
{ACAD_REACTORS
330
13B
102
}
330
13B
100
AcDbMLeaderStyle
179
     2
170
     2
171
     1
172
     0
 90
        2
 40
0.0
 41
0.0
173
     1
 91
-1056964608
340
14
 92
       -2
290
     1
 42
2.0
291
     1
 43
0.36
  3
Standard
 44
4.0
300

342
11
174
     1
178
     6
175
     1
176
     0
 93
-1056964608
 45
4.0
292
     0
297
     0
 46
4.0
 94
-1056964608
 47
1.0
 49
1.0
140
1.0
293
     1
141
0.0
294
     1
177
     0
142
1.0
295
     0
296
     0
143
0.125
271
     0
272
     9
273
     9
298
     1
  0
MLINESTYLE
  5
18
102
{ACAD_REACTORS
330
17
102
}
330
17
100
AcDbMlineStyle
  2
STANDARD
 70
     0
  3

 62
   256
 51
90.0
 52
90.0
 71
     2
 49
0.5
 62
   256
  6
BYLAYER
 49
-0.5
 62
   256
  6
BYLAYER
  0
ACDBPLACEHOLDER
  5
F
102
{ACAD_REACTORS
330
E
102
}
330
E
  0
SCALE
  5
12A
102
{ACAD_REACTORS
330
129
102
}
330
129
100
AcDbScale
 70
     0
300
1:1
140
1.0
141
1.0
290
     1
  0
SCALE
  5
12B
102
{ACAD_REACTORS
330
129
102
}
330
129
100
AcDbScale
 70
     0
300
1:2
140
1.0
141
2.0
290
     0
  0
SCALE
  5
12C
102
{ACAD_REACTORS
330
129
102
}
330
129
100
AcDbScale
 70
     0
300
1:4
140
1.0
141
4.0
290
     0
  0
SCALE
  5
12D
102
{ACAD_REACTORS
330
129
102
}
330
129
100
AcDbScale
 70
     0
300
1:5
140
1.0
141
5.0
290
     0
  0
SCALE
  5
12E
102
{ACAD_REACTORS
330
129
102
}
330
129
100
AcDbScale
 70
     0
300
1:8
140
1.0
141
8.0
290
     0
  0
SCALE
  5
12F
102
{ACAD_REACTORS
330
129
102
}
330
129
100
AcDbScale
 70
     0
300
1:10
140
1.0
141
10.0
290
     0
  0
SCALE
  5
130
102
{ACAD_REACTORS
330
129
102
}
330
129
100
AcDbScale
 70
     0
300
1:16
140
1.0
141
16.0
290
     0
  0
SCALE
  5
131
102
{ACAD_REACTORS
330
129
102
}
330
129
100
AcDbScale
 70
     0
300
1:20
140
1.0
141
20.0
290
     0
  0
SCALE
  5
132
102
{ACAD_REACTORS
330
129
102
}
330
129
100
AcDbScale
 70
     0
300
1:30
140
1.0
141
30.0
290
     0
  0
SCALE
  5
133
102
{ACAD_REACTORS
330
129
102
}
330
129
100
AcDbScale
 70
     0
300
1:40
140
1.0
141
40.0
290
     0
  0
SCALE
  5
134
102
{ACAD_REACTORS
330
129
102
}
330
129
100
AcDbScale
 70
     0
300
1:50
140
1.0
141
50.0
290
     0
  0
SCALE
  5
135
102
{ACAD_REACTORS
330
129
102
}
330
129
100
AcDbScale
 70
     0
300
1:100
140
1.0
141
100.0
290
     0
  0
SCALE
  5
136
102
{ACAD_REACTORS
330
129
102
}
330
129
100
AcDbScale
 70
     0
300
2:1
140
2.0
141
1.0
290
     0
  0
SCALE
  5
137
102
{ACAD_REACTORS
330
129
102
}
330
129
100
AcDbScale
 70
     0
300
4:1
140
4.0
141
1.0
290
     0
  0
SCALE
  5
138
102
{ACAD_REACTORS
330
129
102
}
330
129
100
AcDbScale
 70
     0
300
8:1
140
8.0
141
1.0
290
     0
  0
SCALE
  5
139
102
{ACAD_REACTORS
330
129
102
}
330
129
100
AcDbScale
 70
     0
300
10:1
140
10.0
141
1.0
290
     0
  0
SCALE
  5
13A
102
{ACAD_REACTORS
330
129
102
}
330
129
100
AcDbScale
 70
     0
300
100:1
140
100.0
141
1.0
290
     0
  0
ACDBSECTIONVIEWSTYLE
  5
13E
102
{ACAD_XDICTIONARY
360
1220
102
}
102
{ACAD_REACTORS
330
13D
102
}
330
13D
100
AcDbModelDocViewStyle
 70
     0
  3
Metric50
290
     0
100
AcDbSectionViewStyle
 70
     0
 71
     0
 90
      102
 71
     1
340
11
 62
   256
 40
5.0
340
0
340
0
 62
   256
 40
5.0
300
I, O, Q, S, X, Z
 40
10.0
 90
        0
 40
2.5
 90
        0
 71
     2
340
16
 90
       25
 62
   256
340
16
 90
       50
 62
   256
 40
5.0
 40
2.5
 40
5.0
 71
     3
340
11
 62
   256
 40
5.0
 90
        0
 40
15.0
 90
        1
300
%<\AcVar ViewSectionStartId>%-%<\AcVar ViewSectionEndId>% (%<\AcVar ViewScale \f "%sn">%)
 71
     4
 62
   256
 62
   257
300
ANSI31
 40
1.0
 90
        0
290
     0
290
     0
 90
        6
 40
0.0
 40
1.570796326794896
 40
0.2617993877991494
 40
1.308996938995747
 40
-0.2617993877991494
 40
1.832595714594045
  0
TABLESTYLE
  5
7F
102
{ACAD_XDICTIONARY
360
115A
102
}
102
{ACAD_REACTORS
330
7E
102
}
330
7E
100
AcDbTableStyle
280
     0
  3
Standard
 70
     0
 71
     0
 40
1.5
 41
1.5
280
     0
281
     0
  7
Standard
140
4.5
170
     2
 62
     0
 63
     7
283
     0
 90
      512
 91
        0
  1

274
    -2
284
     1
 64
     0
275
    -2
285
     1
 65
     0
276
    -2
286
     1
 66
     0
277
    -2
287
     1
 67
     0
278
    -2
288
     1
 68
     0
279
    -2
289
     1
 69
     0
  7
Standard
140
6.0
170
     5
 62
     0
 63
     7
283
     0
 90
      512
 91
        0
  1

274
    -2
284
     1
 64
     0
275
    -2
285
     1
 65
     0
276
    -2
286
     1
 66
     0
277
    -2
287
     1
 67
     0
278
    -2
288
     1
 68
     0
279
    -2
289
     1
 69
     0
  7
Standard
140
4.5
170
     5
 62
     0
 63
     7
283
     0
 90
      512
 91
        0
  1

274
    -2
284
     1
 64
     0
275
    -2
285
     1
 65
     0
276
    -2
286
     1
 66
     0
277
    -2
287
     1
 67
     0
278
    -2
288
     1
 68
     0
279
    -2
289
     1
 69
     0
  0
VISUALSTYLE
  5
F6
102
{ACAD_REACTORS
330
F0
102
}
330
F0
100
AcDbVisualStyle
  2
2dWireframe
 70
     4
177
     3
291
     0
 70
    58
 90
        0
176
     1
 90
        2
176
     1
 90
        1
176
     1
 90
        0
176
     1
 40
0.6
176
     1
 40
30.0
176
     1
 62
     7
420
 16777215
176
     1
 90
        1
176
     1
 90
        4
176
     1
 62
     7
176
     1
 62
   257
176
     1
 90
        1
176
     1
 90
        1
176
     1
 40
1.0
176
     1
 90
        0
176
     1
 62
   257
176
     1
 40
1.0
176
     1
 90
        1
176
     1
 90
        6
176
     1
 90
        2
176
     1
 62
     7
176
     1
 90
        5
176
     1
 90
        0
176
     1
 90
        0
176
     1
290
     0
176
     1
 90
        1
176
     1
 40
0.0
176
     1
 90
        0
176
     1
290
     1
176
     1
290
     1
176
     1
290
     0
176
     1
290
     0
176
     1
290
     0
176
     1
290
     0
176
     1
290
     0
176
     1
290
     0
176
     1
290
     0
176
     1
 90
       50
176
     1
 40
0.0
176
     1
 40
1.0
176
     1
 90
        0
176
     1
 62
    18
176
     1
 90
       50
176
     1
 90
        3
176
     1
 62
     5
420
      255
176
     1
290
     0
176
     1
 90
       50
176
     1
 90
       50
176
     1
 90
       50
176
     1
290
     0
176
     1
 90
       50
176
     1
 62
   256
176
     0
 40
1.0
176
     0
 90
        2
176
     1
  1
strokes_ogs.tif
176
     1
290
     0
176
     1
 40
1.0
176
     1
 40
1.0
176
     1
1001
ACAD
1000
AcDbSavedByObjectVersion
1070
     0
  0
VISUALSTYLE
  5
F8
102
{ACAD_REACTORS
330
F0
102
}
330
F0
100
AcDbVisualStyle
  2
3D Hidden
 70
     6
177
     3
291
     0
 70
    58
 90
        1
176
     1
 90
        2
176
     1
 90
        2
176
     1
 90
        0
176
     1
 40
0.6
176
     1
 40
30.0
176
     1
 62
     7
420
 16777215
176
     1
 90
        2
176
     1
 90
        2
176
     1
 62
     7
176
     1
 62
   257
176
     1
 90
        2
176
     1
 90
        1
176
     1
 40
40.0
176
     1
 90
        0
176
     1
 62
   257
176
     1
 40
1.0
176
     1
 90
        1
176
     1
 90
        6
176
     1
 90
        2
176
     1
 62
     7
176
     1
 90
        3
176
     1
 90
        0
176
     1
 90
        0
176
     1
290
     0
176
     1
 90
        1
176
     1
 40
0.0
176
     1
 90
        0
176
     1
290
     0
176
     1
290
     1
176
     1
290
     1
176
     1
290
     0
176
     1
290
     0
176
     1
290
     0
176
     1
290
     0
176
     1
290
     0
176
     1
290
     0
176
     1
 90
       50
176
     1
 40
0.0
176
     1
 40
1.0
176
     1
 90
        0
176
     1
 62
    18
176
     1
 90
       50
176
     1
 90
        3
176
     1
 62
     5
420
      255
176
     1
290
     0
176
     1
 90
       50
176
     1
 90
       50
176
     1
 90
       50
176
     1
290
     0
176
     1
 90
       50
176
     1
 62
   256
176
     0
 40
1.0
176
     0
 90
        2
176
     1
  1
strokes_ogs.tif
176
     1
290
     0
176
     1
 40
1.0
176
     1
 40
1.0
176
     1
1001
ACAD
1000
AcDbSavedByObjectVersion
1070
     0
  0
VISUALSTYLE
  5
F7
102
{ACAD_REACTORS
330
F0
102
}
330
F0
100
AcDbVisualStyle
  2
3dWireframe
 70
     5
177
     3
291
     0
 70
    58
 90
        0
176
     1
 90
        2
176
     1
 90
        1
176
     1
 90
        0
176
     1
 40
0.6
176
     1
 40
30.0
176
     1
 62
     7
420
 16777215
176
     1
 90
        1
176
     1
 90
        4
176
     1
 62
     7
176
     1
 62
   257
176
     1
 90
        1
176
     1
 90
        1
176
     1
 40
1.0
176
     1
 90
        0
176
     1
 62
   257
176
     1
 40
1.0
176
     1
 90
        1
176
     1
 90
        6
176
     1
 90
        2
176
     1
 62
     7
176
     1
 90
        5
176
     1
 90
        0
176
     1
 90
        0
176
     1
290
     0
176
     1
 90
        1
176
     1
 40
0.0
176
     1
 90
        0
176
     1
290
     0
176
     1
290
     1
176
     1
290
     1
176
     1
290
     0
176
     1
290
     0
176
     1
290
     0
176
     1
290
     0
176
     1
290
     0
176
     1
290
     0
176
     1
 90
       50
176
     1
 40
0.0
176
     1
 40
1.0
176
     1
 90
        0
176
     1
 62
    18
176
     1
 90
       50
176
     1
 90
        3
176
     1
 62
     5
420
      255
176
     1
290
     0
176
     1
 90
       50
176
     1
 90
       50
176
     1
 90
       50
176
     1
290
     0
176
     1
 90
       50
176
     1
 62
   256
176
     0
 40
1.0
176
     0
 90
        2
176
     1
  1
strokes_ogs.tif
176
     1
290
     0
176
     1
 40
1.0
176
     1
 40
1.0
176
     1
1001
ACAD
1000
AcDbSavedByObjectVersion
1070
     0
  0
VISUALSTYLE
  5
F5
102
{ACAD_REACTORS
330
F0
102
}
330
F0
100
AcDbVisualStyle
  2
Basic
 70
     7
177
     3
291
     1
 70
    58
 90
        1
176
     1
 90
        0
176
     1
 90
        1
176
     1
 90
        0
176
     1
 40
0.6
176
     1
 40
30.0
176
     1
 62
     7
420
 16777215
176
     1
 90
        0
176
     1
 90
        4
176
     1
 62
     7
176
     1
 62
   257
176
     1
 90
        1
176
     1
 90
        1
176
     1
 40
1.0
176
     1
 90
        8
176
     1
 62
     7
176
     1
 40
1.0
176
     1
 90
        1
176
     1
 90
        6
176
     1
 90
        2
176
     1
 62
     7
176
     1
 90
        5
176
     1
 90
        0
176
     1
 90
        0
176
     1
290
     0
176
     1
 90
        1
176
     1
 40
0.0
176
     1
 90
        0
176
     1
290
     0
176
     1
290
     1
176
     1
290
     1
176
     1
290
     0
176
     1
290
     0
176
     1
290
     0
176
     1
290
     0
176
     1
290
     0
176
     1
290
     0
176
     1
 90
       50
176
     1
 40
0.0
176
     1
 40
1.0
176
     1
 90
        0
176
     1
 62
    18
176
     1
 90
       50
176
     1
 90
        3
176
     1
 62
     5
420
      255
176
     1
290
     0
176
     1
 90
       50
176
     1
 90
       50
176
     1
 90
       50
176
     1
290
     0
176
     1
 90
       50
176
     1
 62
   256
176
     0
 40
1.0
176
     0
 90
        2
176
     1
  1
strokes_ogs.tif
176
     1
290
     0
176
     1
 40
1.0
176
     1
 40
1.0
176
     1
1001
ACAD
1000
AcDbSavedByObjectVersion
1070
     0
  0
VISUALSTYLE
  5
FC
102
{ACAD_REACTORS
330
F0
102
}
330
F0
100
AcDbVisualStyle
  2
Brighten
 70
    12
177
     3
291
     1
 70
    58
 90
        2
176
     1
 90
        2
176
     1
 90
        1
176
     1
 90
        0
176
     1
 40
0.6
176
     1
 40
30.0
176
     1
 62
     7
420
 16777215
176
     1
 90
        1
176
     1
 90
        4
176
     1
 62
     7
176
     1
 62
   257
176
     1
 90
        1
176
     1
 90
        1
176
     1
 40
1.0
176
     1
 90
        8
176
     1
 62
     7
176
     1
 40
1.0
176
     1
 90
        1
176
     1
 90
        6
176
     1
 90
        2
176
     1
 62
     7
176
     1
 90
        5
176
     1
 90
        0
176
     1
 90
        0
176
     1
290
     0
176
     1
 90
        1
176
     1
 40
50.0
176
     1
 90
        0
176
     1
290
     0
176
     1
290
     1
176
     1
290
     1
176
     1
290
     0
176
     1
290
     0
176
     1
290
     0
176
     1
290
     0
176
     1
290
     0
176
     1
290
     0
176
     1
 90
       50
176
     1
 40
0.0
176
     1
 40
1.0
176
     1
 90
        0
176
     1
 62
    18
176
     1
 90
       50
176
     1
 90
        3
176
     1
 62
     5
420
      255
176
     1
290
     0
176
     1
 90
       50
176
     1
 90
       50
176
     1
 90
       50
176
     1
290
     0
176
     1
 90
       50
176
     1
 62
   256
176
     0
 40
1.0
176
     0
 90
        2
176
     1
  1
strokes_ogs.tif
176
     1
290
     0
176
     1
 40
1.0
176
     1
 40
1.0
176
     1
1001
ACAD
1000
AcDbSavedByObjectVersion
1070
     0
  0
VISUALSTYLE
  5
100
102
{ACAD_REACTORS
330
F0
102
}
330
F0
100
AcDbVisualStyle
  2
ColorChange
 70
    16
177
     3
291
     1
 70
    58
 90
        2
176
     1
 90
        2
176
     1
 90
        3
176
     1
 90
        0
176
     1
 40
0.6
176
     1
 40
30.0
176
     1
 62
     8
420
  8421504
176
     1
 90
        1
176
     1
 90
        4
176
     1
 62
     7
176
     1
 62
   257
176
     1
 90
        1
176
     1
 90
        1
176
     1
 40
1.0
176
     1
 90
        8
176
     1
 62
     8
420
  8421504
176
     1
 40
1.0
176
     1
 90
        1
176
     1
 90
        6
176
     1
 90
        2
176
     1
 62
     7
176
     1
 90
        5
176
     1
 90
        0
176
     1
 90
        0
176
     1
290
     0
176
     1
 90
        1
176
     1
 40
0.0
176
     1
 90
        0
176
     1
290
     0
176
     1
290
     1
176
     1
290
     1
176
     1
290
     0
176
     1
290
     0
176
     1
290
     0
176
     1
290
     0
176
     1
290
     0
176
     1
290
     0
176
     1
 90
       50
176
     1
 40
0.0
176
     1
 40
1.0
176
     1
 90
        0
176
     1
 62
    18
176
     1
 90
       50
176
     1
 90
        3
176
     1
 62
     5
420
      255
176
     1
290
     0
176
     1
 90
       50
176
     1
 90
       50
176
     1
 90
       50
176
     1
290
     0
176
     1
 90
       50
176
     1
 62
   256
176
     0
 40
1.0
176
     0
 90
        2
176
     1
  1
strokes_ogs.tif
176
     1
290
     0
176
     1
 40
1.0
176
     1
 40
1.0
176
     1
1001
ACAD
1000
AcDbSavedByObjectVersion
1070
     0
  0
VISUALSTYLE
  5
F9
102
{ACAD_REACTORS
330
F0
102
}
330
F0
100
AcDbVisualStyle
  2
Conceptual
 70
     9
177
     3
291
     0
 70
    58
 90
        3
176
     1
 90
        2
176
     1
 90
        1
176
     1
 90
        0
176
     1
 40
0.6
176
     1
 40
30.0
176
     1
 62
     7
420
 16777215
176
     1
 90
        2
176
     1
 90
        2
176
     1
 62
     7
176
     1
 62
   257
176
     1
 90
        1
176
     1
 90
        1
176
     1
 40
40.0
176
     1
 90
        8
176
     1
 62
     7
176
     1
 40
1.0
176
     1
 90
        1
176
     1
 90
        6
176
     1
 90
        2
176
     1
 62
     7
176
     1
 90
        3
176
     1
 90
        0
176
     1
 90
        0
176
     1
290
     0
176
     1
 90
        1
176
     1
 40
0.0
176
     1
 90
        0
176
     1
290
     0
176
     1
290
     1
176
     1
290
     1
176
     1
290
     0
176
     1
290
     0
176
     1
290
     0
176
     1
290
     0
176
     1
290
     0
176
     1
290
     0
176
     1
 90
       50
176
     1
 40
0.0
176
     1
 40
1.0
176
     1
 90
        0
176
     1
 62
    18
176
     1
 90
       50
176
     1
 90
        3
176
     1
 62
     5
420
      255
176
     1
290
     0
176
     1
 90
       50
176
     1
 90
       50
176
     1
 90
       50
176
     1
290
     0
176
     1
 90
       50
176
     1
 62
   256
176
     0
 40
1.0
176
     0
 90
        2
176
     1
  1
strokes_ogs.tif
176
     1
290
     0
176
     1
 40
1.0
176
     1
 40
1.0
176
     1
1001
ACAD
1000
AcDbSavedByObjectVersion
1070
     0
  0
VISUALSTYLE
  5
FB
102
{ACAD_REACTORS
330
F0
102
}
330
F0
100
AcDbVisualStyle
  2
Dim
 70
    11
177
     3
291
     1
 70
    58
 90
        2
176
     1
 90
        2
176
     1
 90
        1
176
     1
 90
        0
176
     1
 40
0.6
176
     1
 40
30.0
176
     1
 62
     7
420
 16777215
176
     1
 90
        1
176
     1
 90
        4
176
     1
 62
     7
176
     1
 62
   257
176
     1
 90
        1
176
     1
 90
        1
176
     1
 40
1.0
176
     1
 90
        8
176
     1
 62
     7
176
     1
 40
1.0
176
     1
 90
        1
176
     1
 90
        6
176
     1
 90
        2
176
     1
 62
     7
176
     1
 90
        5
176
     1
 90
        0
176
     1
 90
        0
176
     1
290
     0
176
     1
 90
        1
176
     1
 40
-50.0
176
     1
 90
        0
176
     1
290
     0
176
     1
290
     1
176
     1
290
     1
176
     1
290
     0
176
     1
290
     0
176
     1
290
     0
176
     1
290
     0
176
     1
290
     0
176
     1
290
     0
176
     1
 90
       50
176
     1
 40
0.0
176
     1
 40
1.0
176
     1
 90
        0
176
     1
 62
    18
176
     1
 90
       50
176
     1
 90
        3
176
     1
 62
     5
420
      255
176
     1
290
     0
176
     1
 90
       50
176
     1
 90
       50
176
     1
 90
       50
176
     1
290
     0
176
     1
 90
       50
176
     1
 62
   256
176
     0
 40
1.0
176
     0
 90
        2
176
     1
  1
strokes_ogs.tif
176
     1
290
     0
176
     1
 40
1.0
176
     1
 40
1.0
176
     1
1001
ACAD
1000
AcDbSavedByObjectVersion
1070
     0
  0
VISUALSTYLE
  5
128
102
{ACAD_REACTORS
330
F0
102
}
330
F0
100
AcDbVisualStyle
  2
EdgeColorOff
 70
    22
177
     3
291
     1
 70
    58
 90
        2
176
     0
 90
        2
176
     0
 90
        0
176
     0
 90
        0
176
     0
 40
0.6
176
     0
 40
30.0
176
     0
 62
     7
420
 16777215
176
     0
 90
        1
176
     0
 90
        4
176
     0
 62
     7
176
     0
 62
   257
176
     0
 90
        1
176
     0
 90
        1
176
     0
 40
1.0
176
     0
 90
        8
176
     2
 62
     7
176
     0
 40
1.0
176
     0
 90
        1
176
     0
 90
        6
176
     0
 90
        2
176
     0
 62
     7
176
     0
 90
        5
176
     0
 90
        0
176
     0
 90
        0
176
     0
290
     0
176
     0
 90
        1
176
     0
 40
0.0
176
     0
 90
        0
176
     0
290
     0
176
     0
290
     1
176
     0
290
     1
176
     0
290
     0
176
     0
290
     0
176
     0
290
     0
176
     0
290
     0
176
     0
290
     0
176
     0
290
     0
176
     0
 90
       50
176
     0
 40
0.0
176
     0
 40
1.0
176
     0
 90
        0
176
     0
 62
    18
176
     0
 90
       50
176
     0
 90
        3
176
     0
 62
     5
420
      255
176
     0
290
     0
176
     0
 90
       50
176
     0
 90
       50
176
     0
 90
       50
176
     0
290
     0
176
     0
 90
       50
176
     0
 62
   256
176
     0
 40
1.0
176
     0
 90
        2
176
     0
  1
strokes_ogs.tif
176
     0
290
     0
176
     0
 40
1.0
176
     0
 40
1.0
176
     0
1001
ACAD
1000
AcDbSavedByObjectVersion
1070
     0
  0
VISUALSTYLE
  5
FF
102
{ACAD_REACTORS
330
F0
102
}
330
F0
100
AcDbVisualStyle
  2
Facepattern
 70
    15
177
     3
291
     1
 70
    58
 90
        2
176
     1
 90
        2
176
     1
 90
        1
176
     1
 90
        0
176
     1
 40
0.6
176
     1
 40
30.0
176
     1
 62
     7
420
 16777215
176
     1
 90
        1
176
     1
 90
        4
176
     1
 62
     7
176
     1
 62
   257
176
     1
 90
        1
176
     1
 90
        1
176
     1
 40
1.0
176
     1
 90
        8
176
     1
 62
     7
176
     1
 40
1.0
176
     1
 90
        1
176
     1
 90
        6
176
     1
 90
        2
176
     1
 62
     7
176
     1
 90
        5
176
     1
 90
        0
176
     1
 90
        0
176
     1
290
     0
176
     1
 90
        1
176
     1
 40
0.0
176
     1
 90
        0
176
     1
290
     0
176
     1
290
     1
176
     1
290
     1
176
     1
290
     0
176
     1
290
     0
176
     1
290
     0
176
     1
290
     0
176
     1
290
     0
176
     1
290
     0
176
     1
 90
       50
176
     1
 40
0.0
176
     1
 40
1.0
176
     1
 90
        0
176
     1
 62
    18
176
     1
 90
       50
176
     1
 90
        3
176
     1
 62
     5
420
      255
176
     1
290
     0
176
     1
 90
       50
176
     1
 90
       50
176
     1
 90
       50
176
     1
290
     0
176
     1
 90
       50
176
     1
 62
   256
176
     0
 40
1.0
176
     0
 90
        2
176
     1
  1
strokes_ogs.tif
176
     1
290
     0
176
     1
 40
1.0
176
     1
 40
1.0
176
     1
1001
ACAD
1000
AcDbSavedByObjectVersion
1070
     0
  0
VISUALSTYLE
  5
F1
102
{ACAD_REACTORS
330
F0
102
}
330
F0
100
AcDbVisualStyle
  2
Flat
 70
     0
177
     3
291
     1
 70
    58
 90
        2
176
     1
 90
        1
176
     1
 90
        1
176
     1
 90
        2
176
     1
 40
0.6
176
     1
 40
30.0
176
     1
 62
     7
420
 16777215
176
     1
 90
        0
176
     1
 90
        4
176
     1
 62
     7
176
     1
 62
   257
176
     1
 90
        1
176
     1
 90
        1
176
     1
 40
1.0
176
     1
 90
        8
176
     1
 62
     7
176
     1
 40
1.0
176
     1
 90
        1
176
     1
 90
        6
176
     1
 90
        2
176
     1
 62
     7
176
     1
 90
        5
176
     1
 90
        0
176
     1
 90
        0
176
     1
290
     0
176
     1
 90
        1
176
     1
 40
0.0
176
     1
 90
        0
176
     1
290
     0
176
     1
290
     1
176
     1
290
     1
176
     1
290
     0
176
     1
290
     0
176
     1
290
     0
176
     1
290
     0
176
     1
290
     0
176
     1
290
     0
176
     1
 90
       50
176
     1
 40
0.0
176
     1
 40
1.0
176
     1
 90
        0
176
     1
 62
    18
176
     1
 90
       50
176
     1
 90
        3
176
     1
 62
     5
420
      255
176
     1
290
     0
176
     1
 90
       50
176
     1
 90
       50
176
     1
 90
       50
176
     1
290
     0
176
     1
 90
       50
176
     1
 62
   256
176
     0
 40
1.0
176
     0
 90
        2
176
     1
  1
strokes_ogs.tif
176
     1
290
     0
176
     1
 40
1.0
176
     1
 40
1.0
176
     1
1001
ACAD
1000
AcDbSavedByObjectVersion
1070
     0
  0
VISUALSTYLE
  5
F2
102
{ACAD_REACTORS
330
F0
102
}
330
F0
100
AcDbVisualStyle
  2
FlatWithEdges
 70
     1
177
     3
291
     1
 70
    58
 90
        2
176
     1
 90
        1
176
     1
 90
        1
176
     1
 90
        2
176
     1
 40
0.6
176
     1
 40
30.0
176
     1
 62
     7
420
 16777215
176
     1
 90
        1
176
     1
 90
        4
176
     1
 62
     7
176
     1
 62
   257
176
     1
 90
        1
176
     1
 90
        1
176
     1
 40
1.0
176
     1
 90
        0
176
     1
 62
   257
176
     1
 40
1.0
176
     1
 90
        1
176
     1
 90
        6
176
     1
 90
        2
176
     1
 62
     7
176
     1
 90
        5
176
     1
 90
        0
176
     1
 90
        0
176
     1
290
     0
176
     1
 90
        1
176
     1
 40
0.0
176
     1
 90
        0
176
     1
290
     0
176
     1
290
     1
176
     1
290
     1
176
     1
290
     0
176
     1
290
     0
176
     1
290
     0
176
     1
290
     0
176
     1
290
     0
176
     1
290
     0
176
     1
 90
       50
176
     1
 40
0.0
176
     1
 40
1.0
176
     1
 90
        0
176
     1
 62
    18
176
     1
 90
       50
176
     1
 90
        3
176
     1
 62
     5
420
      255
176
     1
290
     0
176
     1
 90
       50
176
     1
 90
       50
176
     1
 90
       50
176
     1
290
     0
176
     1
 90
       50
176
     1
 62
   256
176
     0
 40
1.0
176
     0
 90
        2
176
     1
  1
strokes_ogs.tif
176
     1
290
     0
176
     1
 40
1.0
176
     1
 40
1.0
176
     1
1001
ACAD
1000
AcDbSavedByObjectVersion
1070
     0
  0
VISUALSTYLE
  5
F3
102
{ACAD_REACTORS
330
F0
102
}
330
F0
100
AcDbVisualStyle
  2
Gouraud
 70
     2
177
     3
291
     1
 70
    58
 90
        2
176
     1
 90
        2
176
     1
 90
        1
176
     1
 90
        2
176
     1
 40
0.6
176
     1
 40
30.0
176
     1
 62
     7
420
 16777215
176
     1
 90
        0
176
     1
 90
        4
176
     1
 62
     7
176
     1
 62
   257
176
     1
 90
        1
176
     1
 90
        1
176
     1
 40
1.0
176
     1
 90
        0
176
     1
 62
     7
176
     1
 40
1.0
176
     1
 90
        1
176
     1
 90
        6
176
     1
 90
        2
176
     1
 62
     7
176
     1
 90
        5
176
     1
 90
        0
176
     1
 90
        0
176
     1
290
     0
176
     1
 90
        1
176
     1
 40
0.0
176
     1
 90
        0
176
     1
290
     0
176
     1
290
     1
176
     1
290
     1
176
     1
290
     0
176
     1
290
     0
176
     1
290
     0
176
     1
290
     0
176
     1
290
     0
176
     1
290
     0
176
     1
 90
       50
176
     1
 40
0.0
176
     1
 40
1.0
176
     1
 90
        0
176
     1
 62
    18
176
     1
 90
       50
176
     1
 90
        3
176
     1
 62
     5
420
      255
176
     1
290
     0
176
     1
 90
       50
176
     1
 90
       50
176
     1
 90
       50
176
     1
290
     0
176
     1
 90
       50
176
     1
 62
   256
176
     0
 40
1.0
176
     0
 90
        2
176
     1
  1
strokes_ogs.tif
176
     1
290
     0
176
     1
 40
1.0
176
     1
 40
1.0
176
     1
1001
ACAD
1000
AcDbSavedByObjectVersion
1070
     0
  0
VISUALSTYLE
  5
F4
102
{ACAD_REACTORS
330
F0
102
}
330
F0
100
AcDbVisualStyle
  2
GouraudWithEdges
 70
     3
177
     3
291
     1
 70
    58
 90
        2
176
     1
 90
        2
176
     1
 90
        1
176
     1
 90
        2
176
     1
 40
0.6
176
     1
 40
30.0
176
     1
 62
     7
420
 16777215
176
     1
 90
        1
176
     1
 90
        4
176
     1
 62
     7
176
     1
 62
   257
176
     1
 90
        1
176
     1
 90
        1
176
     1
 40
1.0
176
     1
 90
        0
176
     1
 62
   257
176
     1
 40
1.0
176
     1
 90
        1
176
     1
 90
        6
176
     1
 90
        2
176
     1
 62
     7
176
     1
 90
        5
176
     1
 90
        0
176
     1
 90
        0
176
     1
290
     0
176
     1
 90
        1
176
     1
 40
0.0
176
     1
 90
        0
176
     1
290
     0
176
     1
290
     1
176
     1
290
     1
176
     1
290
     0
176
     1
290
     0
176
     1
290
     0
176
     1
290
     0
176
     1
290
     0
176
     1
290
     0
176
     1
 90
       50
176
     1
 40
0.0
176
     1
 40
1.0
176
     1
 90
        0
176
     1
 62
    18
176
     1
 90
       50
176
     1
 90
        3
176
     1
 62
     5
420
      255
176
     1
290
     0
176
     1
 90
       50
176
     1
 90
       50
176
     1
 90
       50
176
     1
290
     0
176
     1
 90
       50
176
     1
 62
   256
176
     0
 40
1.0
176
     0
 90
        2
176
     1
  1
strokes_ogs.tif
176
     1
290
     0
176
     1
 40
1.0
176
     1
 40
1.0
176
     1
1001
ACAD
1000
AcDbSavedByObjectVersion
1070
     0
  0
VISUALSTYLE
  5
120
102
{ACAD_REACTORS
330
F0
102
}
330
F0
100
AcDbVisualStyle
  2
Hidden
 70
     6
177
     3
291
     0
 70
    58
 90
        1
176
     1
 90
        2
176
     1
 90
        2
176
     1
 90
        0
176
     1
 40
0.6
176
     1
 40
30.0
176
     1
 62
     7
420
 16777215
176
     1
 90
        2
176
     1
 90
        2
176
     1
 62
     7
176
     1
 62
   257
176
     1
 90
        2
176
     1
 90
        1
176
     1
 40
40.0
176
     1
 90
        0
176
     1
 62
   257
176
     1
 40
1.0
176
     1
 90
        1
176
     1
 90
        6
176
     1
 90
        2
176
     1
 62
     7
176
     1
 90
        3
176
     1
 90
        0
176
     1
 90
        0
176
     1
290
     0
176
     1
 90
        1
176
     1
 40
0.0
176
     1
 90
        0
176
     1
290
     0
176
     1
290
     1
176
     1
290
     1
176
     1
290
     0
176
     1
290
     0
176
     1
290
     0
176
     1
290
     0
176
     1
290
     0
176
     1
290
     0
176
     1
 90
       50
176
     1
 40
0.0
176
     1
 40
1.0
176
     1
 90
        0
176
     1
 62
    18
176
     1
 90
       50
176
     1
 90
        3
176
     1
 62
     5
420
      255
176
     1
290
     0
176
     1
 90
       50
176
     1
 90
       50
176
     1
 90
       50
176
     1
290
     0
176
     1
 90
       50
176
     1
 62
   256
176
     0
 40
1.0
176
     0
 90
        2
176
     1
  1
strokes_ogs.tif
176
     1
290
     0
176
     1
 40
1.0
176
     1
 40
1.0
176
     1
1001
ACAD
1000
AcDbSavedByObjectVersion
1070
     0
  0
VISUALSTYLE
  5
126
102
{ACAD_REACTORS
330
F0
102
}
330
F0
100
AcDbVisualStyle
  2
JitterOff
 70
    20
177
     3
291
     1
 70
    58
 90
        2
176
     0
 90
        2
176
     0
 90
        0
176
     0
 90
        0
176
     0
 40
0.6
176
     0
 40
30.0
176
     0
 62
     7
420
 16777215
176
     0
 90
        1
176
     0
 90
        4
176
     0
 62
     7
176
     0
 62
   257
176
     0
 90
        1
176
     0
 90
        1
176
     0
 40
1.0
176
     0
 90
       10
176
     2
 62
     7
176
     0
 40
1.0
176
     0
 90
        1
176
     0
 90
        6
176
     0
 90
        2
176
     0
 62
     7
176
     0
 90
        5
176
     0
 90
        0
176
     0
 90
        0
176
     0
290
     0
176
     0
 90
        1
176
     0
 40
0.0
176
     0
 90
        0
176
     0
290
     0
176
     0
290
     1
176
     0
290
     1
176
     0
290
     0
176
     0
290
     0
176
     0
290
     0
176
     0
290
     0
176
     0
290
     0
176
     0
290
     0
176
     0
 90
       50
176
     0
 40
0.0
176
     0
 40
1.0
176
     0
 90
        0
176
     0
 62
    18
176
     0
 90
       50
176
     0
 90
        3
176
     0
 62
     5
420
      255
176
     0
290
     0
176
     0
 90
       50
176
     0
 90
       50
176
     0
 90
       50
176
     0
290
     0
176
     0
 90
       50
176
     0
 62
   256
176
     0
 40
1.0
176
     0
 90
        2
176
     0
  1
strokes_ogs.tif
176
     0
290
     0
176
     0
 40
1.0
176
     0
 40
1.0
176
     0
1001
ACAD
1000
AcDbSavedByObjectVersion
1070
     0
  0
VISUALSTYLE
  5
FE
102
{ACAD_REACTORS
330
F0
102
}
330
F0
100
AcDbVisualStyle
  2
Linepattern
 70
    14
177
     3
291
     1
 70
    58
 90
        2
176
     1
 90
        2
176
     1
 90
        1
176
     1
 90
        0
176
     1
 40
0.6
176
     1
 40
30.0
176
     1
 62
     7
420
 16777215
176
     1
 90
        1
176
     1
 90
        4
176
     1
 62
     7
176
     1
 62
   257
176
     1
 90
        7
176
     1
 90
        7
176
     1
 40
1.0
176
     1
 90
        8
176
     1
 62
     7
176
     1
 40
1.0
176
     1
 90
        1
176
     1
 90
        6
176
     1
 90
        2
176
     1
 62
     7
176
     1
 90
        5
176
     1
 90
        0
176
     1
 90
        0
176
     1
290
     0
176
     1
 90
        1
176
     1
 40
0.0
176
     1
 90
        0
176
     1
290
     0
176
     1
290
     1
176
     1
290
     1
176
     1
290
     0
176
     1
290
     0
176
     1
290
     0
176
     1
290
     0
176
     1
290
     0
176
     1
290
     0
176
     1
 90
       50
176
     1
 40
0.0
176
     1
 40
1.0
176
     1
 90
        0
176
     1
 62
    18
176
     1
 90
       50
176
     1
 90
        3
176
     1
 62
     5
420
      255
176
     1
290
     0
176
     1
 90
       50
176
     1
 90
       50
176
     1
 90
       50
176
     1
290
     0
176
     1
 90
       50
176
     1
 62
   256
176
     0
 40
1.0
176
     0
 90
        2
176
     1
  1
strokes_ogs.tif
176
     1
290
     0
176
     1
 40
1.0
176
     1
 40
1.0
176
     1
1001
ACAD
1000
AcDbSavedByObjectVersion
1070
     0
  0
VISUALSTYLE
  5
127
102
{ACAD_REACTORS
330
F0
102
}
330
F0
100
AcDbVisualStyle
  2
OverhangOff
 70
    21
177
     3
291
     1
 70
    58
 90
        2
176
     0
 90
        2
176
     0
 90
        0
176
     0
 90
        0
176
     0
 40
0.6
176
     0
 40
30.0
176
     0
 62
     7
420
 16777215
176
     0
 90
        1
176
     0
 90
        4
176
     0
 62
     7
176
     0
 62
   257
176
     0
 90
        1
176
     0
 90
        1
176
     0
 40
1.0
176
     0
 90
        9
176
     2
 62
     7
176
     0
 40
1.0
176
     0
 90
        1
176
     0
 90
        6
176
     0
 90
        2
176
     0
 62
     7
176
     0
 90
        5
176
     0
 90
        0
176
     0
 90
        0
176
     0
290
     0
176
     0
 90
        1
176
     0
 40
0.0
176
     0
 90
        0
176
     0
290
     0
176
     0
290
     1
176
     0
290
     1
176
     0
290
     0
176
     0
290
     0
176
     0
290
     0
176
     0
290
     0
176
     0
290
     0
176
     0
290
     0
176
     0
 90
       50
176
     0
 40
0.0
176
     0
 40
1.0
176
     0
 90
        0
176
     0
 62
    18
176
     0
 90
       50
176
     0
 90
        3
176
     0
 62
     5
420
      255
176
     0
290
     0
176
     0
 90
       50
176
     0
 90
       50
176
     0
 90
       50
176
     0
290
     0
176
     0
 90
       50
176
     0
 62
   256
176
     0
 40
1.0
176
     0
 90
        2
176
     0
  1
strokes_ogs.tif
176
     0
290
     0
176
     0
 40
1.0
176
     0
 40
1.0
176
     0
1001
ACAD
1000
AcDbSavedByObjectVersion
1070
     0
  0
VISUALSTYLE
  5
FA
102
{ACAD_REACTORS
330
F0
102
}
330
F0
100
AcDbVisualStyle
  2
Realistic
 70
     8
177
     3
291
     0
 70
    58
 90
        2
176
     1
 90
        2
176
     1
 90
        1
176
     1
 90
        0
176
     1
 40
0.6
176
     1
 40
30.0
176
     1
 62
     7
420
 16777215
176
     1
 90
        1
176
     1
 90
        0
176
     1
 62
     7
176
     1
 62
   257
176
     1
 90
        1
176
     1
 90
        1
176
     1
 40
1.0
176
     1
 90
        8
176
     1
 62
     8
420
  7895160
176
     1
 40
1.0
176
     1
 90
        1
176
     1
 90
        6
176
     1
 90
        2
176
     1
 62
     7
176
     1
 90
        5
176
     1
 90
        0
176
     1
 90
        0
176
     1
290
     0
176
     1
 90
       13
176
     1
 40
0.0
176
     1
 90
        0
176
     1
290
     0
176
     1
290
     1
176
     1
290
     1
176
     1
290
     0
176
     1
290
     0
176
     1
290
     0
176
     1
290
     0
176
     1
290
     0
176
     1
290
     0
176
     1
 90
       50
176
     1
 40
0.0
176
     1
 40
1.0
176
     1
 90
        0
176
     1
 62
    18
176
     1
 90
       50
176
     1
 90
        3
176
     1
 62
     5
420
      255
176
     1
290
     0
176
     1
 90
       50
176
     1
 90
       50
176
     1
 90
       50
176
     1
290
     0
176
     1
 90
       50
176
     1
 62
   256
176
     0
 40
1.0
176
     0
 90
        2
176
     1
  1
strokes_ogs.tif
176
     1
290
     0
176
     1
 40
1.0
176
     1
 40
1.0
176
     1
1001
ACAD
1000
AcDbSavedByObjectVersion
1070
     0
  0
VISUALSTYLE
  5
125
102
{ACAD_REACTORS
330
F0
102
}
330
F0
100
AcDbVisualStyle
  2
Shaded
 70
    27
177
     3
291
     0
 70
    58
 90
        2
176
     1
 90
        2
176
     1
 90
        1
176
     1
 90
        2
176
     1
 40
0.6
176
     1
 40
30.0
176
     1
 62
     7
420
 16777215
176
     1
 90
        0
176
     1
 90
        4
176
     1
 62
     7
176
     1
 62
   257
176
     1
 90
        1
176
     1
 90
        1
176
     1
 40
1.0
176
     1
 90
        8
176
     1
 62
   257
176
     1
 40
1.0
176
     1
 90
        1
176
     1
 90
        6
176
     1
 90
        2
176
     1
 62
     8
420
  7895160
176
     1
 90
        3
176
     1
 90
        0
176
     1
 90
        0
176
     1
290
     0
176
     1
 90
        5
176
     1
 40
0.0
176
     1
 90
        0
176
     1
290
     0
176
     1
290
     1
176
     1
290
     1
176
     1
290
     0
176
     1
290
     0
176
     1
290
     0
176
     1
290
     0
176
     1
290
     0
176
     1
290
     0
176
     1
 90
       50
176
     1
 40
0.0
176
     1
 40
1.0
176
     1
 90
        0
176
     1
 62
    18
176
     1
 90
       50
176
     1
 90
        3
176
     1
 62
     5
420
      255
176
     1
290
     0
176
     1
 90
       50
176
     1
 90
       50
176
     1
 90
       50
176
     1
290
     0
176
     1
 90
       50
176
     1
 62
   256
176
     0
 40
1.0
176
     0
 90
        2
176
     1
  1
strokes_ogs.tif
176
     1
290
     0
176
     1
 40
1.0
176
     1
 40
1.0
176
     1
1001
ACAD
1000
AcDbSavedByObjectVersion
1070
     0
  0
VISUALSTYLE
  5
124
102
{ACAD_REACTORS
330
F0
102
}
330
F0
100
AcDbVisualStyle
  2
Shaded with edges
 70
    26
177
     3
291
     0
 70
    58
 90
        2
176
     1
 90
        2
176
     1
 90
        1
176
     1
 90
        2
176
     1
 40
0.6
176
     1
 40
30.0
176
     1
 62
     7
420
 16777215
176
     1
 90
        1
176
     1
 90
        2
176
     1
 62
     7
176
     1
 62
   257
176
     1
 90
        2
176
     1
 90
        1
176
     1
 40
1.0
176
     1
 90
        8
176
     1
 62
   257
176
     1
 40
1.0
176
     1
 90
        1
176
     1
 90
        6
176
     1
 90
        2
176
     1
 62
     7
176
     1
 90
        3
176
     1
 90
        0
176
     1
 90
        0
176
     1
290
     0
176
     1
 90
        5
176
     1
 40
0.0
176
     1
 90
        0
176
     1
290
     0
176
     1
290
     1
176
     1
290
     1
176
     1
290
     0
176
     1
290
     0
176
     1
290
     0
176
     1
290
     0
176
     1
290
     0
176
     1
290
     0
176
     1
 90
       50
176
     1
 40
0.0
176
     1
 40
1.0
176
     1
 90
        0
176
     1
 62
    18
176
     1
 90
       50
176
     1
 90
        3
176
     1
 62
     5
420
      255
176
     1
290
     0
176
     1
 90
       50
176
     1
 90
       50
176
     1
 90
       50
176
     1
290
     0
176
     1
 90
       50
176
     1
 62
   256
176
     0
 40
1.0
176
     0
 90
        2
176
     1
  1
strokes_ogs.tif
176
     1
290
     0
176
     1
 40
1.0
176
     1
 40
1.0
176
     1
1001
ACAD
1000
AcDbSavedByObjectVersion
1070
     0
  0
VISUALSTYLE
  5
121
102
{ACAD_REACTORS
330
F0
102
}
330
F0
100
AcDbVisualStyle
  2
Shades of Gray
 70
    23
177
     3
291
     0
 70
    58
 90
        2
176
     1
 90
        2
176
     1
 90
        3
176
     1
 90
        0
176
     1
 40
0.6
176
     1
 40
30.0
176
     1
 62
     7
420
 16777215
176
     1
 90
        2
176
     1
 90
        2
176
     1
 62
     7
176
     1
 62
     7
176
     1
 90
        1
176
     1
 90
        1
176
     1
 40
40.0
176
     1
 90
        8
176
     1
 62
     7
176
     1
 40
1.0
176
     1
 90
        1
176
     1
 90
        6
176
     1
 90
        2
176
     1
 62
     7
176
     1
 90
        3
176
     1
 90
        0
176
     1
 90
        0
176
     1
290
     0
176
     1
 90
        1
176
     1
 40
0.0
176
     1
 90
        0
176
     1
290
     0
176
     1
290
     1
176
     1
290
     1
176
     1
290
     0
176
     1
290
     0
176
     1
290
     0
176
     1
290
     0
176
     1
290
     0
176
     1
290
     0
176
     1
 90
       50
176
     1
 40
0.0
176
     1
 40
1.0
176
     1
 90
        0
176
     1
 62
    18
176
     1
 90
       50
176
     1
 90
        3
176
     1
 62
     5
420
      255
176
     1
290
     0
176
     1
 90
       50
176
     1
 90
       50
176
     1
 90
       50
176
     1
290
     0
176
     1
 90
       50
176
     1
 62
   256
176
     0
 40
1.0
176
     0
 90
        2
176
     1
  1
strokes_ogs.tif
176
     1
290
     0
176
     1
 40
1.0
176
     1
 40
1.0
176
     1
1001
ACAD
1000
AcDbSavedByObjectVersion
1070
     0
  0
VISUALSTYLE
  5
122
102
{ACAD_REACTORS
330
F0
102
}
330
F0
100
AcDbVisualStyle
  2
Sketchy
 70
    24
177
     3
291
     0
 70
    58
 90
        1
176
     1
 90
        2
176
     1
 90
        2
176
     1
 90
        0
176
     1
 40
0.6
176
     1
 40
30.0
176
     1
 62
     7
420
 16777215
176
     1
 90
        2
176
     1
 90
        2
176
     1
 62
     7
176
     1
 62
     7
176
     1
 90
        1
176
     1
 90
        1
176
     1
 40
40.0
176
     1
 90
       11
176
     1
 62
     7
176
     1
 40
1.0
176
     1
 90
        1
176
     1
 90
        6
176
     1
 90
        2
176
     1
 62
     7
176
     1
 90
        6
176
     1
 90
        0
176
     1
 90
        0
176
     1
290
     0
176
     1
 90
        1
176
     1
 40
0.0
176
     1
 90
        0
176
     1
290
     0
176
     1
290
     1
176
     1
290
     1
176
     1
290
     0
176
     1
290
     0
176
     1
290
     0
176
     1
290
     0
176
     1
290
     0
176
     1
290
     0
176
     1
 90
       50
176
     1
 40
0.0
176
     1
 40
1.0
176
     1
 90
        0
176
     1
 62
    18
176
     1
 90
       50
176
     1
 90
        3
176
     1
 62
     5
420
      255
176
     1
290
     0
176
     1
 90
       50
176
     1
 90
       50
176
     1
 90
       50
176
     1
290
     0
176
     1
 90
       50
176
     1
 62
   256
176
     0
 40
1.0
176
     0
 90
        2
176
     1
  1
strokes_ogs.tif
176
     1
290
     0
176
     1
 40
1.0
176
     1
 40
1.0
176
     1
1001
ACAD
1000
AcDbSavedByObjectVersion
1070
     0
  0
VISUALSTYLE
  5
FD
102
{ACAD_REACTORS
330
F0
102
}
330
F0
100
AcDbVisualStyle
  2
Thicken
 70
    13
177
     3
291
     1
 70
    58
 90
        2
176
     1
 90
        2
176
     1
 90
        1
176
     1
 90
        0
176
     1
 40
0.6
176
     1
 40
30.0
176
     1
 62
     7
420
 16777215
176
     1
 90
        1
176
     1
 90
        4
176
     1
 62
     7
176
     1
 62
   257
176
     1
 90
        1
176
     1
 90
        1
176
     1
 40
1.0
176
     1
 90
       12
176
     1
 62
     7
176
     1
 40
1.0
176
     1
 90
        1
176
     1
 90
        6
176
     1
 90
        2
176
     1
 62
     7
176
     1
 90
        5
176
     1
 90
        0
176
     1
 90
        0
176
     1
290
     0
176
     1
 90
        1
176
     1
 40
0.0
176
     1
 90
        0
176
     1
290
     0
176
     1
290
     1
176
     1
290
     1
176
     1
290
     0
176
     1
290
     0
176
     1
290
     0
176
     1
290
     0
176
     1
290
     0
176
     1
290
     0
176
     1
 90
       50
176
     1
 40
0.0
176
     1
 40
1.0
176
     1
 90
        0
176
     1
 62
    18
176
     1
 90
       50
176
     1
 90
        3
176
     1
 62
     5
420
      255
176
     1
290
     0
176
     1
 90
       50
176
     1
 90
       50
176
     1
 90
       50
176
     1
290
     0
176
     1
 90
       50
176
     1
 62
   256
176
     0
 40
1.0
176
     0
 90
        2
176
     1
  1
strokes_ogs.tif
176
     1
290
     0
176
     1
 40
1.0
176
     1
 40
1.0
176
     1
1001
ACAD
1000
AcDbSavedByObjectVersion
1070
     0
  0
VISUALSTYLE
  5
11F
102
{ACAD_REACTORS
330
F0
102
}
330
F0
100
AcDbVisualStyle
  2
Wireframe
 70
     5
177
     3
291
     0
 70
    58
 90
        0
176
     1
 90
        2
176
     1
 90
        0
176
     1
 90
        0
176
     1
 40
0.6
176
     1
 40
30.0
176
     1
 62
     7
420
 16777215
176
     1
 90
        1
176
     1
 90
        4
176
     1
 62
     7
176
     1
 62
   257
176
     1
 90
        1
176
     1
 90
        1
176
     1
 40
1.0
176
     1
 90
        0
176
     1
 62
   257
176
     1
 40
1.0
176
     1
 90
        1
176
     1
 90
        6
176
     1
 90
        2
176
     1
 62
     7
176
     1
 90
        3
176
     1
 90
        0
176
     1
 90
        0
176
     1
290
     0
176
     1
 90
        1
176
     1
 40
0.0
176
     1
 90
        0
176
     1
290
     0
176
     1
290
     1
176
     1
290
     1
176
     1
290
     0
176
     1
290
     0
176
     1
290
     0
176
     1
290
     0
176
     1
290
     0
176
     1
290
     0
176
     1
 90
       50
176
     1
 40
0.0
176
     1
 40
1.0
176
     1
 90
        0
176
     1
 62
    18
176
     1
 90
       50
176
     1
 90
        3
176
     1
 62
     5
420
      255
176
     1
290
     0
176
     1
 90
       50
176
     1
 90
       50
176
     1
 90
       50
176
     1
290
     0
176
     1
 90
       50
176
     1
 62
   256
176
     0
 40
1.0
176
     0
 90
        2
176
     1
  1
strokes_ogs.tif
176
     1
290
     0
176
     1
 40
1.0
176
     1
 40
1.0
176
     1
1001
ACAD
1000
AcDbSavedByObjectVersion
1070
     0
  0
VISUALSTYLE
  5
123
102
{ACAD_REACTORS
330
F0
102
}
330
F0
100
AcDbVisualStyle
  2
X-Ray
 70
    25
177
     3
291
     0
 70
    58
 90
        2
176
     1
 90
        2
176
     1
 90
        1
176
     1
 90
        1
176
     1
 40
0.5
176
     1
 40
30.0
176
     1
 62
     7
420
 16777215
176
     1
 90
        1
176
     1
 90
        0
176
     1
 62
     7
176
     1
 62
   257
176
     1
 90
        1
176
     1
 90
        1
176
     1
 40
1.0
176
     1
 90
        8
176
     1
 62
     7
176
     1
 40
1.0
176
     1
 90
        1
176
     1
 90
        6
176
     1
 90
        2
176
     1
 62
     7
176
     1
 90
        3
176
     1
 90
        0
176
     1
 90
        0
176
     1
290
     0
176
     1
 90
       13
176
     1
 40
0.0
176
     1
 90
        0
176
     1
290
     0
176
     1
290
     1
176
     1
290
     1
176
     1
290
     0
176
     1
290
     0
176
     1
290
     0
176
     1
290
     0
176
     1
290
     0
176
     1
290
     0
176
     1
 90
       50
176
     1
 40
0.0
176
     1
 40
1.0
176
     1
 90
        0
176
     1
 62
    18
176
     1
 90
       50
176
     1
 90
        3
176
     1
 62
     5
420
      255
176
     1
290
     0
176
     1
 90
       50
176
     1
 90
       50
176
     1
 90
       50
176
     1
290
     0
176
     1
 90
       50
176
     1
 62
   256
176
     0
 40
1.0
176
     0
 90
        2
176
     1
  1
strokes_ogs.tif
176
     1
290
     0
176
     1
 40
1.0
176
     1
 40
1.0
176
     1
1001
ACAD
1000
AcDbSavedByObjectVersion
1070
     0
  0
DICTIONARYVAR
  5
11A7
102
{ACAD_REACTORS
330
5E
102
}
330
5E
100
DictionaryVariables
280
     0
  1
1:1
  0
DICTIONARYVAR
  5
11A4
102
{ACAD_REACTORS
330
5E
102
}
330
5E
100
DictionaryVariables
280
     0
  1
STANDARD
  0
DICTIONARYVAR
  5
84
102
{ACAD_REACTORS
330
5E
102
}
330
5E
100
DictionaryVariables
280
     0
  1
STANDARD
  0
DICTIONARYVAR
  5
11A5
102
{ACAD_REACTORS
330
5E
102
}
330
5E
100
DictionaryVariables
280
     0
  1
Metric50
  0
DICTIONARYVAR
  5
11A6
102
{ACAD_REACTORS
330
5E
102
}
330
5E
100
DictionaryVariables
280
     0
  1
Metric50
  0
DICTIONARYVAR
  5
5F
102
{ACAD_REACTORS
330
5E
102
}
330
5E
100
DictionaryVariables
280
     0
  1
2
  0
DICTIONARYVAR
  5
63
102
{ACAD_REACTORS
330
5E
102
}
330
5E
100
DictionaryVariables
280
     0
  1
1
  0
DICTIONARYVAR
  5
11F7
102
{ACAD_REACTORS
330
5E
102
}
330
5E
100
DictionaryVariables
280
     0
  1
1
  0
DICTIONARYVAR
  5
11F8
102
{ACAD_REACTORS
330
5E
102
}
330
5E
100
DictionaryVariables
280
     0
  1
15
  0
DICTIONARYVAR
  5
11F6
102
{ACAD_REACTORS
330
5E
102
}
330
5E
100
DictionaryVariables
280
     0
  1
0
  0
DICTIONARYVAR
  5
11F5
102
{ACAD_REACTORS
330
5E
102
}
330
5E
100
DictionaryVariables
280
     0
  1
0
  0
DICTIONARYVAR
  5
11A8
102
{ACAD_REACTORS
330
5E
102
}
330
5E
100
DictionaryVariables
280
     0
  1
1
  0
DICTIONARY
  5
1222
330
140
100
AcDbDictionary
280
     1
281
     1
  3
ACAD_XREC_ROUNDTRIP
360
1223
  0
DICTIONARY
  5
1220
330
13E
100
AcDbDictionary
280
     1
281
     1
  3
ACAD_XREC_ROUNDTRIP
360
1221
  0
DICTIONARY
  5
115A
330
7F
100
AcDbDictionary
280
     1
281
     1
  3
ACAD_ROUNDTRIP_2008_TABLESTYLE_CELLSTYLEMAP
360
121E
  0
XRECORD
  5
1223
102
{ACAD_REACTORS
330
1222
102
}
330
1222
100
AcDbXrecord
280
     1
102
DISPLAYNAME
  1
Metric50
102
FLAGS
 90
        0
  0
XRECORD
  5
1221
102
{ACAD_REACTORS
330
1220
102
}
330
1220
100
AcDbXrecord
280
     1
102
DISPLAYNAME
  1
Metric50
102
FLAGS
 90
        0
  0
CELLSTYLEMAP
  5
121E
102
{ACAD_REACTORS
330
115A
102
}
330
115A
100
AcDbCellStyleMap
 90
        3
300
CELLSTYLE
  1
TABLEFORMAT_BEGIN
 90
        5
170
     1
 91
        0
 92
    32768
 62
   257
 93
        1
300
CONTENTFORMAT
  1
CONTENTFORMAT_BEGIN
 90
        0
 91
        0
 92
      512
 93
        0
300

 40
0.0
140
1.0
 94
        5
 62
     0
340
11
144
6.0
309
CONTENTFORMAT_END
171
     1
301
MARGIN
  1
CELLMARGIN_BEGIN
 40
1.5
 40
1.5
 40
1.5
 40
1.5
 40
0.18
 40
0.18
309
CELLMARGIN_END
 94
        6
 95
        1
302
GRIDFORMAT
  1
GRIDFORMAT_BEGIN
 90
        0
 91
        1
 62
     0
 92
       -2
340
0
 93
        0
 40
0.045
309
GRIDFORMAT_END
 95
        2
302
GRIDFORMAT
  1
GRIDFORMAT_BEGIN
 90
        0
 91
        1
 62
     0
 92
       -2
340
0
 93
        0
 40
0.045
309
GRIDFORMAT_END
 95
        4
302
GRIDFORMAT
  1
GRIDFORMAT_BEGIN
 90
        0
 91
        1
 62
     0
 92
       -2
340
0
 93
        0
 40
0.045
309
GRIDFORMAT_END
 95
        8
302
GRIDFORMAT
  1
GRIDFORMAT_BEGIN
 90
        0
 91
        1
 62
     0
 92
       -2
340
0
 93
        0
 40
0.045
309
GRIDFORMAT_END
 95
       16
302
GRIDFORMAT
  1
GRIDFORMAT_BEGIN
 90
        0
 91
        1
 62
     0
 92
       -2
340
0
 93
        0
 40
0.045
309
GRIDFORMAT_END
 95
       32
302
GRIDFORMAT
  1
GRIDFORMAT_BEGIN
 90
        0
 91
        1
 62
     0
 92
       -2
340
0
 93
        0
 40
0.045
309
GRIDFORMAT_END
309
TABLEFORMAT_END
  1
CELLSTYLE_BEGIN
 90
        1
 91
        1
300
_TITLE
309
CELLSTYLE_END
300
CELLSTYLE
  1
TABLEFORMAT_BEGIN
 90
        5
170
     1
 91
        0
 92
        0
 62
   257
 93
        1
300
CONTENTFORMAT
  1
CONTENTFORMAT_BEGIN
 90
        0
 91
        0
 92
      512
 93
        0
300

 40
0.0
140
1.0
 94
        5
 62
     0
340
11
144
4.5
309
CONTENTFORMAT_END
171
     1
301
MARGIN
  1
CELLMARGIN_BEGIN
 40
1.5
 40
1.5
 40
1.5
 40
1.5
 40
0.18
 40
0.18
309
CELLMARGIN_END
 94
        6
 95
        1
302
GRIDFORMAT
  1
GRIDFORMAT_BEGIN
 90
        0
 91
        1
 62
     0
 92
       -2
340
0
 93
        0
 40
0.045
309
GRIDFORMAT_END
 95
        2
302
GRIDFORMAT
  1
GRIDFORMAT_BEGIN
 90
        0
 91
        1
 62
     0
 92
       -2
340
0
 93
        0
 40
0.045
309
GRIDFORMAT_END
 95
        4
302
GRIDFORMAT
  1
GRIDFORMAT_BEGIN
 90
        0
 91
        1
 62
     0
 92
       -2
340
0
 93
        0
 40
0.045
309
GRIDFORMAT_END
 95
        8
302
GRIDFORMAT
  1
GRIDFORMAT_BEGIN
 90
        0
 91
        1
 62
     0
 92
       -2
340
0
 93
        0
 40
0.045
309
GRIDFORMAT_END
 95
       16
302
GRIDFORMAT
  1
GRIDFORMAT_BEGIN
 90
        0
 91
        1
 62
     0
 92
       -2
340
0
 93
        0
 40
0.045
309
GRIDFORMAT_END
 95
       32
302
GRIDFORMAT
  1
GRIDFORMAT_BEGIN
 90
        0
 91
        1
 62
     0
 92
       -2
340
0
 93
        0
 40
0.045
309
GRIDFORMAT_END
309
TABLEFORMAT_END
  1
CELLSTYLE_BEGIN
 90
        2
 91
        1
300
_HEADER
309
CELLSTYLE_END
300
CELLSTYLE
  1
TABLEFORMAT_BEGIN
 90
        5
170
     1
 91
        0
 92
        0
 62
   257
 93
        1
300
CONTENTFORMAT
  1
CONTENTFORMAT_BEGIN
 90
        0
 91
        0
 92
      512
 93
        0
300

 40
0.0
140
1.0
 94
        2
 62
     0
340
11
144
4.5
309
CONTENTFORMAT_END
171
     1
301
MARGIN
  1
CELLMARGIN_BEGIN
 40
1.5
 40
1.5
 40
1.5
 40
1.5
 40
0.18
 40
0.18
309
CELLMARGIN_END
 94
        6
 95
        1
302
GRIDFORMAT
  1
GRIDFORMAT_BEGIN
 90
        0
 91
        1
 62
     0
 92
       -2
340
0
 93
        0
 40
0.045
309
GRIDFORMAT_END
 95
        2
302
GRIDFORMAT
  1
GRIDFORMAT_BEGIN
 90
        0
 91
        1
 62
     0
 92
       -2
340
0
 93
        0
 40
0.045
309
GRIDFORMAT_END
 95
        4
302
GRIDFORMAT
  1
GRIDFORMAT_BEGIN
 90
        0
 91
        1
 62
     0
 92
       -2
340
0
 93
        0
 40
0.045
309
GRIDFORMAT_END
 95
        8
302
GRIDFORMAT
  1
GRIDFORMAT_BEGIN
 90
        0
 91
        1
 62
     0
 92
       -2
340
0
 93
        0
 40
0.045
309
GRIDFORMAT_END
 95
       16
302
GRIDFORMAT
  1
GRIDFORMAT_BEGIN
 90
        0
 91
        1
 62
     0
 92
       -2
340
0
 93
        0
 40
0.045
309
GRIDFORMAT_END
 95
       32
302
GRIDFORMAT
  1
GRIDFORMAT_BEGIN
 90
        0
 91
        1
 62
     0
 92
       -2
340
0
 93
        0
 40
0.045
309
GRIDFORMAT_END
309
TABLEFORMAT_END
  1
CELLSTYLE_BEGIN
 90
        3
 91
        2
300
_DATA
309
CELLSTYLE_END
  0
ENDSEC
  0
EOF
