  0
SECTION
  2
HEADER
  9
$ACADVER
  1
AC1021
  9
$ACADMAINTVER
 70
    50
  9
$DWGCODEPAGE
  3
ANSI_1252
  9
$LASTSAVEDBY
  1
ufficio.tecnico
  9
$INSBASE
 10
0.0
 20
0.0
 30
0.0
  9
$EXTMIN
 10
0.148493391490426
 20
-9.996024044305215
 30
0.0
  9
$EXTMAX
 10
12.37513288901507
 20
-0.7210727528348065
 30
0.0
  9
$LIMMIN
 10
0.0
 20
0.0
  9
$LIMMAX
 10
12.0
 20
9.0
  9
$ORTHOMODE
 70
     0
  9
$REGENMODE
 70
     1
  9
$FILLMODE
 70
     1
  9
$QTEXTMODE
 70
     0
  9
$MIRRTEXT
 70
     0
  9
$LTSCALE
 40
1.0
  9
$ATTMODE
 70
     1
  9
$TEXTSIZE
 40
0.2
  9
$TRACEWID
 40
0.05
  9
$TEXTSTYLE
  7
Standard
  9
$CLAYER
  8
0
  9
$CELTYPE
  6
ByLayer
  9
$CECOLOR
 62
   256
  9
$CELTSCALE
 40
1.0
  9
$DISPSILH
 70
     0
  9
$DIMSCALE
 40
1.0
  9
$DIMASZ
 40
0.18
  9
$DIMEXO
 40
0.0625
  9
$DIMDLI
 40
0.38
  9
$DIMRND
 40
0.0
  9
$DIMDLE
 40
0.0
  9
$DIMEXE
 40
0.18
  9
$DIMTP
 40
0.0
  9
$DIMTM
 40
0.0
  9
$DIMTXT
 40
0.18
  9
$DIMCEN
 40
0.09
  9
$DIMTSZ
 40
0.0
  9
$DIMTOL
 70
     0
  9
$DIMLIM
 70
     0
  9
$DIMTIH
 70
     1
  9
$DIMTOH
 70
     1
  9
$DIMSE1
 70
     0
  9
$DIMSE2
 70
     0
  9
$DIMTAD
 70
     0
  9
$DIMZIN
 70
     0
  9
$DIMBLK
  1

  9
$DIMASO
 70
     1
  9
$DIMSHO
 70
     1
  9
$DIMPOST
  1

  9
$DIMAPOST
  1

  9
$DIMALT
 70
     0
  9
$DIMALTD
 70
     2
  9
$DIMALTF
 40
25.4
  9
$DIMLFAC
 40
1.0
  9
$DIMTOFL
 70
     0
  9
$DIMTVP
 40
0.0
  9
$DIMTIX
 70
     0
  9
$DIMSOXD
 70
     0
  9
$DIMSAH
 70
     0
  9
$DIMBLK1
  1

  9
$DIMBLK2
  1

  9
$DIMSTYLE
  2
Standard
  9
$DIMCLRD
 70
     0
  9
$DIMCLRE
 70
     0
  9
$DIMCLRT
 70
     0
  9
$DIMTFAC
 40
1.0
  9
$DIMGAP
 40
0.09
  9
$DIMJUST
 70
     0
  9
$DIMSD1
 70
     0
  9
$DIMSD2
 70
     0
  9
$DIMTOLJ
 70
     1
  9
$DIMTZIN
 70
     0
  9
$DIMALTZ
 70
     0
  9
$DIMALTTZ
 70
     0
  9
$DIMUPT
 70
     0
  9
$DIMDEC
 70
     4
  9
$DIMTDEC
 70
     4
  9
$DIMALTU
 70
     2
  9
$DIMALTTD
 70
     2
  9
$DIMTXSTY
  7
Standard
  9
$DIMAUNIT
 70
     0
  9
$DIMADEC
 70
     0
  9
$DIMALTRND
 40
0.0
  9
$DIMAZIN
 70
     0
  9
$DIMDSEP
 70
    46
  9
$DIMATFIT
 70
     3
  9
$DIMFRAC
 70
     0
  9
$DIMLDRBLK
  1

  9
$DIMLUNIT
 70
     2
  9
$DIMLWD
 70
    -2
  9
$DIMLWE
 70
    -2
  9
$DIMTMOVE
 70
     0
  9
$DIMFXL
 40
1.0
  9
$DIMFXLON
 70
     0
  9
$DIMJOGANG
 40
0.7853981633974483
  9
$DIMTFILL
 70
     0
  9
$DIMTFILLCLR
 70
     0
  9
$DIMARCSYM
 70
     0
  9
$DIMLTYPE
  6

  9
$DIMLTEX1
  6

  9
$DIMLTEX2
  6

  9
$LUNITS
 70
     2
  9
$LUPREC
 70
     4
  9
$SKETCHINC
 40
0.1
  9
$FILLETRAD
 40
0.0
  9
$AUNITS
 70
     0
  9
$AUPREC
 70
     0
  9
$MENU
  1
.
  9
$ELEVATION
 40
0.0
  9
$PELEVATION
 40
0.0
  9
$THICKNESS
 40
0.0
  9
$LIMCHECK
 70
     0
  9
$CHAMFERA
 40
0.0
  9
$CHAMFERB
 40
0.0
  9
$CHAMFERC
 40
0.0
  9
$CHAMFERD
 40
0.0
  9
$SKPOLY
 70
     0
  9
$TDCREATE
 40
2459457.581562500
  9
$TDUCREATE
 40
2459457.498229167
  9
$TDUPDATE
 40
2459457.728194444
  9
$TDUUPDATE
 40
2459457.644861111
  9
$TDINDWG
 40
0.0013541667
  9
$TDUSRTIMER
 40
0.0013541667
  9
$USRTIMER
 70
     1
  9
$ANGBASE
 50
0.0
  9
$ANGDIR
 70
     0
  9
$PDMODE
 70
     0
  9
$PDSIZE
 40
0.0
  9
$PLINEWID
 40
0.0
  9
$SPLFRAME
 70
     0
  9
$SPLINETYPE
 70
     6
  9
$SPLINESEGS
 70
     8
  9
$HANDSEED
  5
19D
  9
$SURFTAB1
 70
     6
  9
$SURFTAB2
 70
     6
  9
$SURFTYPE
 70
     6
  9
$SURFU
 70
     6
  9
$SURFV
 70
     6
  9
$UCSBASE
  2

  9
$UCSNAME
  2

  9
$UCSORG
 10
0.0
 20
0.0
 30
0.0
  9
$UCSXDIR
 10
1.0
 20
0.0
 30
0.0
  9
$UCSYDIR
 10
0.0
 20
1.0
 30
0.0
  9
$UCSORTHOREF
  2

  9
$UCSORTHOVIEW
 70
     0
  9
$UCSORGTOP
 10
0.0
 20
0.0
 30
0.0
  9
$UCSORGBOTTOM
 10
0.0
 20
0.0
 30
0.0
  9
$UCSORGLEFT
 10
0.0
 20
0.0
 30
0.0
  9
$UCSORGRIGHT
 10
0.0
 20
0.0
 30
0.0
  9
$UCSORGFRONT
 10
0.0
 20
0.0
 30
0.0
  9
$UCSORGBACK
 10
0.0
 20
0.0
 30
0.0
  9
$PUCSBASE
  2

  9
$PUCSNAME
  2

  9
$PUCSORG
 10
0.0
 20
0.0
 30
0.0
  9
$PUCSXDIR
 10
1.0
 20
0.0
 30
0.0
  9
$PUCSYDIR
 10
0.0
 20
1.0
 30
0.0
  9
$PUCSORTHOREF
  2

  9
$PUCSORTHOVIEW
 70
     0
  9
$PUCSORGTOP
 10
0.0
 20
0.0
 30
0.0
  9
$PUCSORGBOTTOM
 10
0.0
 20
0.0
 30
0.0
  9
$PUCSORGLEFT
 10
0.0
 20
0.0
 30
0.0
  9
$PUCSORGRIGHT
 10
0.0
 20
0.0
 30
0.0
  9
$PUCSORGFRONT
 10
0.0
 20
0.0
 30
0.0
  9
$PUCSORGBACK
 10
0.0
 20
0.0
 30
0.0
  9
$USERI1
 70
     0
  9
$USERI2
 70
     0
  9
$USERI3
 70
     0
  9
$USERI4
 70
     0
  9
$USERI5
 70
     0
  9
$USERR1
 40
0.0
  9
$USERR2
 40
0.0
  9
$USERR3
 40
0.0
  9
$USERR4
 40
0.0
  9
$USERR5
 40
0.0
  9
$WORLDVIEW
 70
     1
  9
$SHADEDGE
 70
     3
  9
$SHADEDIF
 70
    70
  9
$TILEMODE
 70
     1
  9
$MAXACTVP
 70
    64
  9
$PINSBASE
 10
0.0
 20
0.0
 30
0.0
  9
$PLIMCHECK
 70
     0
  9
$PEXTMIN
 10
1.000000000000000E+20
 20
1.000000000000000E+20
 30
1.000000000000000E+20
  9
$PEXTMAX
 10
-1.000000000000000E+20
 20
-1.000000000000000E+20
 30
-1.000000000000000E+20
  9
$PLIMMIN
 10
0.0
 20
0.0
  9
$PLIMMAX
 10
12.0
 20
9.0
  9
$UNITMODE
 70
     0
  9
$VISRETAIN
 70
     1
  9
$PLINEGEN
 70
     0
  9
$PSLTSCALE
 70
     1
  9
$TREEDEPTH
 70
  3020
  9
$CMLSTYLE
  2
Standard
  9
$CMLJUST
 70
     0
  9
$CMLSCALE
 40
1.0
  9
$PROXYGRAPHICS
 70
     1
  9
$MEASUREMENT
 70
     0
  9
$CELWEIGHT
370
    -1
  9
$ENDCAPS
280
     0
  9
$JOINSTYLE
280
     0
  9
$LWDISPLAY
290
     1
  9
$INSUNITS
 70
     5
  9
$HYPERLINKBASE
  1

  9
$STYLESHEET
  1

  9
$XEDIT
290
     1
  9
$CEPSNTYPE
380
     0
  9
$PSTYLEMODE
290
     1
  9
$FINGERPRINTGUID
  2
{512CA02C-F0B1-5040-9172-D6222DB8E91E}
  9
$VERSIONGUID
  2
{B11E896A-DD79-E948-91DE-C30EB77B42A7}
  9
$EXTNAMES
290
     1
  9
$PSVPSCALE
 40
0.0
  9
$OLESTARTUP
290
     0
  9
$SORTENTS
280
   127
  9
$INDEXCTL
280
     0
  9
$HIDETEXT
280
     1
  9
$XCLIPFRAME
290
     0
  9
$HALOGAP
280
     0
  9
$OBSCOLOR
 70
   257
  9
$OBSLTYPE
280
     0
  9
$INTERSECTIONDISPLAY
280
     0
  9
$INTERSECTIONCOLOR
 70
   257
  9
$DIMASSOC
280
     2
  9
$PROJECTNAME
  1

  9
$CAMERADISPLAY
290
     0
  9
$LENSLENGTH
 40
50.0
  9
$CAMERAHEIGHT
 40
0.0
  9
$STEPSPERSEC
 40
2.0
  9
$STEPSIZE
 40
6.0
  9
$3DDWFPREC
 40
2.0
  9
$PSOLWIDTH
 40
0.25
  9
$PSOLHEIGHT
 40
4.0
  9
$LOFTANG1
 40
1.570796326794896
  9
$LOFTANG2
 40
1.570796326794896
  9
$LOFTMAG1
 40
0.0
  9
$LOFTMAG2
 40
0.0
  9
$LOFTPARAM
 70
     7
  9
$LOFTNORMALS
280
     1
  9
$LATITUDE
 40
37.795
  9
$LONGITUDE
 40
-122.394
  9
$NORTHDIRECTION
 40
0.0
  9
$TIMEZONE
 70
 -8000
  9
$LIGHTGLYPHDISPLAY
280
     1
  9
$TILEMODELIGHTSYNCH
280
     1
  9
$CMATERIAL
347
11
  9
$SOLIDHIST
280
     0
  9
$SHOWHIST
280
     1
  9
$DWFFRAME
280
     2
  9
$DGNFRAME
280
     0
  9
$REALWORLDSCALE
290
     1
  9
$INTERFERECOLOR
 62
     1
  9
$INTERFEREOBJVS
345
33
  9
$INTERFEREVPVS
346
30
  9
$CSHADOW
280
     0
  9
$SHADOWPLANELOCATION
 40
0.0
  0
ENDSEC
  0
SECTION
  2
CLASSES
  0
CLASS
  1
ACDBDICTIONARYWDFLT
  2
AcDbDictionaryWithDefault
  3
ObjectDBX Classes
 90
        0
 91
        1
280
     0
281
     0
  0
CLASS
  1
MATERIAL
  2
AcDbMaterial
  3
ObjectDBX Classes
 90
     1153
 91
        3
280
     0
281
     0
  0
CLASS
  1
VISUALSTYLE
  2
AcDbVisualStyle
  3
ObjectDBX Classes
 90
     4095
 91
       24
280
     0
281
     0
  0
CLASS
  1
SCALE
  2
AcDbScale
  3
ObjectDBX Classes
 90
     1153
 91
       17
280
     0
281
     0
  0
CLASS
  1
TABLESTYLE
  2
AcDbTableStyle
  3
ObjectDBX Classes
 90
     4095
 91
        1
280
     0
281
     0
  0
CLASS
  1
MLEADERSTYLE
  2
AcDbMLeaderStyle
  3
ACDB_MLEADERSTYLE_CLASS
 90
     4095
 91
        1
280
     0
281
     0
  0
CLASS
  1
ACDBSECTIONVIEWSTYLE
  2
AcDbSectionViewStyle
  3
ObjectDBX Classes
 90
     1025
 91
        1
280
     0
281
     0
  0
CLASS
  1
ACDBDETAILVIEWSTYLE
  2
AcDbDetailViewStyle
  3
ObjectDBX Classes
 90
     1025
 91
        1
280
     0
281
     0
  0
CLASS
  1
DICTIONARYVAR
  2
AcDbDictionaryVar
  3
ObjectDBX Classes
 90
        0
 91
        6
280
     0
281
     0
  0
CLASS
  1
CELLSTYLEMAP
  2
AcDbCellStyleMap
  3
ObjectDBX Classes
 90
     1152
 91
        3
280
     0
281
     0
  0
ENDSEC
  0
SECTION
  2
TABLES
  0
TABLE
  2
VPORT
  5
8
330
0
100
AcDbSymbolTable
 70
     1
  0
VPORT
  5
57
330
8
100
AcDbSymbolTableRecord
100
AcDbViewportTableRecord
  2
*Active
 70
     0
 10
0.0
 20
0.0
 11
1.0
 21
1.0
 12
9.413972125660343
 22
-5.118080383186097
 13
0.0
 23
0.0
 14
1.0
 24
1.0
 15
0.0
 25
0.0
 16
0.0
 26
0.0
 36
1.0
 17
4.999999998749408
 27
-4.999999998749408
 37
0.0
 40
25.3864153854374
 41
2.545333333333333
 42
50.0
 43
0.0
 44
0.0
 50
0.0
 51
0.0
 71
     0
 72
   100
 73
     1
 74
     0
 75
     1
 76
     0
 77
     0
 78
     0
281
     0
 65
     1
110
0.0
120
0.0
130
0.0
111
1.0
121
0.0
131
0.0
112
0.0
122
1.0
132
0.0
 79
     0
146
0.0
348
2F
 60
     3
 61
     5
292
     1
282
     1
141
0.0
142
0.0
 63
   250
421
  3355443
1001
ACAD_NAV_VCDISPLAY
1070
     3
  0
ENDTAB
  0
TABLE
  2
LTYPE
  5
5
330
0
100
AcDbSymbolTable
 70
     2
  0
LTYPE
  5
5B
330
5
100
AcDbSymbolTableRecord
100
AcDbLinetypeTableRecord
  2
ByBlock
 70
     0
  3

 72
    65
 73
     0
 40
0.0
  0
LTYPE
  5
5C
330
5
100
AcDbSymbolTableRecord
100
AcDbLinetypeTableRecord
  2
ByLayer
 70
     0
  3

 72
    65
 73
     0
 40
0.0
  0
LTYPE
  5
5D
330
5
100
AcDbSymbolTableRecord
100
AcDbLinetypeTableRecord
  2
Continuous
 70
     0
  3
Solid line
 72
    65
 73
     0
 40
0.0
  0
ENDTAB
  0
TABLE
  2
LAYER
  5
2
330
0
100
AcDbSymbolTable
 70
     3
  0
LAYER
  5
54
330
2
100
AcDbSymbolTableRecord
100
AcDbLayerTableRecord
  2
0
 70
     0
 62
     7
  6
Continuous
370
    -3
390
F
347
21
  0
LAYER
  5
78
330
2
100
AcDbSymbolTableRecord
100
AcDbLayerTableRecord
  2
Livello 1
 70
     0
 62
     7
  6
Continuous
370
     0
390
F
347
21
  0
LAYER
  5
7D
330
2
100
AcDbSymbolTableRecord
100
AcDbLayerTableRecord
  2
Livello 2
 70
     0
 62
     7
  6
Continuous
370
     0
390
F
347
21
  0
ENDTAB
  0
TABLE
  2
STYLE
  5
3
330
0
100
AcDbSymbolTable
 70
     2
  0
STYLE
  5
55
330
3
100
AcDbSymbolTableRecord
100
AcDbTextStyleTableRecord
  2
Standard
 70
     0
 40
0.0
 41
1.0
 50
0.0
 71
     0
 42
0.2
  3
txt
  4

  0
STYLE
  5
5A
330
3
100
AcDbSymbolTableRecord
100
AcDbTextStyleTableRecord
  2
Annotative
 70
     0
 40
0.0
 41
1.0
 50
0.0
 71
     0
 42
0.2
  3
txt
  4

1001
AcadAnnotative
1000
AnnotativeData
1002
{
1070
     1
1070
     1
1002
}
  0
ENDTAB
  0
TABLE
  2
VIEW
  5
6
330
0
100
AcDbSymbolTable
 70
     0
  0
ENDTAB
  0
TABLE
  2
UCS
  5
7
330
0
100
AcDbSymbolTable
 70
     0
  0
ENDTAB
  0
TABLE
  2
APPID
  5
9
330
0
100
AcDbSymbolTable
 70
     5
  0
APPID
  5
56
330
9
100
AcDbSymbolTableRecord
100
AcDbRegAppTableRecord
  2
ACAD
 70
     0
  0
APPID
  5
5E
330
9
100
AcDbSymbolTableRecord
100
AcDbRegAppTableRecord
  2
AcadAnnotative
 70
     0
  0
APPID
  5
114
330
9
100
AcDbSymbolTableRecord
100
AcDbRegAppTableRecord
  2
ACAD_EXEMPT_FROM_CAD_STANDARDS
 70
     0
  0
APPID
  5
117
330
9
100
AcDbSymbolTableRecord
100
AcDbRegAppTableRecord
  2
ACAD_NAV_VCDISPLAY
 70
     0
  0
APPID
  5
196
330
9
100
AcDbSymbolTableRecord
100
AcDbRegAppTableRecord
  2
ACAD_MLEADERVER
 70
     0
  0
ENDTAB
  0
TABLE
  2
DIMSTYLE
  5
A
330
0
100
AcDbSymbolTable
 70
     2
100
AcDbDimStyleTable
 71
     0
  0
DIMSTYLE
105
58
330
A
100
AcDbSymbolTableRecord
100
AcDbDimStyleTableRecord
  2
Standard
 70
     0
340
55
  0
DIMSTYLE
105
59
330
A
100
AcDbSymbolTableRecord
100
AcDbDimStyleTableRecord
  2
Annotative
 70
     0
340
55
1001
AcadAnnotative
1000
AnnotativeData
1002
{
1070
     1
1070
     1
1002
}
  0
ENDTAB
  0
TABLE
  2
BLOCK_RECORD
  5
1
330
0
100
AcDbSymbolTable
 70
    12
  0
BLOCK_RECORD
  5
70
330
1
100
AcDbSymbolTableRecord
100
AcDbBlockTableRecord
  2
*Model_Space
340
73
 70
     0
280
     1
281
     0
  0
BLOCK_RECORD
  5
6C
330
1
100
AcDbSymbolTableRecord
100
AcDbBlockTableRecord
  2
*Paper_Space
340
6F
 70
     0
280
     1
281
     0
  0
BLOCK_RECORD
  5
74
330
1
100
AcDbSymbolTableRecord
100
AcDbBlockTableRecord
  2
*Paper_Space0
340
77
 70
     0
280
     1
281
     0
  0
BLOCK_RECORD
  5
82
330
1
100
AcDbSymbolTableRecord
100
AcDbBlockTableRecord
  2
Block_0
340
0
 70
     0
280
     1
281
     0
  0
BLOCK_RECORD
  5
86
330
1
100
AcDbSymbolTableRecord
100
AcDbBlockTableRecord
  2
Block_1
340
0
102
{BLKREFS
331
87
102
}
 70
     0
280
     1
281
     0
  0
BLOCK_RECORD
  5
95
330
1
100
AcDbSymbolTableRecord
100
AcDbBlockTableRecord
  2
Block_2
340
0
 70
     0
280
     1
281
     0
  0
BLOCK_RECORD
  5
99
330
1
100
AcDbSymbolTableRecord
100
AcDbBlockTableRecord
  2
Block_3
340
0
102
{BLKREFS
331
9A
102
}
 70
     0
280
     1
281
     0
  0
BLOCK_RECORD
  5
AB
330
1
100
AcDbSymbolTableRecord
100
AcDbBlockTableRecord
  2
Block_4
340
0
 70
     0
280
     1
281
     0
  0
BLOCK_RECORD
  5
AF
330
1
100
AcDbSymbolTableRecord
100
AcDbBlockTableRecord
  2
Block_5
340
0
102
{BLKREFS
331
B0
102
}
 70
     0
280
     1
281
     0
  0
BLOCK_RECORD
  5
BD
330
1
100
AcDbSymbolTableRecord
100
AcDbBlockTableRecord
  2
Block_6
340
0
 70
     0
280
     1
281
     0
  0
BLOCK_RECORD
  5
C1
330
1
100
AcDbSymbolTableRecord
100
AcDbBlockTableRecord
  2
Block_7
340
0
102
{BLKREFS
331
C2
102
}
 70
     0
280
     1
281
     0
  0
ENDTAB
  0
ENDSEC
  0
SECTION
  2
BLOCKS
  0
BLOCK
  5
71
330
70
100
AcDbEntity
  8
0
100
AcDbBlockBegin
  2
*Model_Space
 70
     0
 10
0.0
 20
0.0
 30
0.0
  3
*Model_Space
  1

  0
ENDBLK
  5
72
330
70
100
AcDbEntity
  8
0
100
AcDbBlockEnd
  0
BLOCK
  5
6D
330
6C
100
AcDbEntity
 67
     1
  8
0
100
AcDbBlockBegin
  2
*Paper_Space
 70
     0
 10
0.0
 20
0.0
 30
0.0
  3
*Paper_Space
  1

  0
ENDBLK
  5
6E
330
6C
100
AcDbEntity
 67
     1
  8
0
100
AcDbBlockEnd
  0
BLOCK
  5
75
330
74
100
AcDbEntity
 67
     1
  8
0
100
AcDbBlockBegin
  2
*Paper_Space0
 70
     0
 10
0.0
 20
0.0
 30
0.0
  3
*Paper_Space0
  1

  0
ENDBLK
  5
76
330
74
100
AcDbEntity
 67
     1
  8
0
100
AcDbBlockEnd
  0
BLOCK
  5
84
330
82
100
AcDbEntity
  8
0
100
AcDbBlockBegin
  2
Block_0
 70
     0
 10
0.0
 20
0.0
 30
0.0
  3
Block_0
  1

  0
INSERT
  5
87
330
82
100
AcDbEntity
  8
Livello 2
100
AcDbBlockReference
  2
Block_1
 10
0.0
 20
0.0
 30
0.0
  0
ENDBLK
  5
85
330
82
100
AcDbEntity
  8
0
100
AcDbBlockEnd
  0
BLOCK
  5
88
330
86
100
AcDbEntity
  8
0
100
AcDbBlockBegin
  2
Block_1
 70
     0
 10
0.0
 20
0.0
 30
0.0
  3
Block_1
  1

  0
SPLINE
  5
8A
330
86
100
AcDbEntity
  8
Livello 2
100
AcDbSpline
210
0.0
220
0.0
230
1.0
 70
    11
 71
     3
 72
    47
 73
    43
 74
     0
 42
0.000000001
 43
0.0000000001
 40
0.0
 40
0.0
 40
0.0
 40
0.0
 40
1.0
 40
1.0
 40
1.0
 40
2.0
 40
2.0
 40
2.0
 40
3.0
 40
3.0
 40
3.0
 40
4.0
 40
4.0
 40
4.0
 40
5.0
 40
5.0
 40
5.0
 40
6.0
 40
6.0
 40
6.0
 40
7.0
 40
7.0
 40
7.0
 40
8.0
 40
8.0
 40
8.0
 40
9.0
 40
9.0
 40
9.0
 40
10.0
 40
10.0
 40
10.0
 40
11.0
 40
11.0
 40
11.0
 40
12.0
 40
12.0
 40
12.0
 40
13.0
 40
13.0
 40
13.0
 40
14.0
 40
14.0
 40
14.0
 40
14.0
 10
4.148032768060212
 20
-9.479249129574633
 30
0.0
 10
4.148032768060212
 20
-9.479249129574633
 30
0.0
 10
4.148032768060212
 20
-9.456408146507424
 30
0.0
 10
4.148032768060212
 20
-9.456408146507424
 30
0.0
 10
4.148032768060212
 20
-9.456408146507424
 30
0.0
 10
4.177229952297706
 20
-9.428055010663818
 30
0.0
 10
4.177229952297706
 20
-9.428055010663818
 30
0.0
 10
4.247458223764524
 20
-9.361220158249972
 30
0.0
 10
4.2792047786611
 20
-9.325666772842193
 30
0.0
 10
4.279618190119331
 20
-9.284187823199783
 30
0.0
 10
4.279618190119331
 20
-9.25628254976926
 30
0.0
 10
4.266078964862298
 20
-9.23047878458474
 30
0.0
 10
4.225047877632973
 20
-9.23047878458474
 30
0.0
 10
4.200088160842337
 20
-9.23047878458474
 30
0.0
 10
4.179348686021135
 20
-9.24315673597046
 30
0.0
 10
4.166653509157988
 20
-9.253733179110176
 30
0.0
 10
4.166653509157988
 20
-9.253733179110176
 30
0.0
 10
4.154802380688728
 20
-9.227516002467426
 30
0.0
 10
4.154802380688728
 20
-9.227516002467426
 30
0.0
 10
4.17385375872216
 20
-9.211427406551306
 30
0.0
 10
4.200932209236223
 20
-9.199576278082052
 30
0.0
 10
4.232661538655375
 20
-9.199576278082052
 30
0.0
 10
4.291899955524247
 20
-9.199576278082052
 30
0.0
 10
4.316859672314881
 20
-9.240193953853145
 30
0.0
 10
4.316859672314881
 20
-9.279536944294695
 30
0.0
 10
4.316859672314881
 20
-9.330317651747279
 30
0.0
 10
4.280048827054987
 20
-9.371348738976607
 30
0.0
 10
4.222085095515659
 20
-9.427193736792505
 30
0.0
 10
4.222085095515659
 20
-9.427193736792505
 30
0.0
 10
4.200088160842337
 20
-9.447519800155479
 30
0.0
 10
4.200088160842337
 20
-9.447519800155479
 30
0.0
 10
4.200088160842337
 20
-9.447519800155479
 30
0.0
 10
4.200088160842337
 20
-9.448346623071939
 30
0.0
 10
4.200088160842337
 20
-9.448346623071939
 30
0.0
 10
4.200088160842337
 20
-9.448346623071939
 30
0.0
 10
4.323629284943398
 20
-9.448346623071939
 30
0.0
 10
4.323629284943398
 20
-9.448346623071939
 30
0.0
 10
4.323629284943398
 20
-9.448346623071939
 30
0.0
 10
4.323629284943398
 20
-9.479249129574633
 30
0.0
 10
4.323629284943398
 20
-9.479249129574633
 30
0.0
 10
4.323629284943398
 20
-9.479249129574633
 30
0.0
 10
4.148032768060212
 20
-9.479249129574633
 30
0.0
 10
4.148032768060212
 20
-9.479249129574633
 30
0.0
  0
HATCH
  5
8B
330
86
100
AcDbEntity
  8
Livello 2
 62
   250
420
  1907995
440
 33554687
100
AcDbHatch
 10
0.0
 20
0.0
 30
0.0
210
0.0
220
0.0
230
1.0
  2
SOLID
 70
     1
 71
     1
 91
        1
 92
        1
 93
        1
 72
     4
 94
        3
 73
     0
 74
     0
 95
       47
 96
       43
 40
0.0
 40
0.0
 40
0.0
 40
0.0
 40
1.0
 40
1.0
 40
1.0
 40
2.0
 40
2.0
 40
2.0
 40
3.0
 40
3.0
 40
3.0
 40
4.0
 40
4.0
 40
4.0
 40
5.0
 40
5.0
 40
5.0
 40
6.0
 40
6.0
 40
6.0
 40
7.0
 40
7.0
 40
7.0
 40
8.0
 40
8.0
 40
8.0
 40
9.0
 40
9.0
 40
9.0
 40
10.0
 40
10.0
 40
10.0
 40
11.0
 40
11.0
 40
11.0
 40
12.0
 40
12.0
 40
12.0
 40
13.0
 40
13.0
 40
13.0
 40
14.0
 40
14.0
 40
14.0
 40
14.0
 10
4.148032768060212
 20
-9.479249129574633
 10
4.148032768060212
 20
-9.479249129574633
 10
4.148032768060212
 20
-9.456408146507424
 10
4.148032768060212
 20
-9.456408146507424
 10
4.148032768060212
 20
-9.456408146507424
 10
4.177229952297706
 20
-9.428055010663818
 10
4.177229952297706
 20
-9.428055010663818
 10
4.247458223764524
 20
-9.361220158249972
 10
4.2792047786611
 20
-9.325666772842193
 10
4.279618190119331
 20
-9.284187823199783
 10
4.279618190119331
 20
-9.25628254976926
 10
4.266078964862298
 20
-9.23047878458474
 10
4.225047877632973
 20
-9.23047878458474
 10
4.200088160842337
 20
-9.23047878458474
 10
4.179348686021135
 20
-9.24315673597046
 10
4.166653509157988
 20
-9.253733179110176
 10
4.166653509157988
 20
-9.253733179110176
 10
4.154802380688728
 20
-9.227516002467426
 10
4.154802380688728
 20
-9.227516002467426
 10
4.17385375872216
 20
-9.211427406551306
 10
4.200932209236223
 20
-9.199576278082052
 10
4.232661538655375
 20
-9.199576278082052
 10
4.291899955524247
 20
-9.199576278082052
 10
4.316859672314881
 20
-9.240193953853145
 10
4.316859672314881
 20
-9.279536944294695
 10
4.316859672314881
 20
-9.330317651747279
 10
4.280048827054987
 20
-9.371348738976607
 10
4.222085095515659
 20
-9.427193736792505
 10
4.222085095515659
 20
-9.427193736792505
 10
4.200088160842337
 20
-9.447519800155479
 10
4.200088160842337
 20
-9.447519800155479
 10
4.200088160842337
 20
-9.447519800155479
 10
4.200088160842337
 20
-9.448346623071939
 10
4.200088160842337
 20
-9.448346623071939
 10
4.200088160842337
 20
-9.448346623071939
 10
4.323629284943398
 20
-9.448346623071939
 10
4.323629284943398
 20
-9.448346623071939
 10
4.323629284943398
 20
-9.448346623071939
 10
4.323629284943398
 20
-9.479249129574633
 10
4.323629284943398
 20
-9.479249129574633
 10
4.323629284943398
 20
-9.479249129574633
 10
4.148032768060212
 20
-9.479249129574633
 10
4.148032768060212
 20
-9.479249129574633
 97
        1
330
8A
 75
     2
 76
     1
 98
        1
 10
0.0
 20
0.0
450
        0
451
        0
460
0.0
461
0.0
452
        0
462
0.0
453
        0
470

  0
SPLINE
  5
8C
330
86
100
AcDbEntity
  8
Livello 2
100
AcDbSpline
210
0.0
220
0.0
230
1.0
 70
    11
 71
     3
 72
    29
 73
    25
 74
     0
 42
0.000000001
 43
0.0000000001
 40
0.0
 40
0.0
 40
0.0
 40
0.0
 40
1.0
 40
1.0
 40
1.0
 40
2.0
 40
2.0
 40
2.0
 40
3.0
 40
3.0
 40
3.0
 40
4.0
 40
4.0
 40
4.0
 40
5.0
 40
5.0
 40
5.0
 40
6.0
 40
6.0
 40
6.0
 40
7.0
 40
7.0
 40
7.0
 40
8.0
 40
8.0
 40
8.0
 40
8.0
 10
4.446016302056898
 20
-9.2389192685236
 30
0.0
 10
4.446016302056898
 20
-9.2389192685236
 30
0.0
 10
4.445172253663011
 20
-9.2389192685236
 30
0.0
 10
4.445172253663011
 20
-9.2389192685236
 30
0.0
 10
4.445172253663011
 20
-9.2389192685236
 30
0.0
 10
4.397354328327743
 20
-9.264723033708122
 30
0.0
 10
4.397354328327743
 20
-9.264723033708122
 30
0.0
 10
4.397354328327743
 20
-9.264723033708122
 30
0.0
 10
4.390154078763571
 20
-9.236404348819368
 30
0.0
 10
4.390154078763571
 20
-9.236404348819368
 30
0.0
 10
4.390154078763571
 20
-9.236404348819368
 30
0.0
 10
4.450236544026329
 20
-9.204227156987137
 30
0.0
 10
4.450236544026329
 20
-9.204227156987137
 30
0.0
 10
4.450236544026329
 20
-9.204227156987137
 30
0.0
 10
4.481983098922906
 20
-9.204227156987137
 30
0.0
 10
4.481983098922906
 20
-9.204227156987137
 30
0.0
 10
4.481983098922906
 20
-9.204227156987137
 30
0.0
 10
4.481983098922906
 20
-9.479249129574633
 30
0.0
 10
4.481983098922906
 20
-9.479249129574633
 30
0.0
 10
4.481983098922906
 20
-9.479249129574633
 30
0.0
 10
4.446016302056898
 20
-9.479249129574633
 30
0.0
 10
4.446016302056898
 20
-9.479249129574633
 30
0.0
 10
4.446016302056898
 20
-9.479249129574633
 30
0.0
 10
4.446016302056898
 20
-9.2389192685236
 30
0.0
 10
4.446016302056898
 20
-9.2389192685236
 30
0.0
  0
HATCH
  5
8D
330
86
100
AcDbEntity
  8
Livello 2
 62
   250
420
  1907995
440
 33554687
100
AcDbHatch
 10
0.0
 20
0.0
 30
0.0
210
0.0
220
0.0
230
1.0
  2
SOLID
 70
     1
 71
     1
 91
        1
 92
        1
 93
        1
 72
     4
 94
        3
 73
     0
 74
     0
 95
       29
 96
       25
 40
0.0
 40
0.0
 40
0.0
 40
0.0
 40
1.0
 40
1.0
 40
1.0
 40
2.0
 40
2.0
 40
2.0
 40
3.0
 40
3.0
 40
3.0
 40
4.0
 40
4.0
 40
4.0
 40
5.0
 40
5.0
 40
5.0
 40
6.0
 40
6.0
 40
6.0
 40
7.0
 40
7.0
 40
7.0
 40
8.0
 40
8.0
 40
8.0
 40
8.0
 10
4.446016302056898
 20
-9.2389192685236
 10
4.446016302056898
 20
-9.2389192685236
 10
4.445172253663011
 20
-9.2389192685236
 10
4.445172253663011
 20
-9.2389192685236
 10
4.445172253663011
 20
-9.2389192685236
 10
4.397354328327743
 20
-9.264723033708122
 10
4.397354328327743
 20
-9.264723033708122
 10
4.397354328327743
 20
-9.264723033708122
 10
4.390154078763571
 20
-9.236404348819368
 10
4.390154078763571
 20
-9.236404348819368
 10
4.390154078763571
 20
-9.236404348819368
 10
4.450236544026329
 20
-9.204227156987137
 10
4.450236544026329
 20
-9.204227156987137
 10
4.450236544026329
 20
-9.204227156987137
 10
4.481983098922906
 20
-9.204227156987137
 10
4.481983098922906
 20
-9.204227156987137
 10
4.481983098922906
 20
-9.204227156987137
 10
4.481983098922906
 20
-9.479249129574633
 10
4.481983098922906
 20
-9.479249129574633
 10
4.481983098922906
 20
-9.479249129574633
 10
4.446016302056898
 20
-9.479249129574633
 10
4.446016302056898
 20
-9.479249129574633
 10
4.446016302056898
 20
-9.479249129574633
 10
4.446016302056898
 20
-9.2389192685236
 10
4.446016302056898
 20
-9.2389192685236
 97
        1
330
8C
 75
     2
 76
     1
 98
        1
 10
0.0
 20
0.0
450
        0
451
        0
460
0.0
461
0.0
452
        0
462
0.0
453
        0
470

  0
SPLINE
  5
8E
330
86
100
AcDbEntity
  8
Livello 2
100
AcDbSpline
210
0.0
220
0.0
230
1.0
 70
     9
 71
     3
 72
    17
 73
    13
 74
     0
 42
0.000000001
 43
0.0000000001
 40
0.0
 40
0.0
 40
0.0
 40
0.0
 40
1.0
 40
1.0
 40
1.0
 40
2.0
 40
2.0
 40
2.0
 40
3.0
 40
3.0
 40
3.0
 40
4.0
 40
4.0
 40
4.0
 40
4.0
 10
4.615807833047436
 20
-9.342995603132999
 30
0.0
 10
4.615807833047436
 20
-9.414515785406788
 30
0.0
 10
4.637787542243329
 20
-9.455133461177883
 30
0.0
 10
4.671652830863335
 20
-9.455133461177883
 30
0.0
 10
4.709721135975346
 20
-9.455133461177883
 30
0.0
 10
4.727911240137465
 20
-9.410691729418159
 30
0.0
 10
4.727911240137465
 20
-9.340480683428767
 30
0.0
 10
4.727911240137465
 20
-9.272784557143607
 30
0.0
 10
4.710582409846659
 20
-9.228342825383881
 30
0.0
 10
4.672066242321566
 20
-9.228342825383881
 30
0.0
 10
4.639510089985955
 20
-9.228342825383881
 30
0.0
 10
4.615807833047436
 20
-9.26813367823852
 30
0.0
 10
4.615807833047436
 20
-9.342995603132999
 30
0.0
  0
SPLINE
  5
8F
330
86
100
AcDbEntity
  8
Livello 2
100
AcDbSpline
210
0.0
220
0.0
230
1.0
 70
     9
 71
     3
 72
    17
 73
    13
 74
     0
 42
0.000000001
 43
0.0000000001
 40
0.0
 40
0.0
 40
0.0
 40
0.0
 40
1.0
 40
1.0
 40
1.0
 40
2.0
 40
2.0
 40
2.0
 40
3.0
 40
3.0
 40
3.0
 40
4.0
 40
4.0
 40
4.0
 40
4.0
 10
4.765152722333016
 20
-9.338792586640995
 30
0.0
 10
4.765152722333016
 20
-9.432292478110674
 30
0.0
 10
4.73046061079655
 20
-9.483900008479716
 30
0.0
 10
4.669551322617333
 20
-9.483900008479716
 30
0.0
 10
4.615807833047436
 20
-9.483900008479716
 30
0.0
 10
4.579427624723198
 20
-9.433567163440216
 30
0.0
 10
4.578566350851884
 20
-9.34258219167477
 30
0.0
 10
4.578566350851884
 20
-9.250356985534633
 30
0.0
 10
4.618357203706521
 20
-9.199576278082052
 30
0.0
 10
4.67420220152242
 20
-9.199576278082052
 30
0.0
 10
4.732148707584323
 20
-9.199576278082052
 30
0.0
 10
4.765152722333016
 20
-9.251183808451092
 30
0.0
 10
4.765152722333016
 20
-9.338792586640995
 30
0.0
  0
HATCH
  5
90
330
86
100
AcDbEntity
  8
Livello 2
 62
   250
420
  1907995
440
 33554687
100
AcDbHatch
 10
0.0
 20
0.0
 30
0.0
210
0.0
220
0.0
230
1.0
  2
SOLID
 70
     1
 71
     1
 91
        2
 92
        1
 93
        1
 72
     4
 94
        3
 73
     0
 74
     0
 95
       17
 96
       13
 40
0.0
 40
0.0
 40
0.0
 40
0.0
 40
1.0
 40
1.0
 40
1.0
 40
2.0
 40
2.0
 40
2.0
 40
3.0
 40
3.0
 40
3.0
 40
4.0
 40
4.0
 40
4.0
 40
4.0
 10
4.615807833047436
 20
-9.342995603132999
 10
4.615807833047436
 20
-9.414515785406788
 10
4.637787542243329
 20
-9.455133461177883
 10
4.671652830863335
 20
-9.455133461177883
 10
4.709721135975346
 20
-9.455133461177883
 10
4.727911240137465
 20
-9.410691729418159
 10
4.727911240137465
 20
-9.340480683428767
 10
4.727911240137465
 20
-9.272784557143607
 10
4.710582409846659
 20
-9.228342825383881
 10
4.672066242321566
 20
-9.228342825383881
 10
4.639510089985955
 20
-9.228342825383881
 10
4.615807833047436
 20
-9.26813367823852
 10
4.615807833047436
 20
-9.342995603132999
 97
        1
330
8E
 92
        1
 93
        1
 72
     4
 94
        3
 73
     0
 74
     0
 95
       17
 96
       13
 40
0.0
 40
0.0
 40
0.0
 40
0.0
 40
1.0
 40
1.0
 40
1.0
 40
2.0
 40
2.0
 40
2.0
 40
3.0
 40
3.0
 40
3.0
 40
4.0
 40
4.0
 40
4.0
 40
4.0
 10
4.765152722333016
 20
-9.338792586640995
 10
4.765152722333016
 20
-9.432292478110674
 10
4.73046061079655
 20
-9.483900008479716
 10
4.669551322617333
 20
-9.483900008479716
 10
4.615807833047436
 20
-9.483900008479716
 10
4.579427624723198
 20
-9.433567163440216
 10
4.578566350851884
 20
-9.34258219167477
 10
4.578566350851884
 20
-9.250356985534633
 10
4.618357203706521
 20
-9.199576278082052
 10
4.67420220152242
 20
-9.199576278082052
 10
4.732148707584323
 20
-9.199576278082052
 10
4.765152722333016
 20
-9.251183808451092
 10
4.765152722333016
 20
-9.338792586640995
 97
        1
330
8F
 75
     2
 76
     1
 98
        1
 10
0.0
 20
0.0
450
        0
451
        0
460
0.0
461
0.0
452
        0
462
0.0
453
        0
470

  0
SPLINE
  5
91
330
86
100
AcDbEntity
  8
Livello 2
100
AcDbSpline
210
0.0
220
0.0
230
1.0
 70
     9
 71
     3
 72
    80
 73
    76
 74
     0
 42
0.000000001
 43
0.0000000001
 40
0.0
 40
0.0
 40
0.0
 40
0.0
 40
1.0
 40
1.0
 40
1.0
 40
2.0
 40
2.0
 40
2.0
 40
3.0
 40
3.0
 40
3.0
 40
4.0
 40
4.0
 40
4.0
 40
5.0
 40
5.0
 40
5.0
 40
6.0
 40
6.0
 40
6.0
 40
7.0
 40
7.0
 40
7.0
 40
8.0
 40
8.0
 40
8.0
 40
9.0
 40
9.0
 40
9.0
 40
10.0
 40
10.0
 40
10.0
 40
11.0
 40
11.0
 40
11.0
 40
12.0
 40
12.0
 40
12.0
 40
13.0
 40
13.0
 40
13.0
 40
14.0
 40
14.0
 40
14.0
 40
15.0
 40
15.0
 40
15.0
 40
16.0
 40
16.0
 40
16.0
 40
17.0
 40
17.0
 40
17.0
 40
18.0
 40
18.0
 40
18.0
 40
19.0
 40
19.0
 40
19.0
 40
20.0
 40
20.0
 40
20.0
 40
21.0
 40
21.0
 40
21.0
 40
22.0
 40
22.0
 40
22.0
 40
23.0
 40
23.0
 40
23.0
 40
24.0
 40
24.0
 40
24.0
 40
25.0
 40
25.0
 40
25.0
 40
25.0
 10
4.901130641135828
 20
-9.329904240289053
 30
0.0
 10
4.901130641135828
 20
-9.308751354009617
 30
0.0
 10
4.900682778722745
 20
-9.291388072763956
 30
0.0
 10
4.899408093393202
 20
-9.274472653931381
 30
0.0
 10
4.899408093393202
 20
-9.274472653931381
 30
0.0
 10
4.931998696683666
 20
-9.274472653931381
 30
0.0
 10
4.931998696683666
 20
-9.274472653931381
 30
0.0
 10
4.931998696683666
 20
-9.274472653931381
 30
0.0
 10
4.933686793471438
 20
-9.307476668680074
 30
0.0
 10
4.933686793471438
 20
-9.307476668680074
 30
0.0
 10
4.933686793471438
 20
-9.307476668680074
 30
0.0
 10
4.934961478800981
 20
-9.307476668680074
 30
0.0
 10
4.934961478800981
 20
-9.307476668680074
 30
0.0
 10
4.946399195812009
 20
-9.288011879188411
 30
0.0
 10
4.965416122890589
 20
-9.269821775026292
 30
0.0
 10
4.999281411510597
 20
-9.269821775026292
 30
0.0
 10
5.027186684941119
 20
-9.269821775026292
 30
0.0
 10
5.048339571220552
 20
-9.286737193858868
 30
0.0
 10
5.057227917572498
 20
-9.310852862255616
 30
0.0
 10
5.057227917572498
 20
-9.310852862255616
 30
0.0
 10
5.058089191443809
 20
-9.310852862255616
 30
0.0
 10
5.058089191443809
 20
-9.310852862255616
 30
0.0
 10
5.064428167136669
 20
-9.299415145244587
 30
0.0
 10
5.072455239617301
 20
-9.290561249847495
 30
0.0
 10
5.080930174511016
 20
-9.284187823199783
 30
0.0
 10
5.093194714438506
 20
-9.274886065389608
 30
0.0
 10
5.106733939695538
 20
-9.269821775026292
 30
0.0
 10
5.126198729187199
 20
-9.269821775026292
 30
0.0
 10
5.153277179701262
 20
-9.269821775026292
 30
0.0
 10
5.193481444014128
 20
-9.28759846773018
 30
0.0
 10
5.193481444014128
 20
-9.358670787590886
 30
0.0
 10
5.193481444014128
 20
-9.358670787590886
 30
0.0
 10
5.193481444014128
 20
-9.479249129574633
 30
0.0
 10
5.193481444014128
 20
-9.479249129574633
 30
0.0
 10
5.193481444014128
 20
-9.479249129574633
 30
0.0
 10
5.157101235689889
 20
-9.479249129574633
 30
0.0
 10
5.157101235689889
 20
-9.479249129574633
 30
0.0
 10
5.157101235689889
 20
-9.479249129574633
 30
0.0
 10
5.157101235689889
 20
-9.363321666495972
 30
0.0
 10
5.157101235689889
 20
-9.363321666495972
 30
0.0
 10
5.157101235689889
 20
-9.323978676054419
 30
0.0
 10
5.142700736561545
 20
-9.300276419115904
 30
0.0
 10
5.112659503930166
 20
-9.300276419115904
 30
0.0
 10
5.091506617650733
 20
-9.300276419115904
 30
0.0
 10
5.075004610276386
 20
-9.315917152618935
 30
0.0
 10
5.068665634583527
 20
-9.334141707735907
 30
0.0
 10
5.066977537795755
 20
-9.339205998099226
 30
0.0
 10
5.065702852466213
 20
-9.345958385250314
 30
0.0
 10
5.065702852466213
 20
-9.352745223356254
 30
0.0
 10
5.065702852466213
 20
-9.352745223356254
 30
0.0
 10
5.065702852466213
 20
-9.479249129574633
 30
0.0
 10
5.065702852466213
 20
-9.479249129574633
 30
0.0
 10
5.065702852466213
 20
-9.479249129574633
 30
0.0
 10
5.029322644141974
 20
-9.479249129574633
 30
0.0
 10
5.029322644141974
 20
-9.479249129574633
 30
0.0
 10
5.029322644141974
 20
-9.479249129574633
 30
0.0
 10
5.029322644141974
 20
-9.356534828390033
 30
0.0
 10
5.029322644141974
 20
-9.356534828390033
 30
0.0
 10
5.029322644141974
 20
-9.323978676054419
 30
0.0
 10
5.014922145013628
 20
-9.300276419115904
 30
0.0
 10
4.986569009170023
 20
-9.300276419115904
 30
0.0
 10
4.963314614644587
 20
-9.300276419115904
 30
0.0
 10
4.946399195812009
 20
-9.318879934736251
 30
0.0
 10
4.94047363157738
 20
-9.337517901311453
 30
0.0
 10
4.938337672376526
 20
-9.342995603132999
 30
0.0
 10
4.937510849460066
 20
-9.349369029780714
 30
0.0
 10
4.937510849460066
 20
-9.355708005473571
 30
0.0
 10
4.937510849460066
 20
-9.355708005473571
 30
0.0
 10
4.937510849460066
 20
-9.479249129574633
 30
0.0
 10
4.937510849460066
 20
-9.479249129574633
 30
0.0
 10
4.937510849460066
 20
-9.479249129574633
 30
0.0
 10
4.901130641135828
 20
-9.479249129574633
 30
0.0
 10
4.901130641135828
 20
-9.479249129574633
 30
0.0
 10
4.901130641135828
 20
-9.479249129574633
 30
0.0
 10
4.901130641135828
 20
-9.329904240289053
 30
0.0
 10
4.901130641135828
 20
-9.329904240289053
 30
0.0
  0
HATCH
  5
92
330
86
100
AcDbEntity
  8
Livello 2
 62
   250
420
  1907995
440
 33554687
100
AcDbHatch
 10
0.0
 20
0.0
 30
0.0
210
0.0
220
0.0
230
1.0
  2
SOLID
 70
     1
 71
     1
 91
        1
 92
        1
 93
        1
 72
     4
 94
        3
 73
     0
 74
     0
 95
       80
 96
       76
 40
0.0
 40
0.0
 40
0.0
 40
0.0
 40
1.0
 40
1.0
 40
1.0
 40
2.0
 40
2.0
 40
2.0
 40
3.0
 40
3.0
 40
3.0
 40
4.0
 40
4.0
 40
4.0
 40
5.0
 40
5.0
 40
5.0
 40
6.0
 40
6.0
 40
6.0
 40
7.0
 40
7.0
 40
7.0
 40
8.0
 40
8.0
 40
8.0
 40
9.0
 40
9.0
 40
9.0
 40
10.0
 40
10.0
 40
10.0
 40
11.0
 40
11.0
 40
11.0
 40
12.0
 40
12.0
 40
12.0
 40
13.0
 40
13.0
 40
13.0
 40
14.0
 40
14.0
 40
14.0
 40
15.0
 40
15.0
 40
15.0
 40
16.0
 40
16.0
 40
16.0
 40
17.0
 40
17.0
 40
17.0
 40
18.0
 40
18.0
 40
18.0
 40
19.0
 40
19.0
 40
19.0
 40
20.0
 40
20.0
 40
20.0
 40
21.0
 40
21.0
 40
21.0
 40
22.0
 40
22.0
 40
22.0
 40
23.0
 40
23.0
 40
23.0
 40
24.0
 40
24.0
 40
24.0
 40
25.0
 40
25.0
 40
25.0
 40
25.0
 10
4.901130641135828
 20
-9.329904240289053
 10
4.901130641135828
 20
-9.308751354009617
 10
4.900682778722745
 20
-9.291388072763956
 10
4.899408093393202
 20
-9.274472653931381
 10
4.899408093393202
 20
-9.274472653931381
 10
4.931998696683666
 20
-9.274472653931381
 10
4.931998696683666
 20
-9.274472653931381
 10
4.931998696683666
 20
-9.274472653931381
 10
4.933686793471438
 20
-9.307476668680074
 10
4.933686793471438
 20
-9.307476668680074
 10
4.933686793471438
 20
-9.307476668680074
 10
4.934961478800981
 20
-9.307476668680074
 10
4.934961478800981
 20
-9.307476668680074
 10
4.946399195812009
 20
-9.288011879188411
 10
4.965416122890589
 20
-9.269821775026292
 10
4.999281411510597
 20
-9.269821775026292
 10
5.027186684941119
 20
-9.269821775026292
 10
5.048339571220552
 20
-9.286737193858868
 10
5.057227917572498
 20
-9.310852862255616
 10
5.057227917572498
 20
-9.310852862255616
 10
5.058089191443809
 20
-9.310852862255616
 10
5.058089191443809
 20
-9.310852862255616
 10
5.064428167136669
 20
-9.299415145244587
 10
5.072455239617301
 20
-9.290561249847495
 10
5.080930174511016
 20
-9.284187823199783
 10
5.093194714438506
 20
-9.274886065389608
 10
5.106733939695538
 20
-9.269821775026292
 10
5.126198729187199
 20
-9.269821775026292
 10
5.153277179701262
 20
-9.269821775026292
 10
5.193481444014128
 20
-9.28759846773018
 10
5.193481444014128
 20
-9.358670787590886
 10
5.193481444014128
 20
-9.358670787590886
 10
5.193481444014128
 20
-9.479249129574633
 10
5.193481444014128
 20
-9.479249129574633
 10
5.193481444014128
 20
-9.479249129574633
 10
5.157101235689889
 20
-9.479249129574633
 10
5.157101235689889
 20
-9.479249129574633
 10
5.157101235689889
 20
-9.479249129574633
 10
5.157101235689889
 20
-9.363321666495972
 10
5.157101235689889
 20
-9.363321666495972
 10
5.157101235689889
 20
-9.323978676054419
 10
5.142700736561545
 20
-9.300276419115904
 10
5.112659503930166
 20
-9.300276419115904
 10
5.091506617650733
 20
-9.300276419115904
 10
5.075004610276386
 20
-9.315917152618935
 10
5.068665634583527
 20
-9.334141707735907
 10
5.066977537795755
 20
-9.339205998099226
 10
5.065702852466213
 20
-9.345958385250314
 10
5.065702852466213
 20
-9.352745223356254
 10
5.065702852466213
 20
-9.352745223356254
 10
5.065702852466213
 20
-9.479249129574633
 10
5.065702852466213
 20
-9.479249129574633
 10
5.065702852466213
 20
-9.479249129574633
 10
5.029322644141974
 20
-9.479249129574633
 10
5.029322644141974
 20
-9.479249129574633
 10
5.029322644141974
 20
-9.479249129574633
 10
5.029322644141974
 20
-9.356534828390033
 10
5.029322644141974
 20
-9.356534828390033
 10
5.029322644141974
 20
-9.323978676054419
 10
5.014922145013628
 20
-9.300276419115904
 10
4.986569009170023
 20
-9.300276419115904
 10
4.963314614644587
 20
-9.300276419115904
 10
4.946399195812009
 20
-9.318879934736251
 10
4.94047363157738
 20
-9.337517901311453
 10
4.938337672376526
 20
-9.342995603132999
 10
4.937510849460066
 20
-9.349369029780714
 10
4.937510849460066
 20
-9.355708005473571
 10
4.937510849460066
 20
-9.355708005473571
 10
4.937510849460066
 20
-9.479249129574633
 10
4.937510849460066
 20
-9.479249129574633
 10
4.937510849460066
 20
-9.479249129574633
 10
4.901130641135828
 20
-9.479249129574633
 10
4.901130641135828
 20
-9.479249129574633
 10
4.901130641135828
 20
-9.479249129574633
 10
4.901130641135828
 20
-9.329904240289053
 10
4.901130641135828
 20
-9.329904240289053
 97
        1
330
91
 75
     2
 76
     1
 98
        1
 10
0.0
 20
0.0
450
        0
451
        0
460
0.0
461
0.0
452
        0
462
0.0
453
        0
470

  0
SPLINE
  5
93
330
86
100
AcDbEntity
  8
Livello 2
100
AcDbSpline
210
0.0
220
0.0
230
1.0
 70
     9
 71
     3
 72
    80
 73
    76
 74
     0
 42
0.000000001
 43
0.0000000001
 40
0.0
 40
0.0
 40
0.0
 40
0.0
 40
1.0
 40
1.0
 40
1.0
 40
2.0
 40
2.0
 40
2.0
 40
3.0
 40
3.0
 40
3.0
 40
4.0
 40
4.0
 40
4.0
 40
5.0
 40
5.0
 40
5.0
 40
6.0
 40
6.0
 40
6.0
 40
7.0
 40
7.0
 40
7.0
 40
8.0
 40
8.0
 40
8.0
 40
9.0
 40
9.0
 40
9.0
 40
10.0
 40
10.0
 40
10.0
 40
11.0
 40
11.0
 40
11.0
 40
12.0
 40
12.0
 40
12.0
 40
13.0
 40
13.0
 40
13.0
 40
14.0
 40
14.0
 40
14.0
 40
15.0
 40
15.0
 40
15.0
 40
16.0
 40
16.0
 40
16.0
 40
17.0
 40
17.0
 40
17.0
 40
18.0
 40
18.0
 40
18.0
 40
19.0
 40
19.0
 40
19.0
 40
20.0
 40
20.0
 40
20.0
 40
21.0
 40
21.0
 40
21.0
 40
22.0
 40
22.0
 40
22.0
 40
23.0
 40
23.0
 40
23.0
 40
24.0
 40
24.0
 40
24.0
 40
25.0
 40
25.0
 40
25.0
 40
25.0
 10
5.254184026464231
 20
-9.329904240289053
 30
0.0
 10
5.254184026464231
 20
-9.308751354009617
 30
0.0
 10
5.253736164051148
 20
-9.291388072763956
 30
0.0
 10
5.252461478721606
 20
-9.274472653931381
 30
0.0
 10
5.252461478721606
 20
-9.274472653931381
 30
0.0
 10
5.28505208201207
 20
-9.274472653931381
 30
0.0
 10
5.28505208201207
 20
-9.274472653931381
 30
0.0
 10
5.28505208201207
 20
-9.274472653931381
 30
0.0
 10
5.286740178799841
 20
-9.307476668680074
 30
0.0
 10
5.286740178799841
 20
-9.307476668680074
 30
0.0
 10
5.286740178799841
 20
-9.307476668680074
 30
0.0
 10
5.288014864129383
 20
-9.307476668680074
 30
0.0
 10
5.288014864129383
 20
-9.307476668680074
 30
0.0
 10
5.299452581140413
 20
-9.288011879188411
 30
0.0
 10
5.318469508218992
 20
-9.269821775026292
 30
0.0
 10
5.352334796838999
 20
-9.269821775026292
 30
0.0
 10
5.380240070269524
 20
-9.269821775026292
 30
0.0
 10
5.401392956548956
 20
-9.286737193858868
 30
0.0
 10
5.410281302900901
 20
-9.310852862255616
 30
0.0
 10
5.410281302900901
 20
-9.310852862255616
 30
0.0
 10
5.411142576772212
 20
-9.310852862255616
 30
0.0
 10
5.411142576772212
 20
-9.310852862255616
 30
0.0
 10
5.417481552465073
 20
-9.299415145244587
 30
0.0
 10
5.425508624945704
 20
-9.290561249847495
 30
0.0
 10
5.43398355983942
 20
-9.284187823199783
 30
0.0
 10
5.44624809976691
 20
-9.274886065389608
 30
0.0
 10
5.459787325023942
 20
-9.269821775026292
 30
0.0
 10
5.479252114515603
 20
-9.269821775026292
 30
0.0
 10
5.506330565029666
 20
-9.269821775026292
 30
0.0
 10
5.546534829342531
 20
-9.28759846773018
 30
0.0
 10
5.546534829342531
 20
-9.358670787590886
 30
0.0
 10
5.546534829342531
 20
-9.358670787590886
 30
0.0
 10
5.546534829342531
 20
-9.479249129574633
 30
0.0
 10
5.546534829342531
 20
-9.479249129574633
 30
0.0
 10
5.546534829342531
 20
-9.479249129574633
 30
0.0
 10
5.510154621018293
 20
-9.479249129574633
 30
0.0
 10
5.510154621018293
 20
-9.479249129574633
 30
0.0
 10
5.510154621018293
 20
-9.479249129574633
 30
0.0
 10
5.510154621018293
 20
-9.363321666495972
 30
0.0
 10
5.510154621018293
 20
-9.363321666495972
 30
0.0
 10
5.510154621018293
 20
-9.323978676054419
 30
0.0
 10
5.49575412188995
 20
-9.300276419115904
 30
0.0
 10
5.465712889258571
 20
-9.300276419115904
 30
0.0
 10
5.444560002979137
 20
-9.300276419115904
 30
0.0
 10
5.42805799560479
 20
-9.315917152618935
 30
0.0
 10
5.421719019911932
 20
-9.334141707735907
 30
0.0
 10
5.420030923124158
 20
-9.339205998099226
 30
0.0
 10
5.418756237794616
 20
-9.345958385250314
 30
0.0
 10
5.418756237794616
 20
-9.352745223356254
 30
0.0
 10
5.418756237794616
 20
-9.352745223356254
 30
0.0
 10
5.418756237794616
 20
-9.479249129574633
 30
0.0
 10
5.418756237794616
 20
-9.479249129574633
 30
0.0
 10
5.418756237794616
 20
-9.479249129574633
 30
0.0
 10
5.382376029470377
 20
-9.479249129574633
 30
0.0
 10
5.382376029470377
 20
-9.479249129574633
 30
0.0
 10
5.382376029470377
 20
-9.479249129574633
 30
0.0
 10
5.382376029470377
 20
-9.356534828390033
 30
0.0
 10
5.382376029470377
 20
-9.356534828390033
 30
0.0
 10
5.382376029470377
 20
-9.323978676054419
 30
0.0
 10
5.367975530342032
 20
-9.300276419115904
 30
0.0
 10
5.339622394498427
 20
-9.300276419115904
 30
0.0
 10
5.316367999972991
 20
-9.300276419115904
 30
0.0
 10
5.299452581140413
 20
-9.318879934736251
 30
0.0
 10
5.293527016905784
 20
-9.337517901311453
 30
0.0
 10
5.291391057704928
 20
-9.342995603132999
 30
0.0
 10
5.290564234788468
 20
-9.349369029780714
 30
0.0
 10
5.290564234788468
 20
-9.355708005473571
 30
0.0
 10
5.290564234788468
 20
-9.355708005473571
 30
0.0
 10
5.290564234788468
 20
-9.479249129574633
 30
0.0
 10
5.290564234788468
 20
-9.479249129574633
 30
0.0
 10
5.290564234788468
 20
-9.479249129574633
 30
0.0
 10
5.254184026464231
 20
-9.479249129574633
 30
0.0
 10
5.254184026464231
 20
-9.479249129574633
 30
0.0
 10
5.254184026464231
 20
-9.479249129574633
 30
0.0
 10
5.254184026464231
 20
-9.329904240289053
 30
0.0
 10
5.254184026464231
 20
-9.329904240289053
 30
0.0
  0
HATCH
  5
94
330
86
100
AcDbEntity
  8
Livello 2
 62
   250
420
  1907995
440
 33554687
100
AcDbHatch
 10
0.0
 20
0.0
 30
0.0
210
0.0
220
0.0
230
1.0
  2
SOLID
 70
     1
 71
     1
 91
        1
 92
        1
 93
        1
 72
     4
 94
        3
 73
     0
 74
     0
 95
       80
 96
       76
 40
0.0
 40
0.0
 40
0.0
 40
0.0
 40
1.0
 40
1.0
 40
1.0
 40
2.0
 40
2.0
 40
2.0
 40
3.0
 40
3.0
 40
3.0
 40
4.0
 40
4.0
 40
4.0
 40
5.0
 40
5.0
 40
5.0
 40
6.0
 40
6.0
 40
6.0
 40
7.0
 40
7.0
 40
7.0
 40
8.0
 40
8.0
 40
8.0
 40
9.0
 40
9.0
 40
9.0
 40
10.0
 40
10.0
 40
10.0
 40
11.0
 40
11.0
 40
11.0
 40
12.0
 40
12.0
 40
12.0
 40
13.0
 40
13.0
 40
13.0
 40
14.0
 40
14.0
 40
14.0
 40
15.0
 40
15.0
 40
15.0
 40
16.0
 40
16.0
 40
16.0
 40
17.0
 40
17.0
 40
17.0
 40
18.0
 40
18.0
 40
18.0
 40
19.0
 40
19.0
 40
19.0
 40
20.0
 40
20.0
 40
20.0
 40
21.0
 40
21.0
 40
21.0
 40
22.0
 40
22.0
 40
22.0
 40
23.0
 40
23.0
 40
23.0
 40
24.0
 40
24.0
 40
24.0
 40
25.0
 40
25.0
 40
25.0
 40
25.0
 10
5.254184026464231
 20
-9.329904240289053
 10
5.254184026464231
 20
-9.308751354009617
 10
5.253736164051148
 20
-9.291388072763956
 10
5.252461478721606
 20
-9.274472653931381
 10
5.252461478721606
 20
-9.274472653931381
 10
5.28505208201207
 20
-9.274472653931381
 10
5.28505208201207
 20
-9.274472653931381
 10
5.28505208201207
 20
-9.274472653931381
 10
5.286740178799841
 20
-9.307476668680074
 10
5.286740178799841
 20
-9.307476668680074
 10
5.286740178799841
 20
-9.307476668680074
 10
5.288014864129383
 20
-9.307476668680074
 10
5.288014864129383
 20
-9.307476668680074
 10
5.299452581140413
 20
-9.288011879188411
 10
5.318469508218992
 20
-9.269821775026292
 10
5.352334796838999
 20
-9.269821775026292
 10
5.380240070269524
 20
-9.269821775026292
 10
5.401392956548956
 20
-9.286737193858868
 10
5.410281302900901
 20
-9.310852862255616
 10
5.410281302900901
 20
-9.310852862255616
 10
5.411142576772212
 20
-9.310852862255616
 10
5.411142576772212
 20
-9.310852862255616
 10
5.417481552465073
 20
-9.299415145244587
 10
5.425508624945704
 20
-9.290561249847495
 10
5.43398355983942
 20
-9.284187823199783
 10
5.44624809976691
 20
-9.274886065389608
 10
5.459787325023942
 20
-9.269821775026292
 10
5.479252114515603
 20
-9.269821775026292
 10
5.506330565029666
 20
-9.269821775026292
 10
5.546534829342531
 20
-9.28759846773018
 10
5.546534829342531
 20
-9.358670787590886
 10
5.546534829342531
 20
-9.358670787590886
 10
5.546534829342531
 20
-9.479249129574633
 10
5.546534829342531
 20
-9.479249129574633
 10
5.546534829342531
 20
-9.479249129574633
 10
5.510154621018293
 20
-9.479249129574633
 10
5.510154621018293
 20
-9.479249129574633
 10
5.510154621018293
 20
-9.479249129574633
 10
5.510154621018293
 20
-9.363321666495972
 10
5.510154621018293
 20
-9.363321666495972
 10
5.510154621018293
 20
-9.323978676054419
 10
5.49575412188995
 20
-9.300276419115904
 10
5.465712889258571
 20
-9.300276419115904
 10
5.444560002979137
 20
-9.300276419115904
 10
5.42805799560479
 20
-9.315917152618935
 10
5.421719019911932
 20
-9.334141707735907
 10
5.420030923124158
 20
-9.339205998099226
 10
5.418756237794616
 20
-9.345958385250314
 10
5.418756237794616
 20
-9.352745223356254
 10
5.418756237794616
 20
-9.352745223356254
 10
5.418756237794616
 20
-9.479249129574633
 10
5.418756237794616
 20
-9.479249129574633
 10
5.418756237794616
 20
-9.479249129574633
 10
5.382376029470377
 20
-9.479249129574633
 10
5.382376029470377
 20
-9.479249129574633
 10
5.382376029470377
 20
-9.479249129574633
 10
5.382376029470377
 20
-9.356534828390033
 10
5.382376029470377
 20
-9.356534828390033
 10
5.382376029470377
 20
-9.323978676054419
 10
5.367975530342032
 20
-9.300276419115904
 10
5.339622394498427
 20
-9.300276419115904
 10
5.316367999972991
 20
-9.300276419115904
 10
5.299452581140413
 20
-9.318879934736251
 10
5.293527016905784
 20
-9.337517901311453
 10
5.291391057704928
 20
-9.342995603132999
 10
5.290564234788468
 20
-9.349369029780714
 10
5.290564234788468
 20
-9.355708005473571
 10
5.290564234788468
 20
-9.355708005473571
 10
5.290564234788468
 20
-9.479249129574633
 10
5.290564234788468
 20
-9.479249129574633
 10
5.290564234788468
 20
-9.479249129574633
 10
5.254184026464231
 20
-9.479249129574633
 10
5.254184026464231
 20
-9.479249129574633
 10
5.254184026464231
 20
-9.479249129574633
 10
5.254184026464231
 20
-9.329904240289053
 10
5.254184026464231
 20
-9.329904240289053
 97
        1
330
93
 75
     2
 76
     1
 98
        1
 10
0.0
 20
0.0
450
        0
451
        0
460
0.0
461
0.0
452
        0
462
0.0
453
        0
470

  0
ENDBLK
  5
89
330
86
100
AcDbEntity
  8
0
100
AcDbBlockEnd
  0
BLOCK
  5
97
330
95
100
AcDbEntity
  8
0
100
AcDbBlockBegin
  2
Block_2
 70
     0
 10
0.0
 20
0.0
 30
0.0
  3
Block_2
  1

  0
INSERT
  5
9A
330
95
100
AcDbEntity
  8
Livello 2
100
AcDbBlockReference
  2
Block_3
 10
0.0
 20
0.0
 30
0.0
  0
ENDBLK
  5
98
330
95
100
AcDbEntity
  8
0
100
AcDbBlockEnd
  0
BLOCK
  5
9B
330
99
100
AcDbEntity
  8
0
100
AcDbBlockBegin
  2
Block_3
 70
     0
 10
0.0
 20
0.0
 30
0.0
  3
Block_3
  1

  0
SPLINE
  5
9D
330
99
100
AcDbEntity
  8
Livello 2
100
AcDbSpline
210
0.0
220
0.0
230
1.0
 70
    11
 71
     3
 72
    47
 73
    43
 74
     0
 42
0.000000001
 43
0.0000000001
 40
0.0
 40
0.0
 40
0.0
 40
0.0
 40
1.0
 40
1.0
 40
1.0
 40
2.0
 40
2.0
 40
2.0
 40
3.0
 40
3.0
 40
3.0
 40
4.0
 40
4.0
 40
4.0
 40
5.0
 40
5.0
 40
5.0
 40
6.0
 40
6.0
 40
6.0
 40
7.0
 40
7.0
 40
7.0
 40
8.0
 40
8.0
 40
8.0
 40
9.0
 40
9.0
 40
9.0
 40
10.0
 40
10.0
 40
10.0
 40
11.0
 40
11.0
 40
11.0
 40
12.0
 40
12.0
 40
12.0
 40
13.0
 40
13.0
 40
13.0
 40
14.0
 40
14.0
 40
14.0
 40
14.0
 10
7.063375920543182
 20
-5.447522785096452
 30
0.0
 10
7.063375920543182
 20
-5.447522785096452
 30
0.0
 10
7.063375920543182
 20
-5.424681802029246
 30
0.0
 10
7.063375920543182
 20
-5.424681802029246
 30
0.0
 10
7.063375920543182
 20
-5.424681802029246
 30
0.0
 10
7.092555879303248
 20
-5.396328666185638
 30
0.0
 10
7.092555879303248
 20
-5.396328666185638
 30
0.0
 10
7.162801376247491
 20
-5.329493813771792
 30
0.0
 10
7.194530705666643
 20
-5.293940428364013
 30
0.0
 10
7.194944117124874
 20
-5.252461478721606
 30
0.0
 10
7.194944117124874
 20
-5.224556205291082
 30
0.0
 10
7.181404891867842
 20
-5.198752440106561
 30
0.0
 10
7.140373804638517
 20
-5.198752440106561
 30
0.0
 10
7.115431313325307
 20
-5.198752440106561
 30
0.0
 10
7.094691838504103
 20
-5.211430391492281
 30
0.0
 10
7.081979436163532
 20
-5.222006834631997
 30
0.0
 10
7.081979436163532
 20
-5.222006834631997
 30
0.0
 10
7.070128307694273
 20
-5.195789657989246
 30
0.0
 10
7.070128307694273
 20
-5.195789657989246
 30
0.0
 10
7.089179685727703
 20
-5.17970106207313
 30
0.0
 10
7.116258136241767
 20
-5.16784993360387
 30
0.0
 10
7.147987465660919
 20
-5.16784993360387
 30
0.0
 10
7.207243108007215
 20
-5.16784993360387
 30
0.0
 10
7.232185599320424
 20
-5.208467609374966
 30
0.0
 10
7.232185599320424
 20
-5.247810599816518
 30
0.0
 10
7.232185599320424
 20
-5.298591307269101
 30
0.0
 10
7.195391979537956
 20
-5.339622394498427
 30
0.0
 10
7.137411022521201
 20
-5.395467392314326
 30
0.0
 10
7.137411022521201
 20
-5.395467392314326
 30
0.0
 10
7.115431313325307
 20
-5.415793455677301
 30
0.0
 10
7.115431313325307
 20
-5.415793455677301
 30
0.0
 10
7.115431313325307
 20
-5.415793455677301
 30
0.0
 10
7.115431313325307
 20
-5.416620278593762
 30
0.0
 10
7.115431313325307
 20
-5.416620278593762
 30
0.0
 10
7.115431313325307
 20
-5.416620278593762
 30
0.0
 10
7.238972437426366
 20
-5.416620278593762
 30
0.0
 10
7.238972437426366
 20
-5.416620278593762
 30
0.0
 10
7.238972437426366
 20
-5.416620278593762
 30
0.0
 10
7.238972437426366
 20
-5.447522785096452
 30
0.0
 10
7.238972437426366
 20
-5.447522785096452
 30
0.0
 10
7.238972437426366
 20
-5.447522785096452
 30
0.0
 10
7.063375920543182
 20
-5.447522785096452
 30
0.0
 10
7.063375920543182
 20
-5.447522785096452
 30
0.0
  0
HATCH
  5
9E
330
99
100
AcDbEntity
  8
Livello 2
 62
   250
420
  1907995
440
 33554687
100
AcDbHatch
 10
0.0
 20
0.0
 30
0.0
210
0.0
220
0.0
230
1.0
  2
SOLID
 70
     1
 71
     1
 91
        1
 92
        1
 93
        1
 72
     4
 94
        3
 73
     0
 74
     0
 95
       47
 96
       43
 40
0.0
 40
0.0
 40
0.0
 40
0.0
 40
1.0
 40
1.0
 40
1.0
 40
2.0
 40
2.0
 40
2.0
 40
3.0
 40
3.0
 40
3.0
 40
4.0
 40
4.0
 40
4.0
 40
5.0
 40
5.0
 40
5.0
 40
6.0
 40
6.0
 40
6.0
 40
7.0
 40
7.0
 40
7.0
 40
8.0
 40
8.0
 40
8.0
 40
9.0
 40
9.0
 40
9.0
 40
10.0
 40
10.0
 40
10.0
 40
11.0
 40
11.0
 40
11.0
 40
12.0
 40
12.0
 40
12.0
 40
13.0
 40
13.0
 40
13.0
 40
14.0
 40
14.0
 40
14.0
 40
14.0
 10
7.063375920543182
 20
-5.447522785096452
 10
7.063375920543182
 20
-5.447522785096452
 10
7.063375920543182
 20
-5.424681802029246
 10
7.063375920543182
 20
-5.424681802029246
 10
7.063375920543182
 20
-5.424681802029246
 10
7.092555879303248
 20
-5.396328666185638
 10
7.092555879303248
 20
-5.396328666185638
 10
7.162801376247491
 20
-5.329493813771792
 10
7.194530705666643
 20
-5.293940428364013
 10
7.194944117124874
 20
-5.252461478721606
 10
7.194944117124874
 20
-5.224556205291082
 10
7.181404891867842
 20
-5.198752440106561
 10
7.140373804638517
 20
-5.198752440106561
 10
7.115431313325307
 20
-5.198752440106561
 10
7.094691838504103
 20
-5.211430391492281
 10
7.081979436163532
 20
-5.222006834631997
 10
7.081979436163532
 20
-5.222006834631997
 10
7.070128307694273
 20
-5.195789657989246
 10
7.070128307694273
 20
-5.195789657989246
 10
7.089179685727703
 20
-5.17970106207313
 10
7.116258136241767
 20
-5.16784993360387
 10
7.147987465660919
 20
-5.16784993360387
 10
7.207243108007215
 20
-5.16784993360387
 10
7.232185599320424
 20
-5.208467609374966
 10
7.232185599320424
 20
-5.247810599816518
 10
7.232185599320424
 20
-5.298591307269101
 10
7.195391979537956
 20
-5.339622394498427
 10
7.137411022521201
 20
-5.395467392314326
 10
7.137411022521201
 20
-5.395467392314326
 10
7.115431313325307
 20
-5.415793455677301
 10
7.115431313325307
 20
-5.415793455677301
 10
7.115431313325307
 20
-5.415793455677301
 10
7.115431313325307
 20
-5.416620278593762
 10
7.115431313325307
 20
-5.416620278593762
 10
7.115431313325307
 20
-5.416620278593762
 10
7.238972437426366
 20
-5.416620278593762
 10
7.238972437426366
 20
-5.416620278593762
 10
7.238972437426366
 20
-5.416620278593762
 10
7.238972437426366
 20
-5.447522785096452
 10
7.238972437426366
 20
-5.447522785096452
 10
7.238972437426366
 20
-5.447522785096452
 10
7.063375920543182
 20
-5.447522785096452
 10
7.063375920543182
 20
-5.447522785096452
 97
        1
330
9D
 75
     2
 76
     1
 98
        1
 10
0.0
 20
0.0
450
        0
451
        0
460
0.0
461
0.0
452
        0
462
0.0
453
        0
470

  0
SPLINE
  5
9F
330
99
100
AcDbEntity
  8
Livello 2
100
AcDbSpline
210
0.0
220
0.0
230
1.0
 70
     9
 71
     3
 72
    59
 73
    55
 74
     0
 42
0.000000001
 43
0.0000000001
 40
0.0
 40
0.0
 40
0.0
 40
0.0
 40
1.0
 40
1.0
 40
1.0
 40
2.0
 40
2.0
 40
2.0
 40
3.0
 40
3.0
 40
3.0
 40
4.0
 40
4.0
 40
4.0
 40
5.0
 40
5.0
 40
5.0
 40
6.0
 40
6.0
 40
6.0
 40
7.0
 40
7.0
 40
7.0
 40
8.0
 40
8.0
 40
8.0
 40
9.0
 40
9.0
 40
9.0
 40
10.0
 40
10.0
 40
10.0
 40
11.0
 40
11.0
 40
11.0
 40
12.0
 40
12.0
 40
12.0
 40
13.0
 40
13.0
 40
13.0
 40
14.0
 40
14.0
 40
14.0
 40
15.0
 40
15.0
 40
15.0
 40
16.0
 40
16.0
 40
16.0
 40
17.0
 40
17.0
 40
17.0
 40
18.0
 40
18.0
 40
18.0
 40
18.0
 10
7.289408635330424
 20
-5.404803601079352
 30
0.0
 10
7.299985078470141
 20
-5.411555988230443
 30
0.0
 10
7.324548609279972
 20
-5.42213243137016
 30
0.0
 10
7.350352374464494
 20
-5.42213243137016
 30
0.0
 10
7.398170299799763
 20
-5.42213243137016
 30
0.0
 10
7.412949759431484
 20
-5.391677787280551
 30
0.0
 10
7.412536347973254
 20
-5.368836804213344
 30
0.0
 10
7.412122936515022
 20
-5.330320636688251
 30
0.0
 10
7.377430824978557
 20
-5.313818629313906
 30
0.0
 10
7.341464028112548
 20
-5.313818629313906
 30
0.0
 10
7.341464028112548
 20
-5.313818629313906
 30
0.0
 10
7.320724553291347
 20
-5.313818629313906
 30
0.0
 10
7.320724553291347
 20
-5.313818629313906
 30
0.0
 10
7.320724553291347
 20
-5.313818629313906
 30
0.0
 10
7.320724553291347
 20
-5.285913355883382
 30
0.0
 10
7.320724553291347
 20
-5.285913355883382
 30
0.0
 10
7.320724553291347
 20
-5.285913355883382
 30
0.0
 10
7.341464028112548
 20
-5.285913355883382
 30
0.0
 10
7.341464028112548
 20
-5.285913355883382
 30
0.0
 10
7.368542478626612
 20
-5.285913355883382
 30
0.0
 10
7.402821178704848
 20
-5.271926268213268
 30
0.0
 10
7.402821178704848
 20
-5.239370115877655
 30
0.0
 10
7.402821178704848
 20
-5.21735595572691
 30
0.0
 10
7.388834091034735
 20
-5.197891166235248
 30
0.0
 10
7.354589841911352
 20
-5.197891166235248
 30
0.0
 10
7.332575681760605
 20
-5.197891166235248
 30
0.0
 10
7.31142279548117
 20
-5.207640786458505
 30
0.0
 10
7.29957166701191
 20
-5.216081270397368
 30
0.0
 10
7.29957166701191
 20
-5.216081270397368
 30
0.0
 10
7.289856497743507
 20
-5.189002819883303
 30
0.0
 10
7.289856497743507
 20
-5.189002819883303
 30
0.0
 10
7.304222545916999
 20
-5.178426376743586
 30
0.0
 10
7.332162270302375
 20
-5.16784993360387
 30
0.0
 10
7.36175564052067
 20
-5.16784993360387
 30
0.0
 10
7.415912541548799
 20
-5.16784993360387
 30
0.0
 10
7.440476072358629
 20
-5.199992674481251
 30
0.0
 10
7.440476072358629
 20
-5.233444551643026
 30
0.0
 10
7.440476072358629
 20
-5.261797687486633
 30
0.0
 10
7.423526202571201
 20
-5.285913355883382
 30
0.0
 10
7.389695364906047
 20
-5.29817789581087
 30
0.0
 10
7.389695364906047
 20
-5.29817789581087
 30
0.0
 10
7.389695364906047
 20
-5.299004718727331
 30
0.0
 10
7.389695364906047
 20
-5.299004718727331
 30
0.0
 10
7.423526202571201
 20
-5.305791556833272
 30
0.0
 10
7.451052515498346
 20
-5.331181910559565
 30
0.0
 10
7.451052515498346
 20
-5.369663627129805
 30
0.0
 10
7.451052515498346
 20
-5.413657496476446
 30
0.0
 10
7.416773815420111
 20
-5.452173664001538
 30
0.0
 10
7.350765785922725
 20
-5.452173664001538
 30
0.0
 10
7.319897730374886
 20
-5.452173664001538
 30
0.0
 10
7.292819279860822
 20
-5.442458494733132
 30
0.0
 10
7.279280054603789
 20
-5.43357014838119
 30
0.0
 10
7.279280054603789
 20
-5.43357014838119
 30
0.0
 10
7.289408635330424
 20
-5.404803601079352
 30
0.0
 10
7.289408635330424
 20
-5.404803601079352
 30
0.0
  0
HATCH
  5
A0
330
99
100
AcDbEntity
  8
Livello 2
 62
   250
420
  1907995
440
 33554687
100
AcDbHatch
 10
0.0
 20
0.0
 30
0.0
210
0.0
220
0.0
230
1.0
  2
SOLID
 70
     1
 71
     1
 91
        1
 92
        1
 93
        1
 72
     4
 94
        3
 73
     0
 74
     0
 95
       59
 96
       55
 40
0.0
 40
0.0
 40
0.0
 40
0.0
 40
1.0
 40
1.0
 40
1.0
 40
2.0
 40
2.0
 40
2.0
 40
3.0
 40
3.0
 40
3.0
 40
4.0
 40
4.0
 40
4.0
 40
5.0
 40
5.0
 40
5.0
 40
6.0
 40
6.0
 40
6.0
 40
7.0
 40
7.0
 40
7.0
 40
8.0
 40
8.0
 40
8.0
 40
9.0
 40
9.0
 40
9.0
 40
10.0
 40
10.0
 40
10.0
 40
11.0
 40
11.0
 40
11.0
 40
12.0
 40
12.0
 40
12.0
 40
13.0
 40
13.0
 40
13.0
 40
14.0
 40
14.0
 40
14.0
 40
15.0
 40
15.0
 40
15.0
 40
16.0
 40
16.0
 40
16.0
 40
17.0
 40
17.0
 40
17.0
 40
18.0
 40
18.0
 40
18.0
 40
18.0
 10
7.289408635330424
 20
-5.404803601079352
 10
7.299985078470141
 20
-5.411555988230443
 10
7.324548609279972
 20
-5.42213243137016
 10
7.350352374464494
 20
-5.42213243137016
 10
7.398170299799763
 20
-5.42213243137016
 10
7.412949759431484
 20
-5.391677787280551
 10
7.412536347973254
 20
-5.368836804213344
 10
7.412122936515022
 20
-5.330320636688251
 10
7.377430824978557
 20
-5.313818629313906
 10
7.341464028112548
 20
-5.313818629313906
 10
7.341464028112548
 20
-5.313818629313906
 10
7.320724553291347
 20
-5.313818629313906
 10
7.320724553291347
 20
-5.313818629313906
 10
7.320724553291347
 20
-5.313818629313906
 10
7.320724553291347
 20
-5.285913355883382
 10
7.320724553291347
 20
-5.285913355883382
 10
7.320724553291347
 20
-5.285913355883382
 10
7.341464028112548
 20
-5.285913355883382
 10
7.341464028112548
 20
-5.285913355883382
 10
7.368542478626612
 20
-5.285913355883382
 10
7.402821178704848
 20
-5.271926268213268
 10
7.402821178704848
 20
-5.239370115877655
 10
7.402821178704848
 20
-5.21735595572691
 10
7.388834091034735
 20
-5.197891166235248
 10
7.354589841911352
 20
-5.197891166235248
 10
7.332575681760605
 20
-5.197891166235248
 10
7.31142279548117
 20
-5.207640786458505
 10
7.29957166701191
 20
-5.216081270397368
 10
7.29957166701191
 20
-5.216081270397368
 10
7.289856497743507
 20
-5.189002819883303
 10
7.289856497743507
 20
-5.189002819883303
 10
7.304222545916999
 20
-5.178426376743586
 10
7.332162270302375
 20
-5.16784993360387
 10
7.36175564052067
 20
-5.16784993360387
 10
7.415912541548799
 20
-5.16784993360387
 10
7.440476072358629
 20
-5.199992674481251
 10
7.440476072358629
 20
-5.233444551643026
 10
7.440476072358629
 20
-5.261797687486633
 10
7.423526202571201
 20
-5.285913355883382
 10
7.389695364906047
 20
-5.29817789581087
 10
7.389695364906047
 20
-5.29817789581087
 10
7.389695364906047
 20
-5.299004718727331
 10
7.389695364906047
 20
-5.299004718727331
 10
7.423526202571201
 20
-5.305791556833272
 10
7.451052515498346
 20
-5.331181910559565
 10
7.451052515498346
 20
-5.369663627129805
 10
7.451052515498346
 20
-5.413657496476446
 10
7.416773815420111
 20
-5.452173664001538
 10
7.350765785922725
 20
-5.452173664001538
 10
7.319897730374886
 20
-5.452173664001538
 10
7.292819279860822
 20
-5.442458494733132
 10
7.279280054603789
 20
-5.43357014838119
 10
7.279280054603789
 20
-5.43357014838119
 10
7.289408635330424
 20
-5.404803601079352
 10
7.289408635330424
 20
-5.404803601079352
 97
        1
330
9F
 75
     2
 76
     1
 98
        1
 10
0.0
 20
0.0
450
        0
451
        0
460
0.0
461
0.0
452
        0
462
0.0
453
        0
470

  0
SPLINE
  5
A1
330
99
100
AcDbEntity
  8
Livello 2
100
AcDbSpline
210
0.0
220
0.0
230
1.0
 70
     9
 71
     3
 72
    17
 73
    13
 74
     0
 42
0.000000001
 43
0.0000000001
 40
0.0
 40
0.0
 40
0.0
 40
0.0
 40
1.0
 40
1.0
 40
1.0
 40
2.0
 40
2.0
 40
2.0
 40
3.0
 40
3.0
 40
3.0
 40
4.0
 40
4.0
 40
4.0
 40
4.0
 10
7.531150985530405
 20
-5.311269258654821
 30
0.0
 10
7.531150985530405
 20
-5.382789440928608
 30
0.0
 10
7.553130694726299
 20
-5.423407116699702
 30
0.0
 10
7.586995983346304
 20
-5.423407116699702
 30
0.0
 10
7.625064288458315
 20
-5.423407116699702
 30
0.0
 10
7.643254392620434
 20
-5.37896538493998
 30
0.0
 10
7.643254392620434
 20
-5.308754338950588
 30
0.0
 10
7.643254392620434
 20
-5.241058212665428
 30
0.0
 10
7.625925562329628
 20
-5.196616480905706
 30
0.0
 10
7.587409394804534
 20
-5.196616480905706
 30
0.0
 10
7.554853242468924
 20
-5.196616480905706
 30
0.0
 10
7.531150985530405
 20
-5.23640733376034
 30
0.0
 10
7.531150985530405
 20
-5.311269258654821
 30
0.0
  0
SPLINE
  5
A2
330
99
100
AcDbEntity
  8
Livello 2
100
AcDbSpline
210
0.0
220
0.0
230
1.0
 70
     9
 71
     3
 72
    17
 73
    13
 74
     0
 42
0.000000001
 43
0.0000000001
 40
0.0
 40
0.0
 40
0.0
 40
0.0
 40
1.0
 40
1.0
 40
1.0
 40
2.0
 40
2.0
 40
2.0
 40
3.0
 40
3.0
 40
3.0
 40
4.0
 40
4.0
 40
4.0
 40
4.0
 10
7.680495874815986
 20
-5.307066242162816
 30
0.0
 10
7.680495874815986
 20
-5.400566133632496
 30
0.0
 10
7.645803763279519
 20
-5.452173664001538
 30
0.0
 10
7.584894475100302
 20
-5.452173664001538
 30
0.0
 10
7.531150985530405
 20
-5.452173664001538
 30
0.0
 10
7.494770777206167
 20
-5.401840818962038
 30
0.0
 10
7.493909503334855
 20
-5.310855847196591
 30
0.0
 10
7.493909503334855
 20
-5.218630641056453
 30
0.0
 10
7.53370035618949
 20
-5.16784993360387
 30
0.0
 10
7.589545354005389
 20
-5.16784993360387
 30
0.0
 10
7.647491860067292
 20
-5.16784993360387
 30
0.0
 10
7.680495874815986
 20
-5.219457463972911
 30
0.0
 10
7.680495874815986
 20
-5.307066242162816
 30
0.0
  0
HATCH
  5
A3
330
99
100
AcDbEntity
  8
Livello 2
 62
   250
420
  1907995
440
 33554687
100
AcDbHatch
 10
0.0
 20
0.0
 30
0.0
210
0.0
220
0.0
230
1.0
  2
SOLID
 70
     1
 71
     1
 91
        2
 92
        1
 93
        1
 72
     4
 94
        3
 73
     0
 74
     0
 95
       17
 96
       13
 40
0.0
 40
0.0
 40
0.0
 40
0.0
 40
1.0
 40
1.0
 40
1.0
 40
2.0
 40
2.0
 40
2.0
 40
3.0
 40
3.0
 40
3.0
 40
4.0
 40
4.0
 40
4.0
 40
4.0
 10
7.531150985530405
 20
-5.311269258654821
 10
7.531150985530405
 20
-5.382789440928608
 10
7.553130694726299
 20
-5.423407116699702
 10
7.586995983346304
 20
-5.423407116699702
 10
7.625064288458315
 20
-5.423407116699702
 10
7.643254392620434
 20
-5.37896538493998
 10
7.643254392620434
 20
-5.308754338950588
 10
7.643254392620434
 20
-5.241058212665428
 10
7.625925562329628
 20
-5.196616480905706
 10
7.587409394804534
 20
-5.196616480905706
 10
7.554853242468924
 20
-5.196616480905706
 10
7.531150985530405
 20
-5.23640733376034
 10
7.531150985530405
 20
-5.311269258654821
 97
        1
330
A1
 92
        1
 93
        1
 72
     4
 94
        3
 73
     0
 74
     0
 95
       17
 96
       13
 40
0.0
 40
0.0
 40
0.0
 40
0.0
 40
1.0
 40
1.0
 40
1.0
 40
2.0
 40
2.0
 40
2.0
 40
3.0
 40
3.0
 40
3.0
 40
4.0
 40
4.0
 40
4.0
 40
4.0
 10
7.680495874815986
 20
-5.307066242162816
 10
7.680495874815986
 20
-5.400566133632496
 10
7.645803763279519
 20
-5.452173664001538
 10
7.584894475100302
 20
-5.452173664001538
 10
7.531150985530405
 20
-5.452173664001538
 10
7.494770777206167
 20
-5.401840818962038
 10
7.493909503334855
 20
-5.310855847196591
 10
7.493909503334855
 20
-5.218630641056453
 10
7.53370035618949
 20
-5.16784993360387
 10
7.589545354005389
 20
-5.16784993360387
 10
7.647491860067292
 20
-5.16784993360387
 10
7.680495874815986
 20
-5.219457463972911
 10
7.680495874815986
 20
-5.307066242162816
 97
        1
330
A2
 75
     2
 76
     1
 98
        1
 10
0.0
 20
0.0
450
        0
451
        0
460
0.0
461
0.0
452
        0
462
0.0
453
        0
470

  0
SPLINE
  5
A4
330
99
100
AcDbEntity
  8
Livello 2
100
AcDbSpline
210
0.0
220
0.0
230
1.0
 70
     9
 71
     3
 72
    17
 73
    13
 74
     0
 42
0.000000001
 43
0.0000000001
 40
0.0
 40
0.0
 40
0.0
 40
0.0
 40
1.0
 40
1.0
 40
1.0
 40
2.0
 40
2.0
 40
2.0
 40
3.0
 40
3.0
 40
3.0
 40
4.0
 40
4.0
 40
4.0
 40
4.0
 10
7.748295353965701
 20
-5.311269258654821
 30
0.0
 10
7.748295353965701
 20
-5.382789440928608
 30
0.0
 10
7.770309514116449
 20
-5.423407116699702
 30
0.0
 10
7.804140351781603
 20
-5.423407116699702
 30
0.0
 10
7.842208656893611
 20
-5.423407116699702
 30
0.0
 10
7.860398761055733
 20
-5.37896538493998
 30
0.0
 10
7.860398761055733
 20
-5.308754338950588
 30
0.0
 10
7.860398761055733
 20
-5.241058212665428
 30
0.0
 10
7.843069930764925
 20
-5.196616480905706
 30
0.0
 10
7.804553763239831
 20
-5.196616480905706
 30
0.0
 10
7.771997610904223
 20
-5.196616480905706
 30
0.0
 10
7.748295353965701
 20
-5.23640733376034
 30
0.0
 10
7.748295353965701
 20
-5.311269258654821
 30
0.0
  0
SPLINE
  5
A5
330
99
100
AcDbEntity
  8
Livello 2
100
AcDbSpline
210
0.0
220
0.0
230
1.0
 70
     9
 71
     3
 72
    17
 73
    13
 74
     0
 42
0.000000001
 43
0.0000000001
 40
0.0
 40
0.0
 40
0.0
 40
0.0
 40
1.0
 40
1.0
 40
1.0
 40
2.0
 40
2.0
 40
2.0
 40
3.0
 40
3.0
 40
3.0
 40
4.0
 40
4.0
 40
4.0
 40
4.0
 10
7.897640243251282
 20
-5.307066242162816
 30
0.0
 10
7.897640243251282
 20
-5.400566133632496
 30
0.0
 10
7.862948131714817
 20
-5.452173664001538
 30
0.0
 10
7.8020388435356
 20
-5.452173664001538
 30
0.0
 10
7.748295353965701
 20
-5.452173664001538
 30
0.0
 10
7.711915145641465
 20
-5.401840818962038
 30
0.0
 10
7.711053871770151
 20
-5.310855847196591
 30
0.0
 10
7.711053871770151
 20
-5.218630641056453
 30
0.0
 10
7.750844724624787
 20
-5.16784993360387
 30
0.0
 10
7.806689722440687
 20
-5.16784993360387
 30
0.0
 10
7.864636228502589
 20
-5.16784993360387
 30
0.0
 10
7.897640243251282
 20
-5.219457463972911
 30
0.0
 10
7.897640243251282
 20
-5.307066242162816
 30
0.0
  0
HATCH
  5
A6
330
99
100
AcDbEntity
  8
Livello 2
 62
   250
420
  1907995
440
 33554687
100
AcDbHatch
 10
0.0
 20
0.0
 30
0.0
210
0.0
220
0.0
230
1.0
  2
SOLID
 70
     1
 71
     1
 91
        2
 92
        1
 93
        1
 72
     4
 94
        3
 73
     0
 74
     0
 95
       17
 96
       13
 40
0.0
 40
0.0
 40
0.0
 40
0.0
 40
1.0
 40
1.0
 40
1.0
 40
2.0
 40
2.0
 40
2.0
 40
3.0
 40
3.0
 40
3.0
 40
4.0
 40
4.0
 40
4.0
 40
4.0
 10
7.748295353965701
 20
-5.311269258654821
 10
7.748295353965701
 20
-5.382789440928608
 10
7.770309514116449
 20
-5.423407116699702
 10
7.804140351781603
 20
-5.423407116699702
 10
7.842208656893611
 20
-5.423407116699702
 10
7.860398761055733
 20
-5.37896538493998
 10
7.860398761055733
 20
-5.308754338950588
 10
7.860398761055733
 20
-5.241058212665428
 10
7.843069930764925
 20
-5.196616480905706
 10
7.804553763239831
 20
-5.196616480905706
 10
7.771997610904223
 20
-5.196616480905706
 10
7.748295353965701
 20
-5.23640733376034
 10
7.748295353965701
 20
-5.311269258654821
 97
        1
330
A4
 92
        1
 93
        1
 72
     4
 94
        3
 73
     0
 74
     0
 95
       17
 96
       13
 40
0.0
 40
0.0
 40
0.0
 40
0.0
 40
1.0
 40
1.0
 40
1.0
 40
2.0
 40
2.0
 40
2.0
 40
3.0
 40
3.0
 40
3.0
 40
4.0
 40
4.0
 40
4.0
 40
4.0
 10
7.897640243251282
 20
-5.307066242162816
 10
7.897640243251282
 20
-5.400566133632496
 10
7.862948131714817
 20
-5.452173664001538
 10
7.8020388435356
 20
-5.452173664001538
 10
7.748295353965701
 20
-5.452173664001538
 10
7.711915145641465
 20
-5.401840818962038
 10
7.711053871770151
 20
-5.310855847196591
 10
7.711053871770151
 20
-5.218630641056453
 10
7.750844724624787
 20
-5.16784993360387
 10
7.806689722440687
 20
-5.16784993360387
 10
7.864636228502589
 20
-5.16784993360387
 10
7.897640243251282
 20
-5.219457463972911
 10
7.897640243251282
 20
-5.307066242162816
 97
        1
330
A5
 75
     2
 76
     1
 98
        1
 10
0.0
 20
0.0
450
        0
451
        0
460
0.0
461
0.0
452
        0
462
0.0
453
        0
470

  0
SPLINE
  5
A7
330
99
100
AcDbEntity
  8
Livello 2
100
AcDbSpline
210
0.0
220
0.0
230
1.0
 70
     9
 71
     3
 72
    80
 73
    76
 74
     0
 42
0.000000001
 43
0.0000000001
 40
0.0
 40
0.0
 40
0.0
 40
0.0
 40
1.0
 40
1.0
 40
1.0
 40
2.0
 40
2.0
 40
2.0
 40
3.0
 40
3.0
 40
3.0
 40
4.0
 40
4.0
 40
4.0
 40
5.0
 40
5.0
 40
5.0
 40
6.0
 40
6.0
 40
6.0
 40
7.0
 40
7.0
 40
7.0
 40
8.0
 40
8.0
 40
8.0
 40
9.0
 40
9.0
 40
9.0
 40
10.0
 40
10.0
 40
10.0
 40
11.0
 40
11.0
 40
11.0
 40
12.0
 40
12.0
 40
12.0
 40
13.0
 40
13.0
 40
13.0
 40
14.0
 40
14.0
 40
14.0
 40
15.0
 40
15.0
 40
15.0
 40
16.0
 40
16.0
 40
16.0
 40
17.0
 40
17.0
 40
17.0
 40
18.0
 40
18.0
 40
18.0
 40
19.0
 40
19.0
 40
19.0
 40
20.0
 40
20.0
 40
20.0
 40
21.0
 40
21.0
 40
21.0
 40
22.0
 40
22.0
 40
22.0
 40
23.0
 40
23.0
 40
23.0
 40
24.0
 40
24.0
 40
24.0
 40
25.0
 40
25.0
 40
25.0
 40
25.0
 10
8.033652613008946
 20
-5.29817789581087
 30
0.0
 10
8.033652613008946
 20
-5.277025009531436
 30
0.0
 10
8.033204750595862
 20
-5.259661728285777
 30
0.0
 10
8.031930065266321
 20
-5.242746309453202
 30
0.0
 10
8.031930065266321
 20
-5.242746309453202
 30
0.0
 10
8.064520668556784
 20
-5.242746309453202
 30
0.0
 10
8.064520668556784
 20
-5.242746309453202
 30
0.0
 10
8.064520668556784
 20
-5.242746309453202
 30
0.0
 10
8.066208765344557
 20
-5.275750324201894
 30
0.0
 10
8.066208765344557
 20
-5.275750324201894
 30
0.0
 10
8.066208765344557
 20
-5.275750324201894
 30
0.0
 10
8.067483450674098
 20
-5.275750324201894
 30
0.0
 10
8.067483450674098
 20
-5.275750324201894
 30
0.0
 10
8.078921167685129
 20
-5.256285534710233
 30
0.0
 10
8.097938094763707
 20
-5.238095430548113
 30
0.0
 10
8.131803383383715
 20
-5.238095430548113
 30
0.0
 10
8.159708656814236
 20
-5.238095430548113
 30
0.0
 10
8.180861543093673
 20
-5.255010849380691
 30
0.0
 10
8.189749889445616
 20
-5.27912651777744
 30
0.0
 10
8.189749889445616
 20
-5.27912651777744
 30
0.0
 10
8.190611163316928
 20
-5.27912651777744
 30
0.0
 10
8.190611163316928
 20
-5.27912651777744
 30
0.0
 10
8.196950139009789
 20
-5.267688800766411
 30
0.0
 10
8.204977211490421
 20
-5.258834905369318
 30
0.0
 10
8.213452146384137
 20
-5.252461478721606
 30
0.0
 10
8.225716686311626
 20
-5.243159720911432
 30
0.0
 10
8.239255911568655
 20
-5.238095430548113
 30
0.0
 10
8.258720701060319
 20
-5.238095430548113
 30
0.0
 10
8.285799151574382
 20
-5.238095430548113
 30
0.0
 10
8.326003415887246
 20
-5.255872123252003
 30
0.0
 10
8.326003415887246
 20
-5.326944443112707
 30
0.0
 10
8.326003415887246
 20
-5.326944443112707
 30
0.0
 10
8.326003415887246
 20
-5.447522785096452
 30
0.0
 10
8.326003415887246
 20
-5.447522785096452
 30
0.0
 10
8.326003415887246
 20
-5.447522785096452
 30
0.0
 10
8.289623207563009
 20
-5.447522785096452
 30
0.0
 10
8.289623207563009
 20
-5.447522785096452
 30
0.0
 10
8.289623207563009
 20
-5.447522785096452
 30
0.0
 10
8.289623207563009
 20
-5.331595322017794
 30
0.0
 10
8.289623207563009
 20
-5.331595322017794
 30
0.0
 10
8.289623207563009
 20
-5.292252331576242
 30
0.0
 10
8.275222708434666
 20
-5.268550074637722
 30
0.0
 10
8.245181475803287
 20
-5.268550074637722
 30
0.0
 10
8.224028589523852
 20
-5.268550074637722
 30
0.0
 10
8.207526582149505
 20
-5.284190808140756
 30
0.0
 10
8.201187606456647
 20
-5.302415363257727
 30
0.0
 10
8.199499509668871
 20
-5.307479653621046
 30
0.0
 10
8.198224824339332
 20
-5.314232040772136
 30
0.0
 10
8.198224824339332
 20
-5.321018878878077
 30
0.0
 10
8.198224824339332
 20
-5.321018878878077
 30
0.0
 10
8.198224824339332
 20
-5.447522785096452
 30
0.0
 10
8.198224824339332
 20
-5.447522785096452
 30
0.0
 10
8.198224824339332
 20
-5.447522785096452
 30
0.0
 10
8.161844616015093
 20
-5.447522785096452
 30
0.0
 10
8.161844616015093
 20
-5.447522785096452
 30
0.0
 10
8.161844616015093
 20
-5.447522785096452
 30
0.0
 10
8.161844616015093
 20
-5.324808483911851
 30
0.0
 10
8.161844616015093
 20
-5.324808483911851
 30
0.0
 10
8.161844616015093
 20
-5.292252331576242
 30
0.0
 10
8.147444116886749
 20
-5.268550074637722
 30
0.0
 10
8.119090981043141
 20
-5.268550074637722
 30
0.0
 10
8.095836586517707
 20
-5.268550074637722
 30
0.0
 10
8.078921167685129
 20
-5.287153590258071
 30
0.0
 10
8.072995603450499
 20
-5.305791556833272
 30
0.0
 10
8.070859644249646
 20
-5.311269258654821
 30
0.0
 10
8.070032821333184
 20
-5.317642685302533
 30
0.0
 10
8.070032821333184
 20
-5.323981660995393
 30
0.0
 10
8.070032821333184
 20
-5.323981660995393
 30
0.0
 10
8.070032821333184
 20
-5.447522785096452
 30
0.0
 10
8.070032821333184
 20
-5.447522785096452
 30
0.0
 10
8.070032821333184
 20
-5.447522785096452
 30
0.0
 10
8.033652613008946
 20
-5.447522785096452
 30
0.0
 10
8.033652613008946
 20
-5.447522785096452
 30
0.0
 10
8.033652613008946
 20
-5.447522785096452
 30
0.0
 10
8.033652613008946
 20
-5.29817789581087
 30
0.0
 10
8.033652613008946
 20
-5.29817789581087
 30
0.0
  0
HATCH
  5
A8
330
99
100
AcDbEntity
  8
Livello 2
 62
   250
420
  1907995
440
 33554687
100
AcDbHatch
 10
0.0
 20
0.0
 30
0.0
210
0.0
220
0.0
230
1.0
  2
SOLID
 70
     1
 71
     1
 91
        1
 92
        1
 93
        1
 72
     4
 94
        3
 73
     0
 74
     0
 95
       80
 96
       76
 40
0.0
 40
0.0
 40
0.0
 40
0.0
 40
1.0
 40
1.0
 40
1.0
 40
2.0
 40
2.0
 40
2.0
 40
3.0
 40
3.0
 40
3.0
 40
4.0
 40
4.0
 40
4.0
 40
5.0
 40
5.0
 40
5.0
 40
6.0
 40
6.0
 40
6.0
 40
7.0
 40
7.0
 40
7.0
 40
8.0
 40
8.0
 40
8.0
 40
9.0
 40
9.0
 40
9.0
 40
10.0
 40
10.0
 40
10.0
 40
11.0
 40
11.0
 40
11.0
 40
12.0
 40
12.0
 40
12.0
 40
13.0
 40
13.0
 40
13.0
 40
14.0
 40
14.0
 40
14.0
 40
15.0
 40
15.0
 40
15.0
 40
16.0
 40
16.0
 40
16.0
 40
17.0
 40
17.0
 40
17.0
 40
18.0
 40
18.0
 40
18.0
 40
19.0
 40
19.0
 40
19.0
 40
20.0
 40
20.0
 40
20.0
 40
21.0
 40
21.0
 40
21.0
 40
22.0
 40
22.0
 40
22.0
 40
23.0
 40
23.0
 40
23.0
 40
24.0
 40
24.0
 40
24.0
 40
25.0
 40
25.0
 40
25.0
 40
25.0
 10
8.033652613008946
 20
-5.29817789581087
 10
8.033652613008946
 20
-5.277025009531436
 10
8.033204750595862
 20
-5.259661728285777
 10
8.031930065266321
 20
-5.242746309453202
 10
8.031930065266321
 20
-5.242746309453202
 10
8.064520668556784
 20
-5.242746309453202
 10
8.064520668556784
 20
-5.242746309453202
 10
8.064520668556784
 20
-5.242746309453202
 10
8.066208765344557
 20
-5.275750324201894
 10
8.066208765344557
 20
-5.275750324201894
 10
8.066208765344557
 20
-5.275750324201894
 10
8.067483450674098
 20
-5.275750324201894
 10
8.067483450674098
 20
-5.275750324201894
 10
8.078921167685129
 20
-5.256285534710233
 10
8.097938094763707
 20
-5.238095430548113
 10
8.131803383383715
 20
-5.238095430548113
 10
8.159708656814236
 20
-5.238095430548113
 10
8.180861543093673
 20
-5.255010849380691
 10
8.189749889445616
 20
-5.27912651777744
 10
8.189749889445616
 20
-5.27912651777744
 10
8.190611163316928
 20
-5.27912651777744
 10
8.190611163316928
 20
-5.27912651777744
 10
8.196950139009789
 20
-5.267688800766411
 10
8.204977211490421
 20
-5.258834905369318
 10
8.213452146384137
 20
-5.252461478721606
 10
8.225716686311626
 20
-5.243159720911432
 10
8.239255911568655
 20
-5.238095430548113
 10
8.258720701060319
 20
-5.238095430548113
 10
8.285799151574382
 20
-5.238095430548113
 10
8.326003415887246
 20
-5.255872123252003
 10
8.326003415887246
 20
-5.326944443112707
 10
8.326003415887246
 20
-5.326944443112707
 10
8.326003415887246
 20
-5.447522785096452
 10
8.326003415887246
 20
-5.447522785096452
 10
8.326003415887246
 20
-5.447522785096452
 10
8.289623207563009
 20
-5.447522785096452
 10
8.289623207563009
 20
-5.447522785096452
 10
8.289623207563009
 20
-5.447522785096452
 10
8.289623207563009
 20
-5.331595322017794
 10
8.289623207563009
 20
-5.331595322017794
 10
8.289623207563009
 20
-5.292252331576242
 10
8.275222708434666
 20
-5.268550074637722
 10
8.245181475803287
 20
-5.268550074637722
 10
8.224028589523852
 20
-5.268550074637722
 10
8.207526582149505
 20
-5.284190808140756
 10
8.201187606456647
 20
-5.302415363257727
 10
8.199499509668871
 20
-5.307479653621046
 10
8.198224824339332
 20
-5.314232040772136
 10
8.198224824339332
 20
-5.321018878878077
 10
8.198224824339332
 20
-5.321018878878077
 10
8.198224824339332
 20
-5.447522785096452
 10
8.198224824339332
 20
-5.447522785096452
 10
8.198224824339332
 20
-5.447522785096452
 10
8.161844616015093
 20
-5.447522785096452
 10
8.161844616015093
 20
-5.447522785096452
 10
8.161844616015093
 20
-5.447522785096452
 10
8.161844616015093
 20
-5.324808483911851
 10
8.161844616015093
 20
-5.324808483911851
 10
8.161844616015093
 20
-5.292252331576242
 10
8.147444116886749
 20
-5.268550074637722
 10
8.119090981043141
 20
-5.268550074637722
 10
8.095836586517707
 20
-5.268550074637722
 10
8.078921167685129
 20
-5.287153590258071
 10
8.072995603450499
 20
-5.305791556833272
 10
8.070859644249646
 20
-5.311269258654821
 10
8.070032821333184
 20
-5.317642685302533
 10
8.070032821333184
 20
-5.323981660995393
 10
8.070032821333184
 20
-5.323981660995393
 10
8.070032821333184
 20
-5.447522785096452
 10
8.070032821333184
 20
-5.447522785096452
 10
8.070032821333184
 20
-5.447522785096452
 10
8.033652613008946
 20
-5.447522785096452
 10
8.033652613008946
 20
-5.447522785096452
 10
8.033652613008946
 20
-5.447522785096452
 10
8.033652613008946
 20
-5.29817789581087
 10
8.033652613008946
 20
-5.29817789581087
 97
        1
330
A7
 75
     2
 76
     1
 98
        1
 10
0.0
 20
0.0
450
        0
451
        0
460
0.0
461
0.0
452
        0
462
0.0
453
        0
470

  0
SPLINE
  5
A9
330
99
100
AcDbEntity
  8
Livello 2
100
AcDbSpline
210
0.0
220
0.0
230
1.0
 70
     9
 71
     3
 72
    80
 73
    76
 74
     0
 42
0.000000001
 43
0.0000000001
 40
0.0
 40
0.0
 40
0.0
 40
0.0
 40
1.0
 40
1.0
 40
1.0
 40
2.0
 40
2.0
 40
2.0
 40
3.0
 40
3.0
 40
3.0
 40
4.0
 40
4.0
 40
4.0
 40
5.0
 40
5.0
 40
5.0
 40
6.0
 40
6.0
 40
6.0
 40
7.0
 40
7.0
 40
7.0
 40
8.0
 40
8.0
 40
8.0
 40
9.0
 40
9.0
 40
9.0
 40
10.0
 40
10.0
 40
10.0
 40
11.0
 40
11.0
 40
11.0
 40
12.0
 40
12.0
 40
12.0
 40
13.0
 40
13.0
 40
13.0
 40
14.0
 40
14.0
 40
14.0
 40
15.0
 40
15.0
 40
15.0
 40
16.0
 40
16.0
 40
16.0
 40
17.0
 40
17.0
 40
17.0
 40
18.0
 40
18.0
 40
18.0
 40
19.0
 40
19.0
 40
19.0
 40
20.0
 40
20.0
 40
20.0
 40
21.0
 40
21.0
 40
21.0
 40
22.0
 40
22.0
 40
22.0
 40
23.0
 40
23.0
 40
23.0
 40
24.0
 40
24.0
 40
24.0
 40
25.0
 40
25.0
 40
25.0
 40
25.0
 10
8.386705998337351
 20
-5.29817789581087
 30
0.0
 10
8.386705998337351
 20
-5.277025009531436
 30
0.0
 10
8.386258135924267
 20
-5.259661728285777
 30
0.0
 10
8.384983450594726
 20
-5.242746309453202
 30
0.0
 10
8.384983450594726
 20
-5.242746309453202
 30
0.0
 10
8.417574053885187
 20
-5.242746309453202
 30
0.0
 10
8.417574053885187
 20
-5.242746309453202
 30
0.0
 10
8.417574053885187
 20
-5.242746309453202
 30
0.0
 10
8.419262150672961
 20
-5.275750324201894
 30
0.0
 10
8.419262150672961
 20
-5.275750324201894
 30
0.0
 10
8.419262150672961
 20
-5.275750324201894
 30
0.0
 10
8.420536836002503
 20
-5.275750324201894
 30
0.0
 10
8.420536836002503
 20
-5.275750324201894
 30
0.0
 10
8.431974553013532
 20
-5.256285534710233
 30
0.0
 10
8.450991480092111
 20
-5.238095430548113
 30
0.0
 10
8.484856768712116
 20
-5.238095430548113
 30
0.0
 10
8.512762042142641
 20
-5.238095430548113
 30
0.0
 10
8.533914928422076
 20
-5.255010849380691
 30
0.0
 10
8.542803274774021
 20
-5.27912651777744
 30
0.0
 10
8.542803274774021
 20
-5.27912651777744
 30
0.0
 10
8.543664548645331
 20
-5.27912651777744
 30
0.0
 10
8.543664548645331
 20
-5.27912651777744
 30
0.0
 10
8.550003524338192
 20
-5.267688800766411
 30
0.0
 10
8.558030596818824
 20
-5.258834905369318
 30
0.0
 10
8.56650553171254
 20
-5.252461478721606
 30
0.0
 10
8.578770071640027
 20
-5.243159720911432
 30
0.0
 10
8.592309296897061
 20
-5.238095430548113
 30
0.0
 10
8.611774086388722
 20
-5.238095430548113
 30
0.0
 10
8.638852536902787
 20
-5.238095430548113
 30
0.0
 10
8.679056801215651
 20
-5.255872123252003
 30
0.0
 10
8.679056801215651
 20
-5.326944443112707
 30
0.0
 10
8.679056801215651
 20
-5.326944443112707
 30
0.0
 10
8.679056801215651
 20
-5.447522785096452
 30
0.0
 10
8.679056801215651
 20
-5.447522785096452
 30
0.0
 10
8.679056801215651
 20
-5.447522785096452
 30
0.0
 10
8.642676592891412
 20
-5.447522785096452
 30
0.0
 10
8.642676592891412
 20
-5.447522785096452
 30
0.0
 10
8.642676592891412
 20
-5.447522785096452
 30
0.0
 10
8.642676592891412
 20
-5.331595322017794
 30
0.0
 10
8.642676592891412
 20
-5.331595322017794
 30
0.0
 10
8.642676592891412
 20
-5.292252331576242
 30
0.0
 10
8.628276093763068
 20
-5.268550074637722
 30
0.0
 10
8.59823486113169
 20
-5.268550074637722
 30
0.0
 10
8.577081974852257
 20
-5.268550074637722
 30
0.0
 10
8.560579967477909
 20
-5.284190808140756
 30
0.0
 10
8.554240991785048
 20
-5.302415363257727
 30
0.0
 10
8.552552894997276
 20
-5.307479653621046
 30
0.0
 10
8.551278209667735
 20
-5.314232040772136
 30
0.0
 10
8.551278209667735
 20
-5.321018878878077
 30
0.0
 10
8.551278209667735
 20
-5.321018878878077
 30
0.0
 10
8.551278209667735
 20
-5.447522785096452
 30
0.0
 10
8.551278209667735
 20
-5.447522785096452
 30
0.0
 10
8.551278209667735
 20
-5.447522785096452
 30
0.0
 10
8.514898001343496
 20
-5.447522785096452
 30
0.0
 10
8.514898001343496
 20
-5.447522785096452
 30
0.0
 10
8.514898001343496
 20
-5.447522785096452
 30
0.0
 10
8.514898001343496
 20
-5.324808483911851
 30
0.0
 10
8.514898001343496
 20
-5.324808483911851
 30
0.0
 10
8.514898001343496
 20
-5.292252331576242
 30
0.0
 10
8.500497502215152
 20
-5.268550074637722
 30
0.0
 10
8.472144366371546
 20
-5.268550074637722
 30
0.0
 10
8.44888997184611
 20
-5.268550074637722
 30
0.0
 10
8.431974553013532
 20
-5.287153590258071
 30
0.0
 10
8.426048988778902
 20
-5.305791556833272
 30
0.0
 10
8.423913029578049
 20
-5.311269258654821
 30
0.0
 10
8.423086206661588
 20
-5.317642685302533
 30
0.0
 10
8.423086206661588
 20
-5.323981660995393
 30
0.0
 10
8.423086206661588
 20
-5.323981660995393
 30
0.0
 10
8.423086206661588
 20
-5.447522785096452
 30
0.0
 10
8.423086206661588
 20
-5.447522785096452
 30
0.0
 10
8.423086206661588
 20
-5.447522785096452
 30
0.0
 10
8.386705998337351
 20
-5.447522785096452
 30
0.0
 10
8.386705998337351
 20
-5.447522785096452
 30
0.0
 10
8.386705998337351
 20
-5.447522785096452
 30
0.0
 10
8.386705998337351
 20
-5.29817789581087
 30
0.0
 10
8.386705998337351
 20
-5.29817789581087
 30
0.0
  0
HATCH
  5
AA
330
99
100
AcDbEntity
  8
Livello 2
 62
   250
420
  1907995
440
 33554687
100
AcDbHatch
 10
0.0
 20
0.0
 30
0.0
210
0.0
220
0.0
230
1.0
  2
SOLID
 70
     1
 71
     1
 91
        1
 92
        1
 93
        1
 72
     4
 94
        3
 73
     0
 74
     0
 95
       80
 96
       76
 40
0.0
 40
0.0
 40
0.0
 40
0.0
 40
1.0
 40
1.0
 40
1.0
 40
2.0
 40
2.0
 40
2.0
 40
3.0
 40
3.0
 40
3.0
 40
4.0
 40
4.0
 40
4.0
 40
5.0
 40
5.0
 40
5.0
 40
6.0
 40
6.0
 40
6.0
 40
7.0
 40
7.0
 40
7.0
 40
8.0
 40
8.0
 40
8.0
 40
9.0
 40
9.0
 40
9.0
 40
10.0
 40
10.0
 40
10.0
 40
11.0
 40
11.0
 40
11.0
 40
12.0
 40
12.0
 40
12.0
 40
13.0
 40
13.0
 40
13.0
 40
14.0
 40
14.0
 40
14.0
 40
15.0
 40
15.0
 40
15.0
 40
16.0
 40
16.0
 40
16.0
 40
17.0
 40
17.0
 40
17.0
 40
18.0
 40
18.0
 40
18.0
 40
19.0
 40
19.0
 40
19.0
 40
20.0
 40
20.0
 40
20.0
 40
21.0
 40
21.0
 40
21.0
 40
22.0
 40
22.0
 40
22.0
 40
23.0
 40
23.0
 40
23.0
 40
24.0
 40
24.0
 40
24.0
 40
25.0
 40
25.0
 40
25.0
 40
25.0
 10
8.386705998337351
 20
-5.29817789581087
 10
8.386705998337351
 20
-5.277025009531436
 10
8.386258135924267
 20
-5.259661728285777
 10
8.384983450594726
 20
-5.242746309453202
 10
8.384983450594726
 20
-5.242746309453202
 10
8.417574053885187
 20
-5.242746309453202
 10
8.417574053885187
 20
-5.242746309453202
 10
8.417574053885187
 20
-5.242746309453202
 10
8.419262150672961
 20
-5.275750324201894
 10
8.419262150672961
 20
-5.275750324201894
 10
8.419262150672961
 20
-5.275750324201894
 10
8.420536836002503
 20
-5.275750324201894
 10
8.420536836002503
 20
-5.275750324201894
 10
8.431974553013532
 20
-5.256285534710233
 10
8.450991480092111
 20
-5.238095430548113
 10
8.484856768712116
 20
-5.238095430548113
 10
8.512762042142641
 20
-5.238095430548113
 10
8.533914928422076
 20
-5.255010849380691
 10
8.542803274774021
 20
-5.27912651777744
 10
8.542803274774021
 20
-5.27912651777744
 10
8.543664548645331
 20
-5.27912651777744
 10
8.543664548645331
 20
-5.27912651777744
 10
8.550003524338192
 20
-5.267688800766411
 10
8.558030596818824
 20
-5.258834905369318
 10
8.56650553171254
 20
-5.252461478721606
 10
8.578770071640027
 20
-5.243159720911432
 10
8.592309296897061
 20
-5.238095430548113
 10
8.611774086388722
 20
-5.238095430548113
 10
8.638852536902787
 20
-5.238095430548113
 10
8.679056801215651
 20
-5.255872123252003
 10
8.679056801215651
 20
-5.326944443112707
 10
8.679056801215651
 20
-5.326944443112707
 10
8.679056801215651
 20
-5.447522785096452
 10
8.679056801215651
 20
-5.447522785096452
 10
8.679056801215651
 20
-5.447522785096452
 10
8.642676592891412
 20
-5.447522785096452
 10
8.642676592891412
 20
-5.447522785096452
 10
8.642676592891412
 20
-5.447522785096452
 10
8.642676592891412
 20
-5.331595322017794
 10
8.642676592891412
 20
-5.331595322017794
 10
8.642676592891412
 20
-5.292252331576242
 10
8.628276093763068
 20
-5.268550074637722
 10
8.59823486113169
 20
-5.268550074637722
 10
8.577081974852257
 20
-5.268550074637722
 10
8.560579967477909
 20
-5.284190808140756
 10
8.554240991785048
 20
-5.302415363257727
 10
8.552552894997276
 20
-5.307479653621046
 10
8.551278209667735
 20
-5.314232040772136
 10
8.551278209667735
 20
-5.321018878878077
 10
8.551278209667735
 20
-5.321018878878077
 10
8.551278209667735
 20
-5.447522785096452
 10
8.551278209667735
 20
-5.447522785096452
 10
8.551278209667735
 20
-5.447522785096452
 10
8.514898001343496
 20
-5.447522785096452
 10
8.514898001343496
 20
-5.447522785096452
 10
8.514898001343496
 20
-5.447522785096452
 10
8.514898001343496
 20
-5.324808483911851
 10
8.514898001343496
 20
-5.324808483911851
 10
8.514898001343496
 20
-5.292252331576242
 10
8.500497502215152
 20
-5.268550074637722
 10
8.472144366371546
 20
-5.268550074637722
 10
8.44888997184611
 20
-5.268550074637722
 10
8.431974553013532
 20
-5.287153590258071
 10
8.426048988778902
 20
-5.305791556833272
 10
8.423913029578049
 20
-5.311269258654821
 10
8.423086206661588
 20
-5.317642685302533
 10
8.423086206661588
 20
-5.323981660995393
 10
8.423086206661588
 20
-5.323981660995393
 10
8.423086206661588
 20
-5.447522785096452
 10
8.423086206661588
 20
-5.447522785096452
 10
8.423086206661588
 20
-5.447522785096452
 10
8.386705998337351
 20
-5.447522785096452
 10
8.386705998337351
 20
-5.447522785096452
 10
8.386705998337351
 20
-5.447522785096452
 10
8.386705998337351
 20
-5.29817789581087
 10
8.386705998337351
 20
-5.29817789581087
 97
        1
330
A9
 75
     2
 76
     1
 98
        1
 10
0.0
 20
0.0
450
        0
451
        0
460
0.0
461
0.0
452
        0
462
0.0
453
        0
470

  0
ENDBLK
  5
9C
330
99
100
AcDbEntity
  8
0
100
AcDbBlockEnd
  0
BLOCK
  5
AD
330
AB
100
AcDbEntity
  8
0
100
AcDbBlockBegin
  2
Block_4
 70
     0
 10
0.0
 20
0.0
 30
0.0
  3
Block_4
  1

  0
INSERT
  5
B0
330
AB
100
AcDbEntity
  8
Livello 2
100
AcDbBlockReference
  2
Block_5
 10
0.0
 20
0.0
 30
0.0
  0
ENDBLK
  5
AE
330
AB
100
AcDbEntity
  8
0
100
AcDbBlockEnd
  0
BLOCK
  5
B1
330
AF
100
AcDbEntity
  8
0
100
AcDbBlockBegin
  2
Block_5
 70
     0
 10
0.0
 20
0.0
 30
0.0
  3
Block_5
  1

  0
SPLINE
  5
B3
330
AF
100
AcDbEntity
  8
Livello 2
100
AcDbSpline
210
0.0
220
0.0
230
1.0
 70
     9
 71
     3
 72
    20
 73
    16
 74
     0
 42
0.000000001
 43
0.0000000001
 40
0.0
 40
0.0
 40
0.0
 40
0.0
 40
1.0
 40
1.0
 40
1.0
 40
2.0
 40
2.0
 40
2.0
 40
3.0
 40
3.0
 40
3.0
 40
4.0
 40
4.0
 40
4.0
 40
5.0
 40
5.0
 40
5.0
 40
5.0
 10
4.535037569395753
 20
-1.543075493320828
 30
0.0
 10
4.535037569395753
 20
-1.577354193399064
 30
0.0
 10
4.555777044216958
 20
-1.601469861795813
 30
0.0
 10
4.587919785094338
 20
-1.601469861795813
 30
0.0
 10
4.612879501884972
 20
-1.601469861795813
 30
0.0
 10
4.632344291376634
 20
-1.589205321868323
 30
0.0
 10
4.642076686122465
 20
-1.572703314493975
 30
0.0
 10
4.644195419845894
 20
-1.569327120918431
 30
0.0
 10
4.645470105175436
 20
-1.565089653471573
 30
0.0
 10
4.645470105175436
 20
-1.559164089236944
 30
0.0
 10
4.645470105175436
 20
-1.512207437772989
 30
0.0
 10
4.628124049407205
 20
-1.476240640906981
 30
0.0
 10
4.589194470423881
 20
-1.476240640906981
 30
0.0
 10
4.55746514100473
 20
-1.476240640906981
 30
0.0
 10
4.535037569395753
 20
-1.504145914337504
 30
0.0
 10
4.535037569395753
 20
-1.543075493320828
 30
0.0
  0
SPLINE
  5
B4
330
AF
100
AcDbEntity
  8
Livello 2
100
AcDbSpline
210
0.0
220
0.0
230
1.0
 70
     9
 71
     3
 72
    41
 73
    37
 74
     0
 42
0.000000001
 43
0.0000000001
 40
0.0
 40
0.0
 40
0.0
 40
0.0
 40
1.0
 40
1.0
 40
1.0
 40
2.0
 40
2.0
 40
2.0
 40
3.0
 40
3.0
 40
3.0
 40
4.0
 40
4.0
 40
4.0
 40
5.0
 40
5.0
 40
5.0
 40
6.0
 40
6.0
 40
6.0
 40
7.0
 40
7.0
 40
7.0
 40
8.0
 40
8.0
 40
8.0
 40
9.0
 40
9.0
 40
9.0
 40
10.0
 40
10.0
 40
10.0
 40
11.0
 40
11.0
 40
11.0
 40
12.0
 40
12.0
 40
12.0
 40
12.0
 10
4.521498344138722
 20
-1.701343179913205
 30
0.0
 10
4.52954264209678
 20
-1.702170002829664
 30
0.0
 10
4.538844399906955
 20
-1.701343179913205
 30
0.0
 10
4.551539576770101
 20
-1.700068494583663
 30
0.0
 10
4.573123099985191
 20
-1.697105712466347
 30
0.0
 10
4.593431937870738
 20
-1.688217366114403
 30
0.0
 10
4.609072671373771
 20
-1.673403455527829
 30
0.0
 10
4.627280001013318
 20
-1.656901448153482
 30
0.0
 10
4.640388589334693
 20
-1.632785779756734
 30
0.0
 10
4.645470105175436
 20
-1.60019517646627
 30
0.0
 10
4.645470105175436
 20
-1.60019517646627
 30
0.0
 10
4.644195419845894
 20
-1.60019517646627
 30
0.0
 10
4.644195419845894
 20
-1.60019517646627
 30
0.0
 10
4.628968097801091
 20
-1.618833143041471
 30
0.0
 10
4.606971163127769
 20
-1.629822997639418
 30
0.0
 10
4.579462075678049
 20
-1.629822997639418
 30
0.0
 10
4.529956053555009
 20
-1.629822997639418
 30
0.0
 10
4.498226724135858
 20
-1.592581515443868
 30
0.0
 10
4.498226724135858
 20
-1.545624863979913
 30
0.0
 10
4.498226724135858
 20
-1.493569471197788
 30
0.0
 10
4.535881617789639
 20
-1.447887505063375
 30
0.0
 10
4.592157252541196
 20
-1.447887505063375
 30
0.0
 10
4.648432887292751
 20
-1.447887505063375
 30
0.0
 10
4.683124998829217
 20
-1.493569471197788
 30
0.0
 10
4.683124998829217
 20
-1.563814968142032
 30
0.0
 10
4.683124998829217
 20
-1.624310844863019
 30
0.0
 10
4.662816160943669
 20
-1.666616617421886
 30
0.0
 10
4.635737710429606
 20
-1.69286824501949
 30
0.0
 10
4.614584824150171
 20
-1.713607719840694
 30
0.0
 10
4.58538763991268
 20
-1.726285671226414
 30
0.0
 10
4.555777044216958
 20
-1.729661864801959
 30
0.0
 10
4.542237818959925
 20
-1.731797824002813
 30
0.0
 10
4.530386690490666
 20
-1.732211235461043
 30
0.0
 10
4.521498344138722
 20
-1.731797824002813
 30
0.0
 10
4.521498344138722
 20
-1.731797824002813
 30
0.0
 10
4.521498344138722
 20
-1.701343179913205
 30
0.0
 10
4.521498344138722
 20
-1.701343179913205
 30
0.0
  0
HATCH
  5
B5
330
AF
100
AcDbEntity
  8
Livello 2
 62
   250
420
  1907995
440
 33554687
100
AcDbHatch
 10
0.0
 20
0.0
 30
0.0
210
0.0
220
0.0
230
1.0
  2
SOLID
 70
     1
 71
     1
 91
        2
 92
        1
 93
        1
 72
     4
 94
        3
 73
     0
 74
     0
 95
       20
 96
       16
 40
0.0
 40
0.0
 40
0.0
 40
0.0
 40
1.0
 40
1.0
 40
1.0
 40
2.0
 40
2.0
 40
2.0
 40
3.0
 40
3.0
 40
3.0
 40
4.0
 40
4.0
 40
4.0
 40
5.0
 40
5.0
 40
5.0
 40
5.0
 10
4.535037569395753
 20
-1.543075493320828
 10
4.535037569395753
 20
-1.577354193399064
 10
4.555777044216958
 20
-1.601469861795813
 10
4.587919785094338
 20
-1.601469861795813
 10
4.612879501884972
 20
-1.601469861795813
 10
4.632344291376634
 20
-1.589205321868323
 10
4.642076686122465
 20
-1.572703314493975
 10
4.644195419845894
 20
-1.569327120918431
 10
4.645470105175436
 20
-1.565089653471573
 10
4.645470105175436
 20
-1.559164089236944
 10
4.645470105175436
 20
-1.512207437772989
 10
4.628124049407205
 20
-1.476240640906981
 10
4.589194470423881
 20
-1.476240640906981
 10
4.55746514100473
 20
-1.476240640906981
 10
4.535037569395753
 20
-1.504145914337504
 10
4.535037569395753
 20
-1.543075493320828
 97
        1
330
B3
 92
        1
 93
        1
 72
     4
 94
        3
 73
     0
 74
     0
 95
       41
 96
       37
 40
0.0
 40
0.0
 40
0.0
 40
0.0
 40
1.0
 40
1.0
 40
1.0
 40
2.0
 40
2.0
 40
2.0
 40
3.0
 40
3.0
 40
3.0
 40
4.0
 40
4.0
 40
4.0
 40
5.0
 40
5.0
 40
5.0
 40
6.0
 40
6.0
 40
6.0
 40
7.0
 40
7.0
 40
7.0
 40
8.0
 40
8.0
 40
8.0
 40
9.0
 40
9.0
 40
9.0
 40
10.0
 40
10.0
 40
10.0
 40
11.0
 40
11.0
 40
11.0
 40
12.0
 40
12.0
 40
12.0
 40
12.0
 10
4.521498344138722
 20
-1.701343179913205
 10
4.52954264209678
 20
-1.702170002829664
 10
4.538844399906955
 20
-1.701343179913205
 10
4.551539576770101
 20
-1.700068494583663
 10
4.573123099985191
 20
-1.697105712466347
 10
4.593431937870738
 20
-1.688217366114403
 10
4.609072671373771
 20
-1.673403455527829
 10
4.627280001013318
 20
-1.656901448153482
 10
4.640388589334693
 20
-1.632785779756734
 10
4.645470105175436
 20
-1.60019517646627
 10
4.645470105175436
 20
-1.60019517646627
 10
4.644195419845894
 20
-1.60019517646627
 10
4.644195419845894
 20
-1.60019517646627
 10
4.628968097801091
 20
-1.618833143041471
 10
4.606971163127769
 20
-1.629822997639418
 10
4.579462075678049
 20
-1.629822997639418
 10
4.529956053555009
 20
-1.629822997639418
 10
4.498226724135858
 20
-1.592581515443868
 10
4.498226724135858
 20
-1.545624863979913
 10
4.498226724135858
 20
-1.493569471197788
 10
4.535881617789639
 20
-1.447887505063375
 10
4.592157252541196
 20
-1.447887505063375
 10
4.648432887292751
 20
-1.447887505063375
 10
4.683124998829217
 20
-1.493569471197788
 10
4.683124998829217
 20
-1.563814968142032
 10
4.683124998829217
 20
-1.624310844863019
 10
4.662816160943669
 20
-1.666616617421886
 10
4.635737710429606
 20
-1.69286824501949
 10
4.614584824150171
 20
-1.713607719840694
 10
4.58538763991268
 20
-1.726285671226414
 10
4.555777044216958
 20
-1.729661864801959
 10
4.542237818959925
 20
-1.731797824002813
 10
4.530386690490666
 20
-1.732211235461043
 10
4.521498344138722
 20
-1.731797824002813
 10
4.521498344138722
 20
-1.731797824002813
 10
4.521498344138722
 20
-1.701343179913205
 10
4.521498344138722
 20
-1.701343179913205
 97
        1
330
B4
 75
     2
 76
     1
 98
        1
 10
0.0
 20
0.0
450
        0
451
        0
460
0.0
461
0.0
452
        0
462
0.0
453
        0
470

  0
SPLINE
  5
B6
330
AF
100
AcDbEntity
  8
Livello 2
100
AcDbSpline
210
0.0
220
0.0
230
1.0
 70
     9
 71
     3
 72
    17
 73
    13
 74
     0
 42
0.000000001
 43
0.0000000001
 40
0.0
 40
0.0
 40
0.0
 40
0.0
 40
1.0
 40
1.0
 40
1.0
 40
2.0
 40
2.0
 40
2.0
 40
3.0
 40
3.0
 40
3.0
 40
4.0
 40
4.0
 40
4.0
 40
4.0
 10
4.750511066520703
 20
-1.591306830114325
 30
0.0
 10
4.750511066520703
 20
-1.662827012388111
 30
0.0
 10
4.772508001194025
 20
-1.703444688159208
 30
0.0
 10
4.806356064336605
 20
-1.703444688159208
 30
0.0
 10
4.844441594926041
 20
-1.703444688159208
 30
0.0
 10
4.862631699088161
 20
-1.659002956399485
 30
0.0
 10
4.862631699088161
 20
-1.588791910410093
 30
0.0
 10
4.862631699088161
 20
-1.521095784124934
 30
0.0
 10
4.845285643319927
 20
-1.47665405236521
 30
0.0
 10
4.806786701272261
 20
-1.47665405236521
 30
0.0
 10
4.774196097981796
 20
-1.47665405236521
 30
0.0
 10
4.750511066520703
 20
-1.516444905219846
 30
0.0
 10
4.750511066520703
 20
-1.591306830114325
 30
0.0
  0
SPLINE
  5
B7
330
AF
100
AcDbEntity
  8
Livello 2
100
AcDbSpline
210
0.0
220
0.0
230
1.0
 70
     9
 71
     3
 72
    17
 73
    13
 74
     0
 42
0.000000001
 43
0.0000000001
 40
0.0
 40
0.0
 40
0.0
 40
0.0
 40
1.0
 40
1.0
 40
1.0
 40
2.0
 40
2.0
 40
2.0
 40
3.0
 40
3.0
 40
3.0
 40
4.0
 40
4.0
 40
4.0
 40
4.0
 10
4.899855955806285
 20
-1.587103813622321
 30
0.0
 10
4.899855955806285
 20
-1.680603705092
 30
0.0
 10
4.86516384426982
 20
-1.732211235461043
 30
0.0
 10
4.804237330613175
 20
-1.732211235461043
 30
0.0
 10
4.750511066520703
 20
-1.732211235461043
 30
0.0
 10
4.71411363271904
 20
-1.681878390421544
 30
0.0
 10
4.713269584325153
 20
-1.590893418656095
 30
0.0
 10
4.713269584325153
 20
-1.498668212515956
 30
0.0
 10
4.753043211702363
 20
-1.447887505063375
 30
0.0
 10
4.808888209518262
 20
-1.447887505063375
 30
0.0
 10
4.866851941057592
 20
-1.447887505063375
 30
0.0
 10
4.899855955806285
 20
-1.499495035432417
 30
0.0
 10
4.899855955806285
 20
-1.587103813622321
 30
0.0
  0
HATCH
  5
B8
330
AF
100
AcDbEntity
  8
Livello 2
 62
   250
420
  1907995
440
 33554687
100
AcDbHatch
 10
0.0
 20
0.0
 30
0.0
210
0.0
220
0.0
230
1.0
  2
SOLID
 70
     1
 71
     1
 91
        2
 92
        1
 93
        1
 72
     4
 94
        3
 73
     0
 74
     0
 95
       17
 96
       13
 40
0.0
 40
0.0
 40
0.0
 40
0.0
 40
1.0
 40
1.0
 40
1.0
 40
2.0
 40
2.0
 40
2.0
 40
3.0
 40
3.0
 40
3.0
 40
4.0
 40
4.0
 40
4.0
 40
4.0
 10
4.750511066520703
 20
-1.591306830114325
 10
4.750511066520703
 20
-1.662827012388111
 10
4.772508001194025
 20
-1.703444688159208
 10
4.806356064336605
 20
-1.703444688159208
 10
4.844441594926041
 20
-1.703444688159208
 10
4.862631699088161
 20
-1.659002956399485
 10
4.862631699088161
 20
-1.588791910410093
 10
4.862631699088161
 20
-1.521095784124934
 10
4.845285643319927
 20
-1.47665405236521
 10
4.806786701272261
 20
-1.47665405236521
 10
4.774196097981796
 20
-1.47665405236521
 10
4.750511066520703
 20
-1.516444905219846
 10
4.750511066520703
 20
-1.591306830114325
 97
        1
330
B6
 92
        1
 93
        1
 72
     4
 94
        3
 73
     0
 74
     0
 95
       17
 96
       13
 40
0.0
 40
0.0
 40
0.0
 40
0.0
 40
1.0
 40
1.0
 40
1.0
 40
2.0
 40
2.0
 40
2.0
 40
3.0
 40
3.0
 40
3.0
 40
4.0
 40
4.0
 40
4.0
 40
4.0
 10
4.899855955806285
 20
-1.587103813622321
 10
4.899855955806285
 20
-1.680603705092
 10
4.86516384426982
 20
-1.732211235461043
 10
4.804237330613175
 20
-1.732211235461043
 10
4.750511066520703
 20
-1.732211235461043
 10
4.71411363271904
 20
-1.681878390421544
 10
4.713269584325153
 20
-1.590893418656095
 10
4.713269584325153
 20
-1.498668212515956
 10
4.753043211702363
 20
-1.447887505063375
 10
4.808888209518262
 20
-1.447887505063375
 10
4.866851941057592
 20
-1.447887505063375
 10
4.899855955806285
 20
-1.499495035432417
 10
4.899855955806285
 20
-1.587103813622321
 97
        1
330
B7
 75
     2
 76
     1
 98
        1
 10
0.0
 20
0.0
450
        0
451
        0
460
0.0
461
0.0
452
        0
462
0.0
453
        0
470

  0
SPLINE
  5
B9
330
AF
100
AcDbEntity
  8
Livello 2
100
AcDbSpline
210
0.0
220
0.0
230
1.0
 70
     9
 71
     3
 72
    80
 73
    76
 74
     0
 42
0.000000001
 43
0.0000000001
 40
0.0
 40
0.0
 40
0.0
 40
0.0
 40
1.0
 40
1.0
 40
1.0
 40
2.0
 40
2.0
 40
2.0
 40
3.0
 40
3.0
 40
3.0
 40
4.0
 40
4.0
 40
4.0
 40
5.0
 40
5.0
 40
5.0
 40
6.0
 40
6.0
 40
6.0
 40
7.0
 40
7.0
 40
7.0
 40
8.0
 40
8.0
 40
8.0
 40
9.0
 40
9.0
 40
9.0
 40
10.0
 40
10.0
 40
10.0
 40
11.0
 40
11.0
 40
11.0
 40
12.0
 40
12.0
 40
12.0
 40
13.0
 40
13.0
 40
13.0
 40
14.0
 40
14.0
 40
14.0
 40
15.0
 40
15.0
 40
15.0
 40
16.0
 40
16.0
 40
16.0
 40
17.0
 40
17.0
 40
17.0
 40
18.0
 40
18.0
 40
18.0
 40
19.0
 40
19.0
 40
19.0
 40
20.0
 40
20.0
 40
20.0
 40
21.0
 40
21.0
 40
21.0
 40
22.0
 40
22.0
 40
22.0
 40
23.0
 40
23.0
 40
23.0
 40
24.0
 40
24.0
 40
24.0
 40
25.0
 40
25.0
 40
25.0
 40
25.0
 10
5.035868325563948
 20
-1.578215467270376
 30
0.0
 10
5.035868325563948
 20
-1.557062580990941
 30
0.0
 10
5.035420463150866
 20
-1.539699299745283
 30
0.0
 10
5.034145777821324
 20
-1.522783880912705
 30
0.0
 10
5.034145777821324
 20
-1.522783880912705
 30
0.0
 10
5.066736381111788
 20
-1.522783880912705
 30
0.0
 10
5.066736381111788
 20
-1.522783880912705
 30
0.0
 10
5.066736381111788
 20
-1.522783880912705
 30
0.0
 10
5.068424477899559
 20
-1.555787895661399
 30
0.0
 10
5.068424477899559
 20
-1.555787895661399
 30
0.0
 10
5.068424477899559
 20
-1.555787895661399
 30
0.0
 10
5.069699163229101
 20
-1.555787895661399
 30
0.0
 10
5.069699163229101
 20
-1.555787895661399
 30
0.0
 10
5.081136880240131
 20
-1.536323106169738
 30
0.0
 10
5.10015380731871
 20
-1.518133002007619
 30
0.0
 10
5.134019095938715
 20
-1.518133002007619
 30
0.0
 10
5.16192436936924
 20
-1.518133002007619
 30
0.0
 10
5.183077255648673
 20
-1.535048420840196
 30
0.0
 10
5.191965602000618
 20
-1.559164089236944
 30
0.0
 10
5.191965602000618
 20
-1.559164089236944
 30
0.0
 10
5.192826875871931
 20
-1.559164089236944
 30
0.0
 10
5.192826875871931
 20
-1.559164089236944
 30
0.0
 10
5.19916585156479
 20
-1.547726372225914
 30
0.0
 10
5.207192924045422
 20
-1.538872476828823
 30
0.0
 10
5.215667858939137
 20
-1.53249905018111
 30
0.0
 10
5.227932398866626
 20
-1.523197292370936
 30
0.0
 10
5.241471624123659
 20
-1.518133002007619
 30
0.0
 10
5.26093641361532
 20
-1.518133002007619
 30
0.0
 10
5.288014864129383
 20
-1.518133002007619
 30
0.0
 10
5.328219128442249
 20
-1.535909694711508
 30
0.0
 10
5.328219128442249
 20
-1.606982014572211
 30
0.0
 10
5.328219128442249
 20
-1.606982014572211
 30
0.0
 10
5.328219128442249
 20
-1.727560356555956
 30
0.0
 10
5.328219128442249
 20
-1.727560356555956
 30
0.0
 10
5.328219128442249
 20
-1.727560356555956
 30
0.0
 10
5.291838920118012
 20
-1.727560356555956
 30
0.0
 10
5.291838920118012
 20
-1.727560356555956
 30
0.0
 10
5.291838920118012
 20
-1.727560356555956
 30
0.0
 10
5.291838920118012
 20
-1.6116328934773
 30
0.0
 10
5.291838920118012
 20
-1.6116328934773
 30
0.0
 10
5.291838920118012
 20
-1.572289903035746
 30
0.0
 10
5.277438420989668
 20
-1.548587646097226
 30
0.0
 10
5.247397188358289
 20
-1.548587646097226
 30
0.0
 10
5.226244302078855
 20
-1.548587646097226
 30
0.0
 10
5.209742294704507
 20
-1.564228379600262
 30
0.0
 10
5.203403319011647
 20
-1.582452934717233
 30
0.0
 10
5.201715222223875
 20
-1.58751722508055
 30
0.0
 10
5.200440536894332
 20
-1.59426961223164
 30
0.0
 10
5.200440536894332
 20
-1.601056450337583
 30
0.0
 10
5.200440536894332
 20
-1.601056450337583
 30
0.0
 10
5.200440536894332
 20
-1.727560356555956
 30
0.0
 10
5.200440536894332
 20
-1.727560356555956
 30
0.0
 10
5.200440536894332
 20
-1.727560356555956
 30
0.0
 10
5.164060328570094
 20
-1.727560356555956
 30
0.0
 10
5.164060328570094
 20
-1.727560356555956
 30
0.0
 10
5.164060328570094
 20
-1.727560356555956
 30
0.0
 10
5.164060328570094
 20
-1.604846055371356
 30
0.0
 10
5.164060328570094
 20
-1.604846055371356
 30
0.0
 10
5.164060328570094
 20
-1.572289903035746
 30
0.0
 10
5.149659829441751
 20
-1.548587646097226
 30
0.0
 10
5.121306693598143
 20
-1.548587646097226
 30
0.0
 10
5.098052299072707
 20
-1.548587646097226
 30
0.0
 10
5.081136880240131
 20
-1.567191161717576
 30
0.0
 10
5.075211316005502
 20
-1.585829128292778
 30
0.0
 10
5.073075356804646
 20
-1.591306830114325
 30
0.0
 10
5.072248533888187
 20
-1.597680256762038
 30
0.0
 10
5.072248533888187
 20
-1.604019232454897
 30
0.0
 10
5.072248533888187
 20
-1.604019232454897
 30
0.0
 10
5.072248533888187
 20
-1.727560356555956
 30
0.0
 10
5.072248533888187
 20
-1.727560356555956
 30
0.0
 10
5.072248533888187
 20
-1.727560356555956
 30
0.0
 10
5.035868325563948
 20
-1.727560356555956
 30
0.0
 10
5.035868325563948
 20
-1.727560356555956
 30
0.0
 10
5.035868325563948
 20
-1.727560356555956
 30
0.0
 10
5.035868325563948
 20
-1.578215467270376
 30
0.0
 10
5.035868325563948
 20
-1.578215467270376
 30
0.0
  0
HATCH
  5
BA
330
AF
100
AcDbEntity
  8
Livello 2
 62
   250
420
  1907995
440
 33554687
100
AcDbHatch
 10
0.0
 20
0.0
 30
0.0
210
0.0
220
0.0
230
1.0
  2
SOLID
 70
     1
 71
     1
 91
        1
 92
        1
 93
        1
 72
     4
 94
        3
 73
     0
 74
     0
 95
       80
 96
       76
 40
0.0
 40
0.0
 40
0.0
 40
0.0
 40
1.0
 40
1.0
 40
1.0
 40
2.0
 40
2.0
 40
2.0
 40
3.0
 40
3.0
 40
3.0
 40
4.0
 40
4.0
 40
4.0
 40
5.0
 40
5.0
 40
5.0
 40
6.0
 40
6.0
 40
6.0
 40
7.0
 40
7.0
 40
7.0
 40
8.0
 40
8.0
 40
8.0
 40
9.0
 40
9.0
 40
9.0
 40
10.0
 40
10.0
 40
10.0
 40
11.0
 40
11.0
 40
11.0
 40
12.0
 40
12.0
 40
12.0
 40
13.0
 40
13.0
 40
13.0
 40
14.0
 40
14.0
 40
14.0
 40
15.0
 40
15.0
 40
15.0
 40
16.0
 40
16.0
 40
16.0
 40
17.0
 40
17.0
 40
17.0
 40
18.0
 40
18.0
 40
18.0
 40
19.0
 40
19.0
 40
19.0
 40
20.0
 40
20.0
 40
20.0
 40
21.0
 40
21.0
 40
21.0
 40
22.0
 40
22.0
 40
22.0
 40
23.0
 40
23.0
 40
23.0
 40
24.0
 40
24.0
 40
24.0
 40
25.0
 40
25.0
 40
25.0
 40
25.0
 10
5.035868325563948
 20
-1.578215467270376
 10
5.035868325563948
 20
-1.557062580990941
 10
5.035420463150866
 20
-1.539699299745283
 10
5.034145777821324
 20
-1.522783880912705
 10
5.034145777821324
 20
-1.522783880912705
 10
5.066736381111788
 20
-1.522783880912705
 10
5.066736381111788
 20
-1.522783880912705
 10
5.066736381111788
 20
-1.522783880912705
 10
5.068424477899559
 20
-1.555787895661399
 10
5.068424477899559
 20
-1.555787895661399
 10
5.068424477899559
 20
-1.555787895661399
 10
5.069699163229101
 20
-1.555787895661399
 10
5.069699163229101
 20
-1.555787895661399
 10
5.081136880240131
 20
-1.536323106169738
 10
5.10015380731871
 20
-1.518133002007619
 10
5.134019095938715
 20
-1.518133002007619
 10
5.16192436936924
 20
-1.518133002007619
 10
5.183077255648673
 20
-1.535048420840196
 10
5.191965602000618
 20
-1.559164089236944
 10
5.191965602000618
 20
-1.559164089236944
 10
5.192826875871931
 20
-1.559164089236944
 10
5.192826875871931
 20
-1.559164089236944
 10
5.19916585156479
 20
-1.547726372225914
 10
5.207192924045422
 20
-1.538872476828823
 10
5.215667858939137
 20
-1.53249905018111
 10
5.227932398866626
 20
-1.523197292370936
 10
5.241471624123659
 20
-1.518133002007619
 10
5.26093641361532
 20
-1.518133002007619
 10
5.288014864129383
 20
-1.518133002007619
 10
5.328219128442249
 20
-1.535909694711508
 10
5.328219128442249
 20
-1.606982014572211
 10
5.328219128442249
 20
-1.606982014572211
 10
5.328219128442249
 20
-1.727560356555956
 10
5.328219128442249
 20
-1.727560356555956
 10
5.328219128442249
 20
-1.727560356555956
 10
5.291838920118012
 20
-1.727560356555956
 10
5.291838920118012
 20
-1.727560356555956
 10
5.291838920118012
 20
-1.727560356555956
 10
5.291838920118012
 20
-1.6116328934773
 10
5.291838920118012
 20
-1.6116328934773
 10
5.291838920118012
 20
-1.572289903035746
 10
5.277438420989668
 20
-1.548587646097226
 10
5.247397188358289
 20
-1.548587646097226
 10
5.226244302078855
 20
-1.548587646097226
 10
5.209742294704507
 20
-1.564228379600262
 10
5.203403319011647
 20
-1.582452934717233
 10
5.201715222223875
 20
-1.58751722508055
 10
5.200440536894332
 20
-1.59426961223164
 10
5.200440536894332
 20
-1.601056450337583
 10
5.200440536894332
 20
-1.601056450337583
 10
5.200440536894332
 20
-1.727560356555956
 10
5.200440536894332
 20
-1.727560356555956
 10
5.200440536894332
 20
-1.727560356555956
 10
5.164060328570094
 20
-1.727560356555956
 10
5.164060328570094
 20
-1.727560356555956
 10
5.164060328570094
 20
-1.727560356555956
 10
5.164060328570094
 20
-1.604846055371356
 10
5.164060328570094
 20
-1.604846055371356
 10
5.164060328570094
 20
-1.572289903035746
 10
5.149659829441751
 20
-1.548587646097226
 10
5.121306693598143
 20
-1.548587646097226
 10
5.098052299072707
 20
-1.548587646097226
 10
5.081136880240131
 20
-1.567191161717576
 10
5.075211316005502
 20
-1.585829128292778
 10
5.073075356804646
 20
-1.591306830114325
 10
5.072248533888187
 20
-1.597680256762038
 10
5.072248533888187
 20
-1.604019232454897
 10
5.072248533888187
 20
-1.604019232454897
 10
5.072248533888187
 20
-1.727560356555956
 10
5.072248533888187
 20
-1.727560356555956
 10
5.072248533888187
 20
-1.727560356555956
 10
5.035868325563948
 20
-1.727560356555956
 10
5.035868325563948
 20
-1.727560356555956
 10
5.035868325563948
 20
-1.727560356555956
 10
5.035868325563948
 20
-1.578215467270376
 10
5.035868325563948
 20
-1.578215467270376
 97
        1
330
B9
 75
     2
 76
     1
 98
        1
 10
0.0
 20
0.0
450
        0
451
        0
460
0.0
461
0.0
452
        0
462
0.0
453
        0
470

  0
SPLINE
  5
BB
330
AF
100
AcDbEntity
  8
Livello 2
100
AcDbSpline
210
0.0
220
0.0
230
1.0
 70
     9
 71
     3
 72
    80
 73
    76
 74
     0
 42
0.000000001
 43
0.0000000001
 40
0.0
 40
0.0
 40
0.0
 40
0.0
 40
1.0
 40
1.0
 40
1.0
 40
2.0
 40
2.0
 40
2.0
 40
3.0
 40
3.0
 40
3.0
 40
4.0
 40
4.0
 40
4.0
 40
5.0
 40
5.0
 40
5.0
 40
6.0
 40
6.0
 40
6.0
 40
7.0
 40
7.0
 40
7.0
 40
8.0
 40
8.0
 40
8.0
 40
9.0
 40
9.0
 40
9.0
 40
10.0
 40
10.0
 40
10.0
 40
11.0
 40
11.0
 40
11.0
 40
12.0
 40
12.0
 40
12.0
 40
13.0
 40
13.0
 40
13.0
 40
14.0
 40
14.0
 40
14.0
 40
15.0
 40
15.0
 40
15.0
 40
16.0
 40
16.0
 40
16.0
 40
17.0
 40
17.0
 40
17.0
 40
18.0
 40
18.0
 40
18.0
 40
19.0
 40
19.0
 40
19.0
 40
20.0
 40
20.0
 40
20.0
 40
21.0
 40
21.0
 40
21.0
 40
22.0
 40
22.0
 40
22.0
 40
23.0
 40
23.0
 40
23.0
 40
24.0
 40
24.0
 40
24.0
 40
25.0
 40
25.0
 40
25.0
 40
25.0
 10
5.388921710892351
 20
-1.578215467270376
 30
0.0
 10
5.388921710892351
 20
-1.557062580990941
 30
0.0
 10
5.388473848479269
 20
-1.539699299745283
 30
0.0
 10
5.387199163149726
 20
-1.522783880912705
 30
0.0
 10
5.387199163149726
 20
-1.522783880912705
 30
0.0
 10
5.419789766440191
 20
-1.522783880912705
 30
0.0
 10
5.419789766440191
 20
-1.522783880912705
 30
0.0
 10
5.419789766440191
 20
-1.522783880912705
 30
0.0
 10
5.421477863227963
 20
-1.555787895661399
 30
0.0
 10
5.421477863227963
 20
-1.555787895661399
 30
0.0
 10
5.421477863227963
 20
-1.555787895661399
 30
0.0
 10
5.422752548557505
 20
-1.555787895661399
 30
0.0
 10
5.422752548557505
 20
-1.555787895661399
 30
0.0
 10
5.434190265568535
 20
-1.536323106169738
 30
0.0
 10
5.453207192647114
 20
-1.518133002007619
 30
0.0
 10
5.487072481267119
 20
-1.518133002007619
 30
0.0
 10
5.514977754697643
 20
-1.518133002007619
 30
0.0
 10
5.536130640977077
 20
-1.535048420840196
 30
0.0
 10
5.545018987329021
 20
-1.559164089236944
 30
0.0
 10
5.545018987329021
 20
-1.559164089236944
 30
0.0
 10
5.545880261200334
 20
-1.559164089236944
 30
0.0
 10
5.545880261200334
 20
-1.559164089236944
 30
0.0
 10
5.552219236893193
 20
-1.547726372225914
 30
0.0
 10
5.560246309373827
 20
-1.538872476828823
 30
0.0
 10
5.568721244267541
 20
-1.53249905018111
 30
0.0
 10
5.580985784195029
 20
-1.523197292370936
 30
0.0
 10
5.594525009452063
 20
-1.518133002007619
 30
0.0
 10
5.613989798943723
 20
-1.518133002007619
 30
0.0
 10
5.641068249457787
 20
-1.518133002007619
 30
0.0
 10
5.681272513770651
 20
-1.535909694711508
 30
0.0
 10
5.681272513770651
 20
-1.606982014572211
 30
0.0
 10
5.681272513770651
 20
-1.606982014572211
 30
0.0
 10
5.681272513770651
 20
-1.727560356555956
 30
0.0
 10
5.681272513770651
 20
-1.727560356555956
 30
0.0
 10
5.681272513770651
 20
-1.727560356555956
 30
0.0
 10
5.644892305446415
 20
-1.727560356555956
 30
0.0
 10
5.644892305446415
 20
-1.727560356555956
 30
0.0
 10
5.644892305446415
 20
-1.727560356555956
 30
0.0
 10
5.644892305446415
 20
-1.6116328934773
 30
0.0
 10
5.644892305446415
 20
-1.6116328934773
 30
0.0
 10
5.644892305446415
 20
-1.572289903035746
 30
0.0
 10
5.630491806318071
 20
-1.548587646097226
 30
0.0
 10
5.600450573686691
 20
-1.548587646097226
 30
0.0
 10
5.579297687407257
 20
-1.548587646097226
 30
0.0
 10
5.562795680032912
 20
-1.564228379600262
 30
0.0
 10
5.55645670434005
 20
-1.582452934717233
 30
0.0
 10
5.554768607552277
 20
-1.58751722508055
 30
0.0
 10
5.553493922222735
 20
-1.59426961223164
 30
0.0
 10
5.553493922222735
 20
-1.601056450337583
 30
0.0
 10
5.553493922222735
 20
-1.601056450337583
 30
0.0
 10
5.553493922222735
 20
-1.727560356555956
 30
0.0
 10
5.553493922222735
 20
-1.727560356555956
 30
0.0
 10
5.553493922222735
 20
-1.727560356555956
 30
0.0
 10
5.517113713898497
 20
-1.727560356555956
 30
0.0
 10
5.517113713898497
 20
-1.727560356555956
 30
0.0
 10
5.517113713898497
 20
-1.727560356555956
 30
0.0
 10
5.517113713898497
 20
-1.604846055371356
 30
0.0
 10
5.517113713898497
 20
-1.604846055371356
 30
0.0
 10
5.517113713898497
 20
-1.572289903035746
 30
0.0
 10
5.502713214770153
 20
-1.548587646097226
 30
0.0
 10
5.474360078926547
 20
-1.548587646097226
 30
0.0
 10
5.451105684401111
 20
-1.548587646097226
 30
0.0
 10
5.434190265568535
 20
-1.567191161717576
 30
0.0
 10
5.428264701333906
 20
-1.585829128292778
 30
0.0
 10
5.42612874213305
 20
-1.591306830114325
 30
0.0
 10
5.42530191921659
 20
-1.597680256762038
 30
0.0
 10
5.42530191921659
 20
-1.604019232454897
 30
0.0
 10
5.42530191921659
 20
-1.604019232454897
 30
0.0
 10
5.42530191921659
 20
-1.727560356555956
 30
0.0
 10
5.42530191921659
 20
-1.727560356555956
 30
0.0
 10
5.42530191921659
 20
-1.727560356555956
 30
0.0
 10
5.388921710892351
 20
-1.727560356555956
 30
0.0
 10
5.388921710892351
 20
-1.727560356555956
 30
0.0
 10
5.388921710892351
 20
-1.727560356555956
 30
0.0
 10
5.388921710892351
 20
-1.578215467270376
 30
0.0
 10
5.388921710892351
 20
-1.578215467270376
 30
0.0
  0
HATCH
  5
BC
330
AF
100
AcDbEntity
  8
Livello 2
 62
   250
420
  1907995
440
 33554687
100
AcDbHatch
 10
0.0
 20
0.0
 30
0.0
210
0.0
220
0.0
230
1.0
  2
SOLID
 70
     1
 71
     1
 91
        1
 92
        1
 93
        1
 72
     4
 94
        3
 73
     0
 74
     0
 95
       80
 96
       76
 40
0.0
 40
0.0
 40
0.0
 40
0.0
 40
1.0
 40
1.0
 40
1.0
 40
2.0
 40
2.0
 40
2.0
 40
3.0
 40
3.0
 40
3.0
 40
4.0
 40
4.0
 40
4.0
 40
5.0
 40
5.0
 40
5.0
 40
6.0
 40
6.0
 40
6.0
 40
7.0
 40
7.0
 40
7.0
 40
8.0
 40
8.0
 40
8.0
 40
9.0
 40
9.0
 40
9.0
 40
10.0
 40
10.0
 40
10.0
 40
11.0
 40
11.0
 40
11.0
 40
12.0
 40
12.0
 40
12.0
 40
13.0
 40
13.0
 40
13.0
 40
14.0
 40
14.0
 40
14.0
 40
15.0
 40
15.0
 40
15.0
 40
16.0
 40
16.0
 40
16.0
 40
17.0
 40
17.0
 40
17.0
 40
18.0
 40
18.0
 40
18.0
 40
19.0
 40
19.0
 40
19.0
 40
20.0
 40
20.0
 40
20.0
 40
21.0
 40
21.0
 40
21.0
 40
22.0
 40
22.0
 40
22.0
 40
23.0
 40
23.0
 40
23.0
 40
24.0
 40
24.0
 40
24.0
 40
25.0
 40
25.0
 40
25.0
 40
25.0
 10
5.388921710892351
 20
-1.578215467270376
 10
5.388921710892351
 20
-1.557062580990941
 10
5.388473848479269
 20
-1.539699299745283
 10
5.387199163149726
 20
-1.522783880912705
 10
5.387199163149726
 20
-1.522783880912705
 10
5.419789766440191
 20
-1.522783880912705
 10
5.419789766440191
 20
-1.522783880912705
 10
5.419789766440191
 20
-1.522783880912705
 10
5.421477863227963
 20
-1.555787895661399
 10
5.421477863227963
 20
-1.555787895661399
 10
5.421477863227963
 20
-1.555787895661399
 10
5.422752548557505
 20
-1.555787895661399
 10
5.422752548557505
 20
-1.555787895661399
 10
5.434190265568535
 20
-1.536323106169738
 10
5.453207192647114
 20
-1.518133002007619
 10
5.487072481267119
 20
-1.518133002007619
 10
5.514977754697643
 20
-1.518133002007619
 10
5.536130640977077
 20
-1.535048420840196
 10
5.545018987329021
 20
-1.559164089236944
 10
5.545018987329021
 20
-1.559164089236944
 10
5.545880261200334
 20
-1.559164089236944
 10
5.545880261200334
 20
-1.559164089236944
 10
5.552219236893193
 20
-1.547726372225914
 10
5.560246309373827
 20
-1.538872476828823
 10
5.568721244267541
 20
-1.53249905018111
 10
5.580985784195029
 20
-1.523197292370936
 10
5.594525009452063
 20
-1.518133002007619
 10
5.613989798943723
 20
-1.518133002007619
 10
5.641068249457787
 20
-1.518133002007619
 10
5.681272513770651
 20
-1.535909694711508
 10
5.681272513770651
 20
-1.606982014572211
 10
5.681272513770651
 20
-1.606982014572211
 10
5.681272513770651
 20
-1.727560356555956
 10
5.681272513770651
 20
-1.727560356555956
 10
5.681272513770651
 20
-1.727560356555956
 10
5.644892305446415
 20
-1.727560356555956
 10
5.644892305446415
 20
-1.727560356555956
 10
5.644892305446415
 20
-1.727560356555956
 10
5.644892305446415
 20
-1.6116328934773
 10
5.644892305446415
 20
-1.6116328934773
 10
5.644892305446415
 20
-1.572289903035746
 10
5.630491806318071
 20
-1.548587646097226
 10
5.600450573686691
 20
-1.548587646097226
 10
5.579297687407257
 20
-1.548587646097226
 10
5.562795680032912
 20
-1.564228379600262
 10
5.55645670434005
 20
-1.582452934717233
 10
5.554768607552277
 20
-1.58751722508055
 10
5.553493922222735
 20
-1.59426961223164
 10
5.553493922222735
 20
-1.601056450337583
 10
5.553493922222735
 20
-1.601056450337583
 10
5.553493922222735
 20
-1.727560356555956
 10
5.553493922222735
 20
-1.727560356555956
 10
5.553493922222735
 20
-1.727560356555956
 10
5.517113713898497
 20
-1.727560356555956
 10
5.517113713898497
 20
-1.727560356555956
 10
5.517113713898497
 20
-1.727560356555956
 10
5.517113713898497
 20
-1.604846055371356
 10
5.517113713898497
 20
-1.604846055371356
 10
5.517113713898497
 20
-1.572289903035746
 10
5.502713214770153
 20
-1.548587646097226
 10
5.474360078926547
 20
-1.548587646097226
 10
5.451105684401111
 20
-1.548587646097226
 10
5.434190265568535
 20
-1.567191161717576
 10
5.428264701333906
 20
-1.585829128292778
 10
5.42612874213305
 20
-1.591306830114325
 10
5.42530191921659
 20
-1.597680256762038
 10
5.42530191921659
 20
-1.604019232454897
 10
5.42530191921659
 20
-1.604019232454897
 10
5.42530191921659
 20
-1.727560356555956
 10
5.42530191921659
 20
-1.727560356555956
 10
5.42530191921659
 20
-1.727560356555956
 10
5.388921710892351
 20
-1.727560356555956
 10
5.388921710892351
 20
-1.727560356555956
 10
5.388921710892351
 20
-1.727560356555956
 10
5.388921710892351
 20
-1.578215467270376
 10
5.388921710892351
 20
-1.578215467270376
 97
        1
330
BB
 75
     2
 76
     1
 98
        1
 10
0.0
 20
0.0
450
        0
451
        0
460
0.0
461
0.0
452
        0
462
0.0
453
        0
470

  0
ENDBLK
  5
B2
330
AF
100
AcDbEntity
  8
0
100
AcDbBlockEnd
  0
BLOCK
  5
BF
330
BD
100
AcDbEntity
  8
0
100
AcDbBlockBegin
  2
Block_6
 70
     0
 10
0.0
 20
0.0
 30
0.0
  3
Block_6
  1

  0
INSERT
  5
C2
330
BD
100
AcDbEntity
  8
Livello 2
100
AcDbBlockReference
  2
Block_7
 10
0.0
 20
0.0
 30
0.0
  0
ENDBLK
  5
C0
330
BD
100
AcDbEntity
  8
0
100
AcDbBlockEnd
  0
BLOCK
  5
C3
330
C1
100
AcDbEntity
  8
0
100
AcDbBlockBegin
  2
Block_7
 70
     0
 10
0.0
 20
0.0
 30
0.0
  3
Block_7
  1

  0
SPLINE
  5
C5
330
C1
100
AcDbEntity
  8
Livello 2
100
AcDbSpline
210
0.0
220
0.0
230
1.0
 70
    11
 71
     3
 72
    29
 73
    25
 74
     0
 42
0.000000001
 43
0.0000000001
 40
0.0
 40
0.0
 40
0.0
 40
0.0
 40
1.0
 40
1.0
 40
1.0
 40
2.0
 40
2.0
 40
2.0
 40
3.0
 40
3.0
 40
3.0
 40
4.0
 40
4.0
 40
4.0
 40
5.0
 40
5.0
 40
5.0
 40
6.0
 40
6.0
 40
6.0
 40
7.0
 40
7.0
 40
7.0
 40
8.0
 40
8.0
 40
8.0
 40
8.0
 10
1.512758653050629
 20
-7.319759926555476
 30
0.0
 10
1.512758653050629
 20
-7.319759926555476
 30
0.0
 10
1.511914604656743
 20
-7.319759926555476
 30
0.0
 10
1.511914604656743
 20
-7.319759926555476
 30
0.0
 10
1.511914604656743
 20
-7.319759926555476
 30
0.0
 10
1.464096679321475
 20
-7.345563691739996
 30
0.0
 10
1.464096679321475
 20
-7.345563691739996
 30
0.0
 10
1.464096679321475
 20
-7.345563691739996
 30
0.0
 10
1.456913655234728
 20
-7.317245006851242
 30
0.0
 10
1.456913655234728
 20
-7.317245006851242
 30
0.0
 10
1.456913655234728
 20
-7.317245006851242
 30
0.0
 10
1.516978895020059
 20
-7.28506781501901
 30
0.0
 10
1.516978895020059
 20
-7.28506781501901
 30
0.0
 10
1.516978895020059
 20
-7.28506781501901
 30
0.0
 10
1.548725449916638
 20
-7.28506781501901
 30
0.0
 10
1.548725449916638
 20
-7.28506781501901
 30
0.0
 10
1.548725449916638
 20
-7.28506781501901
 30
0.0
 10
1.548725449916638
 20
-7.560089787606504
 30
0.0
 10
1.548725449916638
 20
-7.560089787606504
 30
0.0
 10
1.548725449916638
 20
-7.560089787606504
 30
0.0
 10
1.512758653050629
 20
-7.560089787606504
 30
0.0
 10
1.512758653050629
 20
-7.560089787606504
 30
0.0
 10
1.512758653050629
 20
-7.560089787606504
 30
0.0
 10
1.512758653050629
 20
-7.319759926555476
 30
0.0
 10
1.512758653050629
 20
-7.319759926555476
 30
0.0
  0
HATCH
  5
C6
330
C1
100
AcDbEntity
  8
Livello 2
 62
   250
420
  1907995
440
 33554687
100
AcDbHatch
 10
0.0
 20
0.0
 30
0.0
210
0.0
220
0.0
230
1.0
  2
SOLID
 70
     1
 71
     1
 91
        1
 92
        1
 93
        1
 72
     4
 94
        3
 73
     0
 74
     0
 95
       29
 96
       25
 40
0.0
 40
0.0
 40
0.0
 40
0.0
 40
1.0
 40
1.0
 40
1.0
 40
2.0
 40
2.0
 40
2.0
 40
3.0
 40
3.0
 40
3.0
 40
4.0
 40
4.0
 40
4.0
 40
5.0
 40
5.0
 40
5.0
 40
6.0
 40
6.0
 40
6.0
 40
7.0
 40
7.0
 40
7.0
 40
8.0
 40
8.0
 40
8.0
 40
8.0
 10
1.512758653050629
 20
-7.319759926555476
 10
1.512758653050629
 20
-7.319759926555476
 10
1.511914604656743
 20
-7.319759926555476
 10
1.511914604656743
 20
-7.319759926555476
 10
1.511914604656743
 20
-7.319759926555476
 10
1.464096679321475
 20
-7.345563691739996
 10
1.464096679321475
 20
-7.345563691739996
 10
1.464096679321475
 20
-7.345563691739996
 10
1.456913655234728
 20
-7.317245006851242
 10
1.456913655234728
 20
-7.317245006851242
 10
1.456913655234728
 20
-7.317245006851242
 10
1.516978895020059
 20
-7.28506781501901
 10
1.516978895020059
 20
-7.28506781501901
 10
1.516978895020059
 20
-7.28506781501901
 10
1.548725449916638
 20
-7.28506781501901
 10
1.548725449916638
 20
-7.28506781501901
 10
1.548725449916638
 20
-7.28506781501901
 10
1.548725449916638
 20
-7.560089787606504
 10
1.548725449916638
 20
-7.560089787606504
 10
1.548725449916638
 20
-7.560089787606504
 10
1.512758653050629
 20
-7.560089787606504
 10
1.512758653050629
 20
-7.560089787606504
 10
1.512758653050629
 20
-7.560089787606504
 10
1.512758653050629
 20
-7.319759926555476
 10
1.512758653050629
 20
-7.319759926555476
 97
        1
330
C5
 75
     2
 76
     1
 98
        1
 10
0.0
 20
0.0
450
        0
451
        0
460
0.0
461
0.0
452
        0
462
0.0
453
        0
470

  0
SPLINE
  5
C7
330
C1
100
AcDbEntity
  8
Livello 2
100
AcDbSpline
210
0.0
220
0.0
230
1.0
 70
    11
 71
     3
 72
    50
 73
    46
 74
     0
 42
0.000000001
 43
0.0000000001
 40
0.0
 40
0.0
 40
0.0
 40
0.0
 40
1.0
 40
1.0
 40
1.0
 40
2.0
 40
2.0
 40
2.0
 40
3.0
 40
3.0
 40
3.0
 40
4.0
 40
4.0
 40
4.0
 40
5.0
 40
5.0
 40
5.0
 40
6.0
 40
6.0
 40
6.0
 40
7.0
 40
7.0
 40
7.0
 40
8.0
 40
8.0
 40
8.0
 40
9.0
 40
9.0
 40
9.0
 40
10.0
 40
10.0
 40
10.0
 40
11.0
 40
11.0
 40
11.0
 40
12.0
 40
12.0
 40
12.0
 40
13.0
 40
13.0
 40
13.0
 40
14.0
 40
14.0
 40
14.0
 40
15.0
 40
15.0
 40
15.0
 40
15.0
 10
1.813274332228973
 20
-7.316383732979931
 30
0.0
 10
1.813274332228973
 20
-7.316383732979931
 30
0.0
 10
1.708336723748261
 20
-7.316383732979931
 30
0.0
 10
1.708336723748261
 20
-7.316383732979931
 30
0.0
 10
1.708336723748261
 20
-7.316383732979931
 30
0.0
 10
1.697760280608545
 20
-7.387042641382405
 30
0.0
 10
1.697760280608545
 20
-7.387042641382405
 30
0.0
 10
1.704099256301405
 20
-7.386181367511092
 30
0.0
 10
1.710024820536035
 20
-7.385354544594632
 30
0.0
 10
1.720187852217522
 20
-7.385354544594632
 30
0.0
 10
1.741340738496955
 20
-7.385354544594632
 30
0.0
 10
1.762493624776389
 20
-7.39000542349972
 30
0.0
 10
1.779426269086393
 20
-7.400168455181206
 30
0.0
 10
1.800992566824056
 20
-7.412432995108695
 30
0.0
 10
1.818769259527946
 20
-7.436135252047214
 30
0.0
 10
1.818769259527946
 20
-7.470827363583681
 30
0.0
 10
1.818769259527946
 20
-7.524536402198727
 30
0.0
 10
1.776032850033421
 20
-7.564740666511593
 30
0.0
 10
1.71638102170632
 20
-7.564740666511593
 30
0.0
 10
1.686339789074941
 20
-7.564740666511593
 30
0.0
 10
1.66094943534865
 20
-7.556265731617877
 30
0.0
 10
1.647840847027274
 20
-7.547825247679014
 30
0.0
 10
1.647840847027274
 20
-7.547825247679014
 30
0.0
 10
1.657142604837449
 20
-7.519472111835407
 30
0.0
 10
1.657142604837449
 20
-7.519472111835407
 30
0.0
 10
1.668563096371053
 20
-7.526224498986499
 30
0.0
 10
1.690990667980029
 20
-7.534699433880212
 30
0.0
 10
1.715950384770664
 20
-7.534699433880212
 30
0.0
 10
1.751073133242786
 20
-7.534699433880212
 30
0.0
 10
1.781114365874165
 20
-7.511858450813005
 30
0.0
 10
1.781114365874165
 20
-7.475030380075684
 30
0.0
 10
1.780683728938508
 20
-7.43951144562276
 30
0.0
 10
1.756998697477416
 20
-7.414121091896467
 30
0.0
 10
1.701997748055402
 20
-7.414121091896467
 30
0.0
 10
1.686339789074941
 20
-7.414121091896467
 30
0.0
 10
1.674058023670026
 20
-7.415809188684241
 30
0.0
 10
1.663912217465965
 20
-7.417083874013782
 30
0.0
 10
1.663912217465965
 20
-7.417083874013782
 30
0.0
 10
1.681688910169855
 20
-7.28506781501901
 30
0.0
 10
1.681688910169855
 20
-7.28506781501901
 30
0.0
 10
1.681688910169855
 20
-7.28506781501901
 30
0.0
 10
1.813274332228973
 20
-7.28506781501901
 30
0.0
 10
1.813274332228973
 20
-7.28506781501901
 30
0.0
 10
1.813274332228973
 20
-7.28506781501901
 30
0.0
 10
1.813274332228973
 20
-7.316383732979931
 30
0.0
 10
1.813274332228973
 20
-7.316383732979931
 30
0.0
  0
HATCH
  5
C8
330
C1
100
AcDbEntity
  8
Livello 2
 62
   250
420
  1907995
440
 33554687
100
AcDbHatch
 10
0.0
 20
0.0
 30
0.0
210
0.0
220
0.0
230
1.0
  2
SOLID
 70
     1
 71
     1
 91
        1
 92
        1
 93
        1
 72
     4
 94
        3
 73
     0
 74
     0
 95
       50
 96
       46
 40
0.0
 40
0.0
 40
0.0
 40
0.0
 40
1.0
 40
1.0
 40
1.0
 40
2.0
 40
2.0
 40
2.0
 40
3.0
 40
3.0
 40
3.0
 40
4.0
 40
4.0
 40
4.0
 40
5.0
 40
5.0
 40
5.0
 40
6.0
 40
6.0
 40
6.0
 40
7.0
 40
7.0
 40
7.0
 40
8.0
 40
8.0
 40
8.0
 40
9.0
 40
9.0
 40
9.0
 40
10.0
 40
10.0
 40
10.0
 40
11.0
 40
11.0
 40
11.0
 40
12.0
 40
12.0
 40
12.0
 40
13.0
 40
13.0
 40
13.0
 40
14.0
 40
14.0
 40
14.0
 40
15.0
 40
15.0
 40
15.0
 40
15.0
 10
1.813274332228973
 20
-7.316383732979931
 10
1.813274332228973
 20
-7.316383732979931
 10
1.708336723748261
 20
-7.316383732979931
 10
1.708336723748261
 20
-7.316383732979931
 10
1.708336723748261
 20
-7.316383732979931
 10
1.697760280608545
 20
-7.387042641382405
 10
1.697760280608545
 20
-7.387042641382405
 10
1.704099256301405
 20
-7.386181367511092
 10
1.710024820536035
 20
-7.385354544594632
 10
1.720187852217522
 20
-7.385354544594632
 10
1.741340738496955
 20
-7.385354544594632
 10
1.762493624776389
 20
-7.39000542349972
 10
1.779426269086393
 20
-7.400168455181206
 10
1.800992566824056
 20
-7.412432995108695
 10
1.818769259527946
 20
-7.436135252047214
 10
1.818769259527946
 20
-7.470827363583681
 10
1.818769259527946
 20
-7.524536402198727
 10
1.776032850033421
 20
-7.564740666511593
 10
1.71638102170632
 20
-7.564740666511593
 10
1.686339789074941
 20
-7.564740666511593
 10
1.66094943534865
 20
-7.556265731617877
 10
1.647840847027274
 20
-7.547825247679014
 10
1.647840847027274
 20
-7.547825247679014
 10
1.657142604837449
 20
-7.519472111835407
 10
1.657142604837449
 20
-7.519472111835407
 10
1.668563096371053
 20
-7.526224498986499
 10
1.690990667980029
 20
-7.534699433880212
 10
1.715950384770664
 20
-7.534699433880212
 10
1.751073133242786
 20
-7.534699433880212
 10
1.781114365874165
 20
-7.511858450813005
 10
1.781114365874165
 20
-7.475030380075684
 10
1.780683728938508
 20
-7.43951144562276
 10
1.756998697477416
 20
-7.414121091896467
 10
1.701997748055402
 20
-7.414121091896467
 10
1.686339789074941
 20
-7.414121091896467
 10
1.674058023670026
 20
-7.415809188684241
 10
1.663912217465965
 20
-7.417083874013782
 10
1.663912217465965
 20
-7.417083874013782
 10
1.681688910169855
 20
-7.28506781501901
 10
1.681688910169855
 20
-7.28506781501901
 10
1.681688910169855
 20
-7.28506781501901
 10
1.813274332228973
 20
-7.28506781501901
 10
1.813274332228973
 20
-7.28506781501901
 10
1.813274332228973
 20
-7.28506781501901
 10
1.813274332228973
 20
-7.316383732979931
 10
1.813274332228973
 20
-7.316383732979931
 97
        1
330
C7
 75
     2
 76
     1
 98
        1
 10
0.0
 20
0.0
450
        0
451
        0
460
0.0
461
0.0
452
        0
462
0.0
453
        0
470

  0
SPLINE
  5
C9
330
C1
100
AcDbEntity
  8
Livello 2
100
AcDbSpline
210
0.0
220
0.0
230
1.0
 70
     9
 71
     3
 72
    17
 73
    13
 74
     0
 42
0.000000001
 43
0.0000000001
 40
0.0
 40
0.0
 40
0.0
 40
0.0
 40
1.0
 40
1.0
 40
1.0
 40
2.0
 40
2.0
 40
2.0
 40
3.0
 40
3.0
 40
3.0
 40
4.0
 40
4.0
 40
4.0
 40
4.0
 10
1.89971177795389
 20
-7.423836261164872
 30
0.0
 10
1.89971177795389
 20
-7.49535644343866
 30
0.0
 10
1.921691487149784
 20
-7.535974119209755
 30
0.0
 10
1.95555677576979
 20
-7.535974119209755
 30
0.0
 10
1.9936250808818
 20
-7.535974119209755
 30
0.0
 10
2.01181518504392
 20
-7.491532387450032
 30
0.0
 10
2.01181518504392
 20
-7.421321341460639
 30
0.0
 10
2.01181518504392
 20
-7.353625215175481
 30
0.0
 10
1.994486354753114
 20
-7.309183483415757
 30
0.0
 10
1.955970187228021
 20
-7.309183483415757
 30
0.0
 10
1.92341403489241
 20
-7.309183483415757
 30
0.0
 10
1.89971177795389
 20
-7.348974336270392
 30
0.0
 10
1.89971177795389
 20
-7.423836261164872
 30
0.0
  0
SPLINE
  5
CA
330
C1
100
AcDbEntity
  8
Livello 2
100
AcDbSpline
210
0.0
220
0.0
230
1.0
 70
     9
 71
     3
 72
    17
 73
    13
 74
     0
 42
0.000000001
 43
0.0000000001
 40
0.0
 40
0.0
 40
0.0
 40
0.0
 40
1.0
 40
1.0
 40
1.0
 40
2.0
 40
2.0
 40
2.0
 40
3.0
 40
3.0
 40
3.0
 40
4.0
 40
4.0
 40
4.0
 40
4.0
 10
2.04905666723947
 20
-7.419633244672867
 30
0.0
 10
2.04905666723947
 20
-7.513133136142548
 30
0.0
 10
2.014364555703004
 20
-7.564740666511593
 30
0.0
 10
1.953455267523788
 20
-7.564740666511593
 30
0.0
 10
1.89971177795389
 20
-7.564740666511593
 30
0.0
 10
1.863331569629653
 20
-7.51440782147209
 30
0.0
 10
1.86247029575834
 20
-7.423422849706644
 30
0.0
 10
1.86247029575834
 20
-7.331197643566504
 30
0.0
 10
1.902261148612975
 20
-7.280416936113922
 30
0.0
 10
1.958106146428875
 20
-7.280416936113922
 30
0.0
 10
2.016052652490778
 20
-7.280416936113922
 30
0.0
 10
2.04905666723947
 20
-7.332024466482964
 30
0.0
 10
2.04905666723947
 20
-7.419633244672867
 30
0.0
  0
HATCH
  5
CB
330
C1
100
AcDbEntity
  8
Livello 2
 62
   250
420
  1907995
440
 33554687
100
AcDbHatch
 10
0.0
 20
0.0
 30
0.0
210
0.0
220
0.0
230
1.0
  2
SOLID
 70
     1
 71
     1
 91
        2
 92
        1
 93
        1
 72
     4
 94
        3
 73
     0
 74
     0
 95
       17
 96
       13
 40
0.0
 40
0.0
 40
0.0
 40
0.0
 40
1.0
 40
1.0
 40
1.0
 40
2.0
 40
2.0
 40
2.0
 40
3.0
 40
3.0
 40
3.0
 40
4.0
 40
4.0
 40
4.0
 40
4.0
 10
1.89971177795389
 20
-7.423836261164872
 10
1.89971177795389
 20
-7.49535644343866
 10
1.921691487149784
 20
-7.535974119209755
 10
1.95555677576979
 20
-7.535974119209755
 10
1.9936250808818
 20
-7.535974119209755
 10
2.01181518504392
 20
-7.491532387450032
 10
2.01181518504392
 20
-7.421321341460639
 10
2.01181518504392
 20
-7.353625215175481
 10
1.994486354753114
 20
-7.309183483415757
 10
1.955970187228021
 20
-7.309183483415757
 10
1.92341403489241
 20
-7.309183483415757
 10
1.89971177795389
 20
-7.348974336270392
 10
1.89971177795389
 20
-7.423836261164872
 97
        1
330
C9
 92
        1
 93
        1
 72
     4
 94
        3
 73
     0
 74
     0
 95
       17
 96
       13
 40
0.0
 40
0.0
 40
0.0
 40
0.0
 40
1.0
 40
1.0
 40
1.0
 40
2.0
 40
2.0
 40
2.0
 40
3.0
 40
3.0
 40
3.0
 40
4.0
 40
4.0
 40
4.0
 40
4.0
 10
2.04905666723947
 20
-7.419633244672867
 10
2.04905666723947
 20
-7.513133136142548
 10
2.014364555703004
 20
-7.564740666511593
 10
1.953455267523788
 20
-7.564740666511593
 10
1.89971177795389
 20
-7.564740666511593
 10
1.863331569629653
 20
-7.51440782147209
 10
1.86247029575834
 20
-7.423422849706644
 10
1.86247029575834
 20
-7.331197643566504
 10
1.902261148612975
 20
-7.280416936113922
 10
1.958106146428875
 20
-7.280416936113922
 10
2.016052652490778
 20
-7.280416936113922
 10
2.04905666723947
 20
-7.332024466482964
 10
2.04905666723947
 20
-7.419633244672867
 97
        1
330
CA
 75
     2
 76
     1
 98
        1
 10
0.0
 20
0.0
450
        0
451
        0
460
0.0
461
0.0
452
        0
462
0.0
453
        0
470

  0
SPLINE
  5
CC
330
C1
100
AcDbEntity
  8
Livello 2
100
AcDbSpline
210
0.0
220
0.0
230
1.0
 70
     9
 71
     3
 72
    80
 73
    76
 74
     0
 42
0.000000001
 43
0.0000000001
 40
0.0
 40
0.0
 40
0.0
 40
0.0
 40
1.0
 40
1.0
 40
1.0
 40
2.0
 40
2.0
 40
2.0
 40
3.0
 40
3.0
 40
3.0
 40
4.0
 40
4.0
 40
4.0
 40
5.0
 40
5.0
 40
5.0
 40
6.0
 40
6.0
 40
6.0
 40
7.0
 40
7.0
 40
7.0
 40
8.0
 40
8.0
 40
8.0
 40
9.0
 40
9.0
 40
9.0
 40
10.0
 40
10.0
 40
10.0
 40
11.0
 40
11.0
 40
11.0
 40
12.0
 40
12.0
 40
12.0
 40
13.0
 40
13.0
 40
13.0
 40
14.0
 40
14.0
 40
14.0
 40
15.0
 40
15.0
 40
15.0
 40
16.0
 40
16.0
 40
16.0
 40
17.0
 40
17.0
 40
17.0
 40
18.0
 40
18.0
 40
18.0
 40
19.0
 40
19.0
 40
19.0
 40
20.0
 40
20.0
 40
20.0
 40
21.0
 40
21.0
 40
21.0
 40
22.0
 40
22.0
 40
22.0
 40
23.0
 40
23.0
 40
23.0
 40
24.0
 40
24.0
 40
24.0
 40
25.0
 40
25.0
 40
25.0
 40
25.0
 10
2.185034586042283
 20
-7.410744898320923
 30
0.0
 10
2.185034586042283
 20
-7.389592012041487
 30
0.0
 10
2.1845867236292
 20
-7.37222873079583
 30
0.0
 10
2.183312038299658
 20
-7.355313311963254
 30
0.0
 10
2.183312038299658
 20
-7.355313311963254
 30
0.0
 10
2.215902641590121
 20
-7.355313311963254
 30
0.0
 10
2.215902641590121
 20
-7.355313311963254
 30
0.0
 10
2.215902641590121
 20
-7.355313311963254
 30
0.0
 10
2.217590738377893
 20
-7.388317326711947
 30
0.0
 10
2.217590738377893
 20
-7.388317326711947
 30
0.0
 10
2.217590738377893
 20
-7.388317326711947
 30
0.0
 10
2.218865423707435
 20
-7.388317326711947
 30
0.0
 10
2.218865423707435
 20
-7.388317326711947
 30
0.0
 10
2.230303140718465
 20
-7.368852537220286
 30
0.0
 10
2.249320067797043
 20
-7.350662433058166
 30
0.0
 10
2.283185356417049
 20
-7.350662433058166
 30
0.0
 10
2.311090629847574
 20
-7.350662433058166
 30
0.0
 10
2.332243516127008
 20
-7.367577851890742
 30
0.0
 10
2.341131862478951
 20
-7.391693520287492
 30
0.0
 10
2.341131862478951
 20
-7.391693520287492
 30
0.0
 10
2.341993136350265
 20
-7.391693520287492
 30
0.0
 10
2.341993136350265
 20
-7.391693520287492
 30
0.0
 10
2.348332112043125
 20
-7.380255803276462
 30
0.0
 10
2.356359184523756
 20
-7.371401907879371
 30
0.0
 10
2.364834119417471
 20
-7.365028481231656
 30
0.0
 10
2.377098659344961
 20
-7.355726723421483
 30
0.0
 10
2.390637884601993
 20
-7.350662433058166
 30
0.0
 10
2.410102674093653
 20
-7.350662433058166
 30
0.0
 10
2.437181124607718
 20
-7.350662433058166
 30
0.0
 10
2.477385388920584
 20
-7.368439125762056
 30
0.0
 10
2.477385388920584
 20
-7.43951144562276
 30
0.0
 10
2.477385388920584
 20
-7.43951144562276
 30
0.0
 10
2.477385388920584
 20
-7.560089787606504
 30
0.0
 10
2.477385388920584
 20
-7.560089787606504
 30
0.0
 10
2.477385388920584
 20
-7.560089787606504
 30
0.0
 10
2.441005180596345
 20
-7.560089787606504
 30
0.0
 10
2.441005180596345
 20
-7.560089787606504
 30
0.0
 10
2.441005180596345
 20
-7.560089787606504
 30
0.0
 10
2.441005180596345
 20
-7.444162324527847
 30
0.0
 10
2.441005180596345
 20
-7.444162324527847
 30
0.0
 10
2.441005180596345
 20
-7.404819334086294
 30
0.0
 10
2.426604681468
 20
-7.381117077147775
 30
0.0
 10
2.396563448836622
 20
-7.381117077147775
 30
0.0
 10
2.375410562557187
 20
-7.381117077147775
 30
0.0
 10
2.358908555182841
 20
-7.396757810650808
 30
0.0
 10
2.352569579489981
 20
-7.414982365767781
 30
0.0
 10
2.350881482702209
 20
-7.420046656131097
 30
0.0
 10
2.349606797372667
 20
-7.426799043282186
 30
0.0
 10
2.349606797372667
 20
-7.43358588138813
 30
0.0
 10
2.349606797372667
 20
-7.43358588138813
 30
0.0
 10
2.349606797372667
 20
-7.560089787606504
 30
0.0
 10
2.349606797372667
 20
-7.560089787606504
 30
0.0
 10
2.349606797372667
 20
-7.560089787606504
 30
0.0
 10
2.313226589048428
 20
-7.560089787606504
 30
0.0
 10
2.313226589048428
 20
-7.560089787606504
 30
0.0
 10
2.313226589048428
 20
-7.560089787606504
 30
0.0
 10
2.313226589048428
 20
-7.437375486421905
 30
0.0
 10
2.313226589048428
 20
-7.437375486421905
 30
0.0
 10
2.313226589048428
 20
-7.404819334086294
 30
0.0
 10
2.298826089920085
 20
-7.381117077147775
 30
0.0
 10
2.270472954076478
 20
-7.381117077147775
 30
0.0
 10
2.247218559551042
 20
-7.381117077147775
 30
0.0
 10
2.230303140718465
 20
-7.399720592768124
 30
0.0
 10
2.224377576483834
 20
-7.418358559343325
 30
0.0
 10
2.222241617282981
 20
-7.423836261164872
 30
0.0
 10
2.22141479436652
 20
-7.430209687812586
 30
0.0
 10
2.22141479436652
 20
-7.436548663505445
 30
0.0
 10
2.22141479436652
 20
-7.436548663505445
 30
0.0
 10
2.22141479436652
 20
-7.560089787606504
 30
0.0
 10
2.22141479436652
 20
-7.560089787606504
 30
0.0
 10
2.22141479436652
 20
-7.560089787606504
 30
0.0
 10
2.185034586042283
 20
-7.560089787606504
 30
0.0
 10
2.185034586042283
 20
-7.560089787606504
 30
0.0
 10
2.185034586042283
 20
-7.560089787606504
 30
0.0
 10
2.185034586042283
 20
-7.410744898320923
 30
0.0
 10
2.185034586042283
 20
-7.410744898320923
 30
0.0
  0
HATCH
  5
CD
330
C1
100
AcDbEntity
  8
Livello 2
 62
   250
420
  1907995
440
 33554687
100
AcDbHatch
 10
0.0
 20
0.0
 30
0.0
210
0.0
220
0.0
230
1.0
  2
SOLID
 70
     1
 71
     1
 91
        1
 92
        1
 93
        1
 72
     4
 94
        3
 73
     0
 74
     0
 95
       80
 96
       76
 40
0.0
 40
0.0
 40
0.0
 40
0.0
 40
1.0
 40
1.0
 40
1.0
 40
2.0
 40
2.0
 40
2.0
 40
3.0
 40
3.0
 40
3.0
 40
4.0
 40
4.0
 40
4.0
 40
5.0
 40
5.0
 40
5.0
 40
6.0
 40
6.0
 40
6.0
 40
7.0
 40
7.0
 40
7.0
 40
8.0
 40
8.0
 40
8.0
 40
9.0
 40
9.0
 40
9.0
 40
10.0
 40
10.0
 40
10.0
 40
11.0
 40
11.0
 40
11.0
 40
12.0
 40
12.0
 40
12.0
 40
13.0
 40
13.0
 40
13.0
 40
14.0
 40
14.0
 40
14.0
 40
15.0
 40
15.0
 40
15.0
 40
16.0
 40
16.0
 40
16.0
 40
17.0
 40
17.0
 40
17.0
 40
18.0
 40
18.0
 40
18.0
 40
19.0
 40
19.0
 40
19.0
 40
20.0
 40
20.0
 40
20.0
 40
21.0
 40
21.0
 40
21.0
 40
22.0
 40
22.0
 40
22.0
 40
23.0
 40
23.0
 40
23.0
 40
24.0
 40
24.0
 40
24.0
 40
25.0
 40
25.0
 40
25.0
 40
25.0
 10
2.185034586042283
 20
-7.410744898320923
 10
2.185034586042283
 20
-7.389592012041487
 10
2.1845867236292
 20
-7.37222873079583
 10
2.183312038299658
 20
-7.355313311963254
 10
2.183312038299658
 20
-7.355313311963254
 10
2.215902641590121
 20
-7.355313311963254
 10
2.215902641590121
 20
-7.355313311963254
 10
2.215902641590121
 20
-7.355313311963254
 10
2.217590738377893
 20
-7.388317326711947
 10
2.217590738377893
 20
-7.388317326711947
 10
2.217590738377893
 20
-7.388317326711947
 10
2.218865423707435
 20
-7.388317326711947
 10
2.218865423707435
 20
-7.388317326711947
 10
2.230303140718465
 20
-7.368852537220286
 10
2.249320067797043
 20
-7.350662433058166
 10
2.283185356417049
 20
-7.350662433058166
 10
2.311090629847574
 20
-7.350662433058166
 10
2.332243516127008
 20
-7.367577851890742
 10
2.341131862478951
 20
-7.391693520287492
 10
2.341131862478951
 20
-7.391693520287492
 10
2.341993136350265
 20
-7.391693520287492
 10
2.341993136350265
 20
-7.391693520287492
 10
2.348332112043125
 20
-7.380255803276462
 10
2.356359184523756
 20
-7.371401907879371
 10
2.364834119417471
 20
-7.365028481231656
 10
2.377098659344961
 20
-7.355726723421483
 10
2.390637884601993
 20
-7.350662433058166
 10
2.410102674093653
 20
-7.350662433058166
 10
2.437181124607718
 20
-7.350662433058166
 10
2.477385388920584
 20
-7.368439125762056
 10
2.477385388920584
 20
-7.43951144562276
 10
2.477385388920584
 20
-7.43951144562276
 10
2.477385388920584
 20
-7.560089787606504
 10
2.477385388920584
 20
-7.560089787606504
 10
2.477385388920584
 20
-7.560089787606504
 10
2.441005180596345
 20
-7.560089787606504
 10
2.441005180596345
 20
-7.560089787606504
 10
2.441005180596345
 20
-7.560089787606504
 10
2.441005180596345
 20
-7.444162324527847
 10
2.441005180596345
 20
-7.444162324527847
 10
2.441005180596345
 20
-7.404819334086294
 10
2.426604681468
 20
-7.381117077147775
 10
2.396563448836622
 20
-7.381117077147775
 10
2.375410562557187
 20
-7.381117077147775
 10
2.358908555182841
 20
-7.396757810650808
 10
2.352569579489981
 20
-7.414982365767781
 10
2.350881482702209
 20
-7.420046656131097
 10
2.349606797372667
 20
-7.426799043282186
 10
2.349606797372667
 20
-7.43358588138813
 10
2.349606797372667
 20
-7.43358588138813
 10
2.349606797372667
 20
-7.560089787606504
 10
2.349606797372667
 20
-7.560089787606504
 10
2.349606797372667
 20
-7.560089787606504
 10
2.313226589048428
 20
-7.560089787606504
 10
2.313226589048428
 20
-7.560089787606504
 10
2.313226589048428
 20
-7.560089787606504
 10
2.313226589048428
 20
-7.437375486421905
 10
2.313226589048428
 20
-7.437375486421905
 10
2.313226589048428
 20
-7.404819334086294
 10
2.298826089920085
 20
-7.381117077147775
 10
2.270472954076478
 20
-7.381117077147775
 10
2.247218559551042
 20
-7.381117077147775
 10
2.230303140718465
 20
-7.399720592768124
 10
2.224377576483834
 20
-7.418358559343325
 10
2.222241617282981
 20
-7.423836261164872
 10
2.22141479436652
 20
-7.430209687812586
 10
2.22141479436652
 20
-7.436548663505445
 10
2.22141479436652
 20
-7.436548663505445
 10
2.22141479436652
 20
-7.560089787606504
 10
2.22141479436652
 20
-7.560089787606504
 10
2.22141479436652
 20
-7.560089787606504
 10
2.185034586042283
 20
-7.560089787606504
 10
2.185034586042283
 20
-7.560089787606504
 10
2.185034586042283
 20
-7.560089787606504
 10
2.185034586042283
 20
-7.410744898320923
 10
2.185034586042283
 20
-7.410744898320923
 97
        1
330
CC
 75
     2
 76
     1
 98
        1
 10
0.0
 20
0.0
450
        0
451
        0
460
0.0
461
0.0
452
        0
462
0.0
453
        0
470

  0
SPLINE
  5
CE
330
C1
100
AcDbEntity
  8
Livello 2
100
AcDbSpline
210
0.0
220
0.0
230
1.0
 70
     9
 71
     3
 72
    80
 73
    76
 74
     0
 42
0.000000001
 43
0.0000000001
 40
0.0
 40
0.0
 40
0.0
 40
0.0
 40
1.0
 40
1.0
 40
1.0
 40
2.0
 40
2.0
 40
2.0
 40
3.0
 40
3.0
 40
3.0
 40
4.0
 40
4.0
 40
4.0
 40
5.0
 40
5.0
 40
5.0
 40
6.0
 40
6.0
 40
6.0
 40
7.0
 40
7.0
 40
7.0
 40
8.0
 40
8.0
 40
8.0
 40
9.0
 40
9.0
 40
9.0
 40
10.0
 40
10.0
 40
10.0
 40
11.0
 40
11.0
 40
11.0
 40
12.0
 40
12.0
 40
12.0
 40
13.0
 40
13.0
 40
13.0
 40
14.0
 40
14.0
 40
14.0
 40
15.0
 40
15.0
 40
15.0
 40
16.0
 40
16.0
 40
16.0
 40
17.0
 40
17.0
 40
17.0
 40
18.0
 40
18.0
 40
18.0
 40
19.0
 40
19.0
 40
19.0
 40
20.0
 40
20.0
 40
20.0
 40
21.0
 40
21.0
 40
21.0
 40
22.0
 40
22.0
 40
22.0
 40
23.0
 40
23.0
 40
23.0
 40
24.0
 40
24.0
 40
24.0
 40
25.0
 40
25.0
 40
25.0
 40
25.0
 10
2.538087971370686
 20
-7.410744898320923
 30
0.0
 10
2.538087971370686
 20
-7.389592012041487
 30
0.0
 10
2.537640108957603
 20
-7.37222873079583
 30
0.0
 10
2.536365423628061
 20
-7.355313311963254
 30
0.0
 10
2.536365423628061
 20
-7.355313311963254
 30
0.0
 10
2.568956026918523
 20
-7.355313311963254
 30
0.0
 10
2.568956026918523
 20
-7.355313311963254
 30
0.0
 10
2.568956026918523
 20
-7.355313311963254
 30
0.0
 10
2.570644123706295
 20
-7.388317326711947
 30
0.0
 10
2.570644123706295
 20
-7.388317326711947
 30
0.0
 10
2.570644123706295
 20
-7.388317326711947
 30
0.0
 10
2.571918809035838
 20
-7.388317326711947
 30
0.0
 10
2.571918809035838
 20
-7.388317326711947
 30
0.0
 10
2.583356526046868
 20
-7.368852537220286
 30
0.0
 10
2.602373453125448
 20
-7.350662433058166
 30
0.0
 10
2.636238741745454
 20
-7.350662433058166
 30
0.0
 10
2.664144015175977
 20
-7.350662433058166
 30
0.0
 10
2.685296901455411
 20
-7.367577851890742
 30
0.0
 10
2.694185247807356
 20
-7.391693520287492
 30
0.0
 10
2.694185247807356
 20
-7.391693520287492
 30
0.0
 10
2.695046521678668
 20
-7.391693520287492
 30
0.0
 10
2.695046521678668
 20
-7.391693520287492
 30
0.0
 10
2.701385497371528
 20
-7.380255803276462
 30
0.0
 10
2.70941256985216
 20
-7.371401907879371
 30
0.0
 10
2.717887504745875
 20
-7.365028481231656
 30
0.0
 10
2.730152044673364
 20
-7.355726723421483
 30
0.0
 10
2.743691269930395
 20
-7.350662433058166
 30
0.0
 10
2.763156059422056
 20
-7.350662433058166
 30
0.0
 10
2.790234509936121
 20
-7.350662433058166
 30
0.0
 10
2.830438774248986
 20
-7.368439125762056
 30
0.0
 10
2.830438774248986
 20
-7.43951144562276
 30
0.0
 10
2.830438774248986
 20
-7.43951144562276
 30
0.0
 10
2.830438774248986
 20
-7.560089787606504
 30
0.0
 10
2.830438774248986
 20
-7.560089787606504
 30
0.0
 10
2.830438774248986
 20
-7.560089787606504
 30
0.0
 10
2.794058565924748
 20
-7.560089787606504
 30
0.0
 10
2.794058565924748
 20
-7.560089787606504
 30
0.0
 10
2.794058565924748
 20
-7.560089787606504
 30
0.0
 10
2.794058565924748
 20
-7.444162324527847
 30
0.0
 10
2.794058565924748
 20
-7.444162324527847
 30
0.0
 10
2.794058565924748
 20
-7.404819334086294
 30
0.0
 10
2.779658066796403
 20
-7.381117077147775
 30
0.0
 10
2.749616834165026
 20
-7.381117077147775
 30
0.0
 10
2.728463947885591
 20
-7.381117077147775
 30
0.0
 10
2.711961940511244
 20
-7.396757810650808
 30
0.0
 10
2.705622964818384
 20
-7.414982365767781
 30
0.0
 10
2.703934868030613
 20
-7.420046656131097
 30
0.0
 10
2.702660182701071
 20
-7.426799043282186
 30
0.0
 10
2.702660182701071
 20
-7.43358588138813
 30
0.0
 10
2.702660182701071
 20
-7.43358588138813
 30
0.0
 10
2.702660182701071
 20
-7.560089787606504
 30
0.0
 10
2.702660182701071
 20
-7.560089787606504
 30
0.0
 10
2.702660182701071
 20
-7.560089787606504
 30
0.0
 10
2.666279974376831
 20
-7.560089787606504
 30
0.0
 10
2.666279974376831
 20
-7.560089787606504
 30
0.0
 10
2.666279974376831
 20
-7.560089787606504
 30
0.0
 10
2.666279974376831
 20
-7.437375486421905
 30
0.0
 10
2.666279974376831
 20
-7.437375486421905
 30
0.0
 10
2.666279974376831
 20
-7.404819334086294
 30
0.0
 10
2.651879475248488
 20
-7.381117077147775
 30
0.0
 10
2.623526339404882
 20
-7.381117077147775
 30
0.0
 10
2.600271944879444
 20
-7.381117077147775
 30
0.0
 10
2.583356526046868
 20
-7.399720592768124
 30
0.0
 10
2.577430961812239
 20
-7.418358559343325
 30
0.0
 10
2.575295002611384
 20
-7.423836261164872
 30
0.0
 10
2.574468179694923
 20
-7.430209687812586
 30
0.0
 10
2.574468179694923
 20
-7.436548663505445
 30
0.0
 10
2.574468179694923
 20
-7.436548663505445
 30
0.0
 10
2.574468179694923
 20
-7.560089787606504
 30
0.0
 10
2.574468179694923
 20
-7.560089787606504
 30
0.0
 10
2.574468179694923
 20
-7.560089787606504
 30
0.0
 10
2.538087971370686
 20
-7.560089787606504
 30
0.0
 10
2.538087971370686
 20
-7.560089787606504
 30
0.0
 10
2.538087971370686
 20
-7.560089787606504
 30
0.0
 10
2.538087971370686
 20
-7.410744898320923
 30
0.0
 10
2.538087971370686
 20
-7.410744898320923
 30
0.0
  0
HATCH
  5
CF
330
C1
100
AcDbEntity
  8
Livello 2
 62
   250
420
  1907995
440
 33554687
100
AcDbHatch
 10
0.0
 20
0.0
 30
0.0
210
0.0
220
0.0
230
1.0
  2
SOLID
 70
     1
 71
     1
 91
        1
 92
        1
 93
        1
 72
     4
 94
        3
 73
     0
 74
     0
 95
       80
 96
       76
 40
0.0
 40
0.0
 40
0.0
 40
0.0
 40
1.0
 40
1.0
 40
1.0
 40
2.0
 40
2.0
 40
2.0
 40
3.0
 40
3.0
 40
3.0
 40
4.0
 40
4.0
 40
4.0
 40
5.0
 40
5.0
 40
5.0
 40
6.0
 40
6.0
 40
6.0
 40
7.0
 40
7.0
 40
7.0
 40
8.0
 40
8.0
 40
8.0
 40
9.0
 40
9.0
 40
9.0
 40
10.0
 40
10.0
 40
10.0
 40
11.0
 40
11.0
 40
11.0
 40
12.0
 40
12.0
 40
12.0
 40
13.0
 40
13.0
 40
13.0
 40
14.0
 40
14.0
 40
14.0
 40
15.0
 40
15.0
 40
15.0
 40
16.0
 40
16.0
 40
16.0
 40
17.0
 40
17.0
 40
17.0
 40
18.0
 40
18.0
 40
18.0
 40
19.0
 40
19.0
 40
19.0
 40
20.0
 40
20.0
 40
20.0
 40
21.0
 40
21.0
 40
21.0
 40
22.0
 40
22.0
 40
22.0
 40
23.0
 40
23.0
 40
23.0
 40
24.0
 40
24.0
 40
24.0
 40
25.0
 40
25.0
 40
25.0
 40
25.0
 10
2.538087971370686
 20
-7.410744898320923
 10
2.538087971370686
 20
-7.389592012041487
 10
2.537640108957603
 20
-7.37222873079583
 10
2.536365423628061
 20
-7.355313311963254
 10
2.536365423628061
 20
-7.355313311963254
 10
2.568956026918523
 20
-7.355313311963254
 10
2.568956026918523
 20
-7.355313311963254
 10
2.568956026918523
 20
-7.355313311963254
 10
2.570644123706295
 20
-7.388317326711947
 10
2.570644123706295
 20
-7.388317326711947
 10
2.570644123706295
 20
-7.388317326711947
 10
2.571918809035838
 20
-7.388317326711947
 10
2.571918809035838
 20
-7.388317326711947
 10
2.583356526046868
 20
-7.368852537220286
 10
2.602373453125448
 20
-7.350662433058166
 10
2.636238741745454
 20
-7.350662433058166
 10
2.664144015175977
 20
-7.350662433058166
 10
2.685296901455411
 20
-7.367577851890742
 10
2.694185247807356
 20
-7.391693520287492
 10
2.694185247807356
 20
-7.391693520287492
 10
2.695046521678668
 20
-7.391693520287492
 10
2.695046521678668
 20
-7.391693520287492
 10
2.701385497371528
 20
-7.380255803276462
 10
2.70941256985216
 20
-7.371401907879371
 10
2.717887504745875
 20
-7.365028481231656
 10
2.730152044673364
 20
-7.355726723421483
 10
2.743691269930395
 20
-7.350662433058166
 10
2.763156059422056
 20
-7.350662433058166
 10
2.790234509936121
 20
-7.350662433058166
 10
2.830438774248986
 20
-7.368439125762056
 10
2.830438774248986
 20
-7.43951144562276
 10
2.830438774248986
 20
-7.43951144562276
 10
2.830438774248986
 20
-7.560089787606504
 10
2.830438774248986
 20
-7.560089787606504
 10
2.830438774248986
 20
-7.560089787606504
 10
2.794058565924748
 20
-7.560089787606504
 10
2.794058565924748
 20
-7.560089787606504
 10
2.794058565924748
 20
-7.560089787606504
 10
2.794058565924748
 20
-7.444162324527847
 10
2.794058565924748
 20
-7.444162324527847
 10
2.794058565924748
 20
-7.404819334086294
 10
2.779658066796403
 20
-7.381117077147775
 10
2.749616834165026
 20
-7.381117077147775
 10
2.728463947885591
 20
-7.381117077147775
 10
2.711961940511244
 20
-7.396757810650808
 10
2.705622964818384
 20
-7.414982365767781
 10
2.703934868030613
 20
-7.420046656131097
 10
2.702660182701071
 20
-7.426799043282186
 10
2.702660182701071
 20
-7.43358588138813
 10
2.702660182701071
 20
-7.43358588138813
 10
2.702660182701071
 20
-7.560089787606504
 10
2.702660182701071
 20
-7.560089787606504
 10
2.702660182701071
 20
-7.560089787606504
 10
2.666279974376831
 20
-7.560089787606504
 10
2.666279974376831
 20
-7.560089787606504
 10
2.666279974376831
 20
-7.560089787606504
 10
2.666279974376831
 20
-7.437375486421905
 10
2.666279974376831
 20
-7.437375486421905
 10
2.666279974376831
 20
-7.404819334086294
 10
2.651879475248488
 20
-7.381117077147775
 10
2.623526339404882
 20
-7.381117077147775
 10
2.600271944879444
 20
-7.381117077147775
 10
2.583356526046868
 20
-7.399720592768124
 10
2.577430961812239
 20
-7.418358559343325
 10
2.575295002611384
 20
-7.423836261164872
 10
2.574468179694923
 20
-7.430209687812586
 10
2.574468179694923
 20
-7.436548663505445
 10
2.574468179694923
 20
-7.436548663505445
 10
2.574468179694923
 20
-7.560089787606504
 10
2.574468179694923
 20
-7.560089787606504
 10
2.574468179694923
 20
-7.560089787606504
 10
2.538087971370686
 20
-7.560089787606504
 10
2.538087971370686
 20
-7.560089787606504
 10
2.538087971370686
 20
-7.560089787606504
 10
2.538087971370686
 20
-7.410744898320923
 10
2.538087971370686
 20
-7.410744898320923
 97
        1
330
CE
 75
     2
 76
     1
 98
        1
 10
0.0
 20
0.0
450
        0
451
        0
460
0.0
461
0.0
452
        0
462
0.0
453
        0
470

  0
ENDBLK
  5
C4
330
C1
100
AcDbEntity
  8
0
100
AcDbBlockEnd
  0
ENDSEC
  0
SECTION
  2
ENTITIES
  0
LWPOLYLINE
  5
79
330
70
100
AcDbEntity
  8
0
100
AcDbPolyline
 90
        9
 70
     1
 43
0.0
 10
6.017400771688754
 20
-8.657418750301548
 10
6.017400771721161
 20
-7.937673780223607
 10
4.943682865579511
 20
-7.040942342045455
 10
4.943682865605405
 20
-6.462786546408959
 10
4.869523537577019
 20
-6.462786546407675
 10
4.755715918214436
 20
-6.46278654640575
 10
4.755715918214436
 20
-7.040942342042182
 10
3.681998012032424
 20
-7.937673780172143
 10
3.681998012032424
 20
-8.657418750250213
  0
LINE
  5
7A
330
70
100
AcDbEntity
  8
0
100
AcDbLine
 10
3.681998012037206
 20
-7.937673780172143
 30
0.0
 11
6.01740077171654
 21
-7.937673780172143
 31
0.0
  0
LWPOLYLINE
  5
7B
330
70
100
AcDbEntity
  8
0
100
AcDbPolyline
 90
        4
 70
     1
 43
0.0
 10
4.884977169645816
 20
-6.462792424599577
 10
4.814421614107898
 20
-6.462792424599577
 10
4.814421614107898
 20
-2.471304795389118
 10
4.884977169645816
 20
-2.471304795389118
  0
LWPOLYLINE
  5
7C
330
70
100
AcDbEntity
  8
0
100
AcDbPolyline
 90
        4
 70
     1
 43
0.0
 10
5.218516882847342
 20
-2.471304795389118
 10
4.480881900906402
 20
-2.471304795389118
 10
4.480881900906402
 20
-2.237619047059615
 10
5.218516882847342
 20
-2.237619047059615
  0
LINE
  5
7E
330
70
100
AcDbEntity
  8
0
100
AcDbLine
 10
3.681998012037206
 20
-9.021031743776443
 30
0.0
 11
6.017400771721161
 21
-9.021031743776443
 31
0.0
  0
LINE
  5
7F
330
70
100
AcDbEntity
  8
0
100
AcDbLine
 10
6.894285712562178
 20
-2.237619047059615
 30
0.0
 11
6.894285712562178
 21
-8.657418750301548
 31
0.0
  0
LINE
  5
80
330
70
100
AcDbEntity
  8
0
100
AcDbLine
 10
4.480881900906402
 20
-1.930198412215784
 30
0.0
 11
5.218516882847342
 21
-1.930198412215784
 31
0.0
  0
LINE
  5
81
330
70
100
AcDbEntity
  8
0
100
AcDbLine
 10
3.114523808745191
 20
-6.462792424599577
 30
0.0
 11
3.114523808745191
 21
-8.657418750301548
 31
0.0
  0
MTEXT
  5
116
330
70
100
AcDbEntity
  8
0
100
AcDbMText
 10
7.596835795097113
 20
-5.028961271570678
 30
0.0
 40
0.4
 41
9.94674818082484
 46
0.0
 71
     1
 72
     5
  1
2300 mm
 73
     1
 44
1.0
1001
ACAD
1000
ACAD_MTEXT_COLUMN_INFO_BEGIN
1070
    75
1070
     2
1070
    79
1070
     0
1070
    76
1070
     1
1070
    78
1070
     0
1070
    48
1040
9.94674818082484
1070
    49
1040
2.0
1070
    50
1070
     1
1040
0.0
1000
ACAD_MTEXT_COLUMN_INFO_END
  0
MTEXT
  5
11D
330
70
100
AcDbEntity
  8
0
100
AcDbMText
 10
4.315043445994227
 20
-0.7210727528348065
 30
0.0
 40
0.4
 41
9.94674818082484
 46
0.0
 71
     1
 72
     5
  1
90 mm
 73
     1
 44
1.0
1001
ACAD
1000
ACAD_MTEXT_COLUMN_INFO_BEGIN
1070
    75
1070
     2
1070
    79
1070
     0
1070
    76
1070
     1
1070
    78
1070
     0
1070
    48
1040
9.94674818082484
1070
    49
1040
2.0
1070
    50
1070
     1
1040
0.0
1000
ACAD_MTEXT_COLUMN_INFO_END
  0
MTEXT
  5
123
330
70
100
AcDbEntity
  8
0
100
AcDbMText
 10
0.1484933914904261
 20
-6.604230047355605
 30
0.0
 40
0.4
 41
9.94674818082484
 46
0.0
 71
     1
 72
     5
  1
150 mm
 73
     1
 44
1.0
1001
ACAD
1000
ACAD_MTEXT_COLUMN_INFO_BEGIN
1070
    75
1070
     2
1070
    79
1070
     0
1070
    76
1070
     1
1070
    78
1070
     0
1070
    48
1040
9.94674818082484
1070
    49
1040
2.0
1070
    50
1070
     1
1040
0.0
1000
ACAD_MTEXT_COLUMN_INFO_END
  0
MTEXT
  5
129
330
70
100
AcDbEntity
  8
0
100
AcDbMText
 10
4.077008190490239
 20
-9.540245660517641
 30
0.0
 40
0.4
 41
9.94674818082484
 46
0.0
 71
     1
 72
     5
  1
210 mm
 73
     1
 44
1.0
1001
ACAD
1000
ACAD_MTEXT_COLUMN_INFO_BEGIN
1070
    75
1070
     2
1070
    79
1070
     0
1070
    76
1070
     1
1070
    78
1070
     0
1070
    48
1040
9.94674818082484
1070
    49
1040
2.0
1070
    50
1070
     1
1040
0.0
1000
ACAD_MTEXT_COLUMN_INFO_END
  0
ENDSEC
  0
SECTION
  2
OBJECTS
  0
DICTIONARY
  5
C
330
0
100
AcDbDictionary
281
     1
  3
ACAD_CIP_PREVIOUS_PRODUCT_INFO
350
113
  3
ACAD_COLOR
350
63
  3
ACAD_DETAILVIEWSTYLE
350
6A
  3
ACAD_GROUP
350
D
  3
ACAD_LAYOUT
350
62
  3
ACAD_MATERIAL
350
10
  3
ACAD_MLEADERSTYLE
350
66
  3
ACAD_MLINESTYLE
350
5F
  3
ACAD_PLOTSETTINGS
350
61
  3
ACAD_PLOTSTYLENAME
350
E
  3
ACAD_SCALELIST
350
42
  3
ACAD_SECTIONVIEWSTYLE
350
68
  3
ACAD_TABLESTYLE
350
64
  3
ACAD_VISUALSTYLE
350
29
  3
ACDB_RECOMPOSE_DATA
350
165
  3
AcDbVariableDictionary
350
D0
  0
XRECORD
  5
113
102
{ACAD_REACTORS
330
C
102
}
330
C
100
AcDbXrecord
280
     1
300
ACD
300
2019
300
ACD_F_S
  0
DICTIONARY
  5
63
102
{ACAD_REACTORS
330
C
102
}
330
C
100
AcDbDictionary
281
     1
  0
DICTIONARY
  5
6A
102
{ACAD_REACTORS
330
C
102
}
330
C
100
AcDbDictionary
281
     1
  3
Imperial24
350
6B
  0
DICTIONARY
  5
D
102
{ACAD_REACTORS
330
C
102
}
330
C
100
AcDbDictionary
281
     1
  0
DICTIONARY
  5
62
102
{ACAD_REACTORS
330
C
102
}
330
C
100
AcDbDictionary
281
     1
  3
Layout1
350
6F
  3
Layout2
350
77
  3
Model
350
73
  0
DICTIONARY
  5
10
102
{ACAD_REACTORS
330
C
102
}
330
C
100
AcDbDictionary
281
     1
  3
ByBlock
350
19
  3
ByLayer
350
11
  3
Global
350
21
  0
DICTIONARY
  5
66
102
{ACAD_REACTORS
330
C
102
}
330
C
100
AcDbDictionary
281
     1
  3
Standard
350
67
  0
DICTIONARY
  5
5F
102
{ACAD_REACTORS
330
C
102
}
330
C
100
AcDbDictionary
281
     1
  3
Standard
350
60
  0
DICTIONARY
  5
61
102
{ACAD_REACTORS
330
C
102
}
330
C
100
AcDbDictionary
281
     1
  0
ACDBDICTIONARYWDFLT
  5
E
102
{ACAD_REACTORS
330
C
102
}
330
C
100
AcDbDictionary
281
     1
  3
Normal
350
F
100
AcDbDictionaryWithDefault
340
F
  0
DICTIONARY
  5
42
102
{ACAD_REACTORS
330
C
102
}
330
C
100
AcDbDictionary
281
     1
  3
A0
350
43
  3
A1
350
44
  3
A2
350
45
  3
A3
350
46
  3
A4
350
47
  3
A5
350
48
  3
A6
350
49
  3
A7
350
4A
  3
A8
350
4B
  3
A9
350
4C
  3
B0
350
4D
  3
B1
350
4E
  3
B2
350
4F
  3
B3
350
50
  3
B4
350
51
  3
B5
350
52
  3
B6
350
53
  0
DICTIONARY
  5
68
102
{ACAD_REACTORS
330
C
102
}
330
C
100
AcDbDictionary
281
     1
  3
Imperial24
350
69
  0
DICTIONARY
  5
64
102
{ACAD_REACTORS
330
C
102
}
330
C
100
AcDbDictionary
281
     1
  3
Standard
350
65
  0
DICTIONARY
  5
29
102
{ACAD_REACTORS
330
C
102
}
330
C
100
AcDbDictionary
281
     1
  3
2dWireframe
350
2F
  3
Basic
350
2E
  3
Brighten
350
35
  3
ColorChange
350
39
  3
Conceptual
350
32
  3
Dim
350
34
  3
EdgeColorOff
350
41
  3
Facepattern
350
38
  3
Flat
350
2A
  3
FlatWithEdges
350
2B
  3
Gouraud
350
2C
  3
GouraudWithEdges
350
2D
  3
Hidden
350
31
  3
JitterOff
350
3F
  3
Linepattern
350
37
  3
OverhangOff
350
40
  3
Realistic
350
33
  3
Shaded
350
3E
  3
Shaded with edges
350
3D
  3
Shades of Gray
350
3A
  3
Sketchy
350
3B
  3
Thicken
350
36
  3
Wireframe
350
30
  3
X-Ray
350
3C
  0
XRECORD
  5
165
102
{ACAD_REACTORS
330
C
102
}
330
C
100
AcDbXrecord
280
     1
 90
        1
330
65
330
116
330
11D
330
123
330
129
  0
DICTIONARY
  5
D0
102
{ACAD_REACTORS
330
C
102
}
330
C
100
AcDbDictionary
281
     1
  3
CANNOSCALE
350
D5
  3
CMLEADERSTYLE
350
D2
  3
CTABLESTYLE
350
D1
  3
CVIEWDETAILSTYLE
350
D3
  3
CVIEWSECTIONSTYLE
350
D4
  3
XCLIPFRAME
350
12A
  0
ACDBDETAILVIEWSTYLE
  5
6B
102
{ACAD_XDICTIONARY
360
19B
102
}
102
{ACAD_REACTORS
330
6A
102
}
330
6A
100
AcDbModelDocViewStyle
 70
     0
  3
Imperial24
290
     0
100
AcDbDetailViewStyle
 70
     0
 71
     0
 90
        3
 71
     1
340
55
 62
   256
 40
0.24
340
0
 62
   256
 40
0.24
300

 40
0.36
280
     3
 71
     2
340
5D
 90
       25
 62
   256
 71
     3
340
55
 62
   256
 40
0.24
 90
        1
 40
0.75
 90
        1
300
%<\AcVar ViewType \f "%tc1">% %<\AcVar ViewDetailId>%\PSCALE %<\AcVar ViewScale \f "%sn">%
 71
     4
340
5D
 90
       25
 62
   256
340
5D
 90
       25
 62
   256
280
     0
  0
LAYOUT
  5
6F
102
{ACAD_REACTORS
330
62
102
}
330
62
100
AcDbPlotSettings
  1

  2

  4

  6

 40
0.0
 41
0.0
 42
0.0
 43
0.0
 44
0.0
 45
0.0
 46
0.0
 47
0.0
 48
0.0
 49
0.0
140
0.0
141
0.0
142
1.0
143
1.0
 70
   688
 72
     0
 73
     0
 74
     5
  7

 75
    16
147
1.0
 76
     0
 77
     2
 78
   300
148
0.0
149
0.0
100
AcDbLayout
  1
Layout1
 70
     1
 71
     1
 10
0.0
 20
0.0
 11
12.0
 21
9.0
 12
0.0
 22
0.0
 32
0.0
 14
1.000000000000000E+20
 24
1.000000000000000E+20
 34
1.000000000000000E+20
 15
-1.000000000000000E+20
 25
-1.000000000000000E+20
 35
-1.000000000000000E+20
146
0.0
 13
0.0
 23
0.0
 33
0.0
 16
1.0
 26
0.0
 36
0.0
 17
0.0
 27
1.0
 37
0.0
 76
     0
330
6C
  0
LAYOUT
  5
77
102
{ACAD_REACTORS
330
62
102
}
330
62
100
AcDbPlotSettings
  1

  2

  4

  6

 40
0.0
 41
0.0
 42
0.0
 43
0.0
 44
0.0
 45
0.0
 46
0.0
 47
0.0
 48
0.0
 49
0.0
140
0.0
141
0.0
142
1.0
143
1.0
 70
   688
 72
     0
 73
     0
 74
     5
  7

 75
    16
147
1.0
 76
     0
 77
     2
 78
   300
148
0.0
149
0.0
100
AcDbLayout
  1
Layout2
 70
     1
 71
     2
 10
0.0
 20
0.0
 11
12.0
 21
9.0
 12
0.0
 22
0.0
 32
0.0
 14
0.0
 24
0.0
 34
0.0
 15
0.0
 25
0.0
 35
0.0
146
0.0
 13
0.0
 23
0.0
 33
0.0
 16
1.0
 26
0.0
 36
0.0
 17
0.0
 27
1.0
 37
0.0
 76
     0
330
74
  0
LAYOUT
  5
73
102
{ACAD_REACTORS
330
62
102
}
330
62
100
AcDbPlotSettings
  1

  2

  4

  6

 40
0.0
 41
0.0
 42
0.0
 43
0.0
 44
0.0
 45
0.0
 46
0.0
 47
0.0
 48
0.0
 49
0.0
140
0.0
141
0.0
142
1.0
143
1.0
 70
  1712
 72
     0
 73
     0
 74
     0
  7

 75
     0
147
1.0
 76
     0
 77
     2
 78
   300
148
0.0
149
0.0
100
AcDbLayout
  1
Model
 70
     1
 71
     0
 10
0.0
 20
0.0
 11
12.0
 21
9.0
 12
0.0
 22
0.0
 32
0.0
 14
0.0
 24
0.0
 34
0.0
 15
0.0
 25
0.0
 35
0.0
146
0.0
 13
0.0
 23
0.0
 33
0.0
 16
1.0
 26
0.0
 36
0.0
 17
0.0
 27
1.0
 37
0.0
 76
     0
330
70
331
57
  0
MATERIAL
  5
19
102
{ACAD_XDICTIONARY
360
1A
102
}
102
{ACAD_REACTORS
330
10
102
}
330
10
100
AcDbMaterial
  1
ByBlock
 72
     0
 43
0.0208333333333333
 43
0.0
 43
0.0
 43
0.0
 43
0.0
 43
0.0208333333333333
 43
0.0
 43
0.0
 43
0.0
 43
0.0
 43
1.0
 43
0.0
 43
0.0
 43
0.0
 43
0.0
 43
1.0
 77
     0
 47
0.0208333333333333
 47
0.0
 47
0.0
 47
0.0
 47
0.0
 47
0.0208333333333333
 47
0.0
 47
0.0
 47
0.0
 47
0.0
 47
1.0
 47
0.0
 47
0.0
 47
0.0
 47
0.0
 47
1.0
171
     0
 49
0.0208333333333333
 49
0.0
 49
0.0
 49
0.0
 49
0.0
 49
0.0208333333333333
 49
0.0
 49
0.0
 49
0.0
 49
0.0
 49
1.0
 49
0.0
 49
0.0
 49
0.0
 49
0.0
 49
1.0
175
     0
142
0.0208333333333333
142
0.0
142
0.0
142
0.0
142
0.0
142
0.0208333333333333
142
0.0
142
0.0
142
0.0
142
0.0
142
1.0
142
0.0
142
0.0
142
0.0
142
0.0
142
1.0
179
     0
144
0.0208333333333333
144
0.0
144
0.0
144
0.0
144
0.0
144
0.0208333333333333
144
0.0
144
0.0
144
0.0
144
0.0
144
1.0
144
0.0
144
0.0
144
0.0
144
0.0
144
1.0
147
0.0208333333333333
147
0.0
147
0.0
147
0.0
147
0.0
147
0.0208333333333333
147
0.0
147
0.0
147
0.0
147
0.0
147
1.0
147
0.0
147
0.0
147
0.0
147
0.0
147
1.0
  0
MATERIAL
  5
11
102
{ACAD_XDICTIONARY
360
12
102
}
102
{ACAD_REACTORS
330
10
102
}
330
10
100
AcDbMaterial
  1
ByLayer
 72
     0
 43
0.0208333333333333
 43
0.0
 43
0.0
 43
0.0
 43
0.0
 43
0.0208333333333333
 43
0.0
 43
0.0
 43
0.0
 43
0.0
 43
1.0
 43
0.0
 43
0.0
 43
0.0
 43
0.0
 43
1.0
 77
     0
 47
0.0208333333333333
 47
0.0
 47
0.0
 47
0.0
 47
0.0
 47
0.0208333333333333
 47
0.0
 47
0.0
 47
0.0
 47
0.0
 47
1.0
 47
0.0
 47
0.0
 47
0.0
 47
0.0
 47
1.0
171
     0
 49
0.0208333333333333
 49
0.0
 49
0.0
 49
0.0
 49
0.0
 49
0.0208333333333333
 49
0.0
 49
0.0
 49
0.0
 49
0.0
 49
1.0
 49
0.0
 49
0.0
 49
0.0
 49
0.0
 49
1.0
175
     0
142
0.0208333333333333
142
0.0
142
0.0
142
0.0
142
0.0
142
0.0208333333333333
142
0.0
142
0.0
142
0.0
142
0.0
142
1.0
142
0.0
142
0.0
142
0.0
142
0.0
142
1.0
179
     0
144
0.0208333333333333
144
0.0
144
0.0
144
0.0
144
0.0
144
0.0208333333333333
144
0.0
144
0.0
144
0.0
144
0.0
144
1.0
144
0.0
144
0.0
144
0.0
144
0.0
144
1.0
147
0.0208333333333333
147
0.0
147
0.0
147
0.0
147
0.0
147
0.0208333333333333
147
0.0
147
0.0
147
0.0
147
0.0
147
1.0
147
0.0
147
0.0
147
0.0
147
0.0
147
1.0
  0
MATERIAL
  5
21
102
{ACAD_XDICTIONARY
360
22
102
}
102
{ACAD_REACTORS
330
10
102
}
330
10
100
AcDbMaterial
  1
Global
 72
     0
 43
0.0208333333333333
 43
0.0
 43
0.0
 43
0.0
 43
0.0
 43
0.0208333333333333
 43
0.0
 43
0.0
 43
0.0
 43
0.0
 43
1.0
 43
0.0
 43
0.0
 43
0.0
 43
0.0
 43
1.0
 77
     0
 47
0.0208333333333333
 47
0.0
 47
0.0
 47
0.0
 47
0.0
 47
0.0208333333333333
 47
0.0
 47
0.0
 47
0.0
 47
0.0
 47
1.0
 47
0.0
 47
0.0
 47
0.0
 47
0.0
 47
1.0
171
     0
 49
0.0208333333333333
 49
0.0
 49
0.0
 49
0.0
 49
0.0
 49
0.0208333333333333
 49
0.0
 49
0.0
 49
0.0
 49
0.0
 49
1.0
 49
0.0
 49
0.0
 49
0.0
 49
0.0
 49
1.0
175
     0
142
0.0208333333333333
142
0.0
142
0.0
142
0.0
142
0.0
142
0.0208333333333333
142
0.0
142
0.0
142
0.0
142
0.0
142
1.0
142
0.0
142
0.0
142
0.0
142
0.0
142
1.0
179
     0
144
0.0208333333333333
144
0.0
144
0.0
144
0.0
144
0.0
144
0.0208333333333333
144
0.0
144
0.0
144
0.0
144
0.0
144
1.0
144
0.0
144
0.0
144
0.0
144
0.0
144
1.0
147
0.0208333333333333
147
0.0
147
0.0
147
0.0
147
0.0
147
0.0208333333333333
147
0.0
147
0.0
147
0.0
147
0.0
147
1.0
147
0.0
147
0.0
147
0.0
147
0.0
147
1.0
  0
MLEADERSTYLE
  5
67
102
{ACAD_XDICTIONARY
360
197
102
}
102
{ACAD_REACTORS
330
66
102
}
330
66
100
AcDbMLeaderStyle
170
     2
171
     1
172
     0
 90
        2
 40
0.0
 41
0.0
173
     1
 91
-1056964608
340
5B
 92
       -2
290
     1
 42
0.09
291
     1
 43
0.36
  3
Standard
 44
0.18
300

342
55
174
     1
178
     6
175
     1
176
     0
 93
-1056964608
 45
0.18
292
     0
297
     0
 46
0.18
 94
-1056964608
 47
1.0
 49
1.0
140
1.0
293
     1
141
0.0
294
     1
177
     0
142
1.0
295
     0
296
     0
143
0.125
1001
ACAD_MLEADERVER
1070
     2
  0
MLINESTYLE
  5
60
102
{ACAD_REACTORS
330
5F
102
}
330
5F
100
AcDbMlineStyle
  2
STANDARD
 70
     0
  3

 62
   256
 51
90.0
 52
90.0
 71
     2
 49
0.5
 62
   256
  6
BYLAYER
 49
-0.5
 62
   256
  6
BYLAYER
  0
ACDBPLACEHOLDER
  5
F
102
{ACAD_REACTORS
330
E
102
}
330
E
  0
SCALE
  5
43
102
{ACAD_REACTORS
330
42
102
}
330
42
100
AcDbScale
 70
     0
300
1:1
140
1.0
141
1.0
290
     1
  0
SCALE
  5
44
102
{ACAD_REACTORS
330
42
102
}
330
42
100
AcDbScale
 70
     0
300
1/128" = 1'-0"
140
0.0078125
141
12.0
290
     0
  0
SCALE
  5
45
102
{ACAD_REACTORS
330
42
102
}
330
42
100
AcDbScale
 70
     0
300
1/64" = 1'-0"
140
0.015625
141
12.0
290
     0
  0
SCALE
  5
46
102
{ACAD_REACTORS
330
42
102
}
330
42
100
AcDbScale
 70
     0
300
1/32" = 1'-0"
140
0.03125
141
12.0
290
     0
  0
SCALE
  5
47
102
{ACAD_REACTORS
330
42
102
}
330
42
100
AcDbScale
 70
     0
300
1/16" = 1'-0"
140
0.0625
141
12.0
290
     0
  0
SCALE
  5
48
102
{ACAD_REACTORS
330
42
102
}
330
42
100
AcDbScale
 70
     0
300
3/32" = 1'-0"
140
0.09375
141
12.0
290
     0
  0
SCALE
  5
49
102
{ACAD_REACTORS
330
42
102
}
330
42
100
AcDbScale
 70
     0
300
1/8" = 1'-0"
140
0.125
141
12.0
290
     0
  0
SCALE
  5
4A
102
{ACAD_REACTORS
330
42
102
}
330
42
100
AcDbScale
 70
     0
300
3/16" = 1'-0"
140
0.1875
141
12.0
290
     0
  0
SCALE
  5
4B
102
{ACAD_REACTORS
330
42
102
}
330
42
100
AcDbScale
 70
     0
300
1/4" = 1'-0"
140
0.25
141
12.0
290
     0
  0
SCALE
  5
4C
102
{ACAD_REACTORS
330
42
102
}
330
42
100
AcDbScale
 70
     0
300
3/8" = 1'-0"
140
0.375
141
12.0
290
     0
  0
SCALE
  5
4D
102
{ACAD_REACTORS
330
42
102
}
330
42
100
AcDbScale
 70
     0
300
1/2" = 1'-0"
140
0.5
141
12.0
290
     0
  0
SCALE
  5
4E
102
{ACAD_REACTORS
330
42
102
}
330
42
100
AcDbScale
 70
     0
300
3/4" = 1'-0"
140
0.75
141
12.0
290
     0
  0
SCALE
  5
4F
102
{ACAD_REACTORS
330
42
102
}
330
42
100
AcDbScale
 70
     0
300
1" = 1'-0"
140
1.0
141
12.0
290
     0
  0
SCALE
  5
50
102
{ACAD_REACTORS
330
42
102
}
330
42
100
AcDbScale
 70
     0
300
1-1/2" = 1'-0"
140
1.5
141
12.0
290
     0
  0
SCALE
  5
51
102
{ACAD_REACTORS
330
42
102
}
330
42
100
AcDbScale
 70
     0
300
3" = 1'-0"
140
3.0
141
12.0
290
     0
  0
SCALE
  5
52
102
{ACAD_REACTORS
330
42
102
}
330
42
100
AcDbScale
 70
     0
300
6" = 1'-0"
140
6.0
141
12.0
290
     0
  0
SCALE
  5
53
102
{ACAD_REACTORS
330
42
102
}
330
42
100
AcDbScale
 70
     0
300
1'-0" = 1'-0"
140
12.0
141
12.0
290
     0
  0
ACDBSECTIONVIEWSTYLE
  5
69
102
{ACAD_XDICTIONARY
360
199
102
}
102
{ACAD_REACTORS
330
68
102
}
330
68
100
AcDbModelDocViewStyle
 70
     0
  3
Imperial24
290
     0
100
AcDbSectionViewStyle
 70
     0
 71
     0
 90
       78
 71
     1
340
55
 62
   256
 40
0.24
340
0
340
0
 62
   256
 40
0.24
300
I, O, Q, S, X, Z
 40
0.48
 90
        3
 40
0.18
 90
        1
 71
     2
340
5D
 90
       25
 62
   256
340
5D
 90
       50
 62
   256
 40
0.24
 40
0.0
 40
0.24
 71
     3
340
55
 62
   256
 40
0.24
 90
        1
 40
0.75
 90
        1
300
%<\AcVar ViewType \f "%tc1">% %<\AcVar ViewSectionStartId>%-%<\AcVar ViewSectionEndId>%\PSCALE %<\AcVar ViewScale \f "%sn">%
 71
     4
 62
   256
 62
   257
300
ANSI31
 40
1.0
 90
        0
290
     0
290
     0
 90
        6
 40
0.0
 40
1.570796326794896
 40
0.2617993877991494
 40
1.308996938995747
 40
-0.2617993877991494
 40
1.832595714594045
  0
TABLESTYLE
  5
65
102
{ACAD_XDICTIONARY
360
D6
102
}
102
{ACAD_REACTORS
330
64
102
}
330
64
100
AcDbTableStyle
  3
Standard
 70
     0
 71
     0
 40
0.06
 41
0.06
280
     0
281
     0
  7
Standard
140
0.18
170
     2
 62
     0
 63
     7
283
     0
 90
      512
 91
        0
  1

274
    -2
284
     1
 64
     0
275
    -2
285
     1
 65
     0
276
    -2
286
     1
 66
     0
277
    -2
287
     1
 67
     0
278
    -2
288
     1
 68
     0
279
    -2
289
     1
 69
     0
  7
Standard
140
0.25
170
     5
 62
     0
 63
     7
283
     0
 90
      512
 91
        0
  1

274
    -2
284
     1
 64
     0
275
    -2
285
     1
 65
     0
276
    -2
286
     1
 66
     0
277
    -2
287
     1
 67
     0
278
    -2
288
     1
 68
     0
279
    -2
289
     1
 69
     0
  7
Standard
140
0.18
170
     5
 62
     0
 63
     7
283
     0
 90
      512
 91
        0
  1

274
    -2
284
     1
 64
     0
275
    -2
285
     1
 65
     0
276
    -2
286
     1
 66
     0
277
    -2
287
     1
 67
     0
278
    -2
288
     1
 68
     0
279
    -2
289
     1
 69
     0
  0
VISUALSTYLE
  5
2F
102
{ACAD_XDICTIONARY
360
170
102
}
102
{ACAD_REACTORS
330
29
102
}
330
29
100
AcDbVisualStyle
  2
2dWireframe
 70
     4
 71
     0
 72
     2
 73
     0
 90
        0
 40
-0.6
 41
-30.0
 62
     5
 63
     7
421
 16777215
 74
     1
 91
        4
 64
     7
 65
   257
 75
     1
175
     1
 42
1.0
 92
        0
 66
   257
 43
1.0
 76
     1
 77
     6
 78
     2
 67
     7
 79
     5
170
     0
171
     0
290
     0
174
     0
 93
        1
 44
0.0
173
     0
291
     0
 45
0.0
1001
ACAD
1000
AcDbSavedByObjectVersion
1070
     0
  0
VISUALSTYLE
  5
2E
102
{ACAD_XDICTIONARY
360
16E
102
}
102
{ACAD_REACTORS
330
29
102
}
330
29
100
AcDbVisualStyle
  2
Basic
 70
     7
 71
     1
 72
     0
 73
     1
 90
        0
 40
-0.6
 41
-30.0
 62
     5
 63
     7
421
 16777215
 74
     0
 91
        4
 64
     7
 65
   257
 75
     1
175
     1
 42
1.0
 92
        8
 66
     7
 43
1.0
 76
     1
 77
     6
 78
     2
 67
     7
 79
     5
170
     0
171
     0
290
     0
174
     0
 93
        1
 44
0.0
173
     0
291
     1
 45
0.0
1001
ACAD
1000
AcDbSavedByObjectVersion
1070
     0
  0
VISUALSTYLE
  5
35
102
{ACAD_XDICTIONARY
360
17C
102
}
102
{ACAD_REACTORS
330
29
102
}
330
29
100
AcDbVisualStyle
  2
Brighten
 70
    12
 71
     2
 72
     2
 73
     0
 90
        0
 40
-0.6
 41
-30.0
 62
     5
 63
     7
421
 16777215
 74
     1
 91
        4
 64
     7
 65
   257
 75
     1
175
     1
 42
1.0
 92
        8
 66
     7
 43
1.0
 76
     1
 77
     6
 78
     2
 67
     7
 79
     5
170
     0
171
     0
290
     0
174
     0
 93
        1
 44
50.0
173
     0
291
     1
 45
0.0
1001
ACAD
1000
AcDbSavedByObjectVersion
1070
     0
  0
VISUALSTYLE
  5
39
102
{ACAD_XDICTIONARY
360
184
102
}
102
{ACAD_REACTORS
330
29
102
}
330
29
100
AcDbVisualStyle
  2
ColorChange
 70
    16
 71
     2
 72
     2
 73
     3
 90
        0
 40
-0.6
 41
-30.0
 62
     5
 63
     8
421
  8421504
 74
     1
 91
        4
 64
     7
 65
   257
 75
     1
175
     1
 42
1.0
 92
        8
 66
     8
424
  8421504
 43
1.0
 76
     1
 77
     6
 78
     2
 67
     7
 79
     5
170
     0
171
     0
290
     0
174
     0
 93
        1
 44
0.0
173
     0
291
     1
 45
0.0
1001
ACAD
1000
AcDbSavedByObjectVersion
1070
     0
  0
VISUALSTYLE
  5
32
102
{ACAD_XDICTIONARY
360
176
102
}
102
{ACAD_REACTORS
330
29
102
}
330
29
100
AcDbVisualStyle
  2
Conceptual
 70
     9
 71
     3
 72
     2
 73
     0
 90
        0
 40
-0.6
 41
-30.0
 62
     5
 63
     7
421
 16777215
 74
     2
 91
        2
 64
     7
 65
   257
 75
     1
175
     1
 42
179.0
 92
        8
 66
     7
 43
1.0
 76
     1
 77
     6
 78
     2
 67
     7
 79
     3
170
     0
171
     0
290
     0
174
     0
 93
        1
 44
0.0
173
     0
291
     0
 45
0.0
1001
ACAD
1000
AcDbSavedByObjectVersion
1070
     0
  0
VISUALSTYLE
  5
34
102
{ACAD_XDICTIONARY
360
17A
102
}
102
{ACAD_REACTORS
330
29
102
}
330
29
100
AcDbVisualStyle
  2
Dim
 70
    11
 71
     2
 72
     2
 73
     0
 90
        0
 40
-0.6
 41
-30.0
 62
     5
 63
     7
421
 16777215
 74
     1
 91
        4
 64
     7
 65
   257
 75
     1
175
     1
 42
1.0
 92
        8
 66
     7
 43
1.0
 76
     1
 77
     6
 78
     2
 67
     7
 79
     5
170
     0
171
     0
290
     0
174
     0
 93
        1
 44
-50.0
173
     0
291
     1
 45
0.0
1001
ACAD
1000
AcDbSavedByObjectVersion
1070
     0
  0
VISUALSTYLE
  5
41
102
{ACAD_XDICTIONARY
360
194
102
}
102
{ACAD_REACTORS
330
29
102
}
330
29
100
AcDbVisualStyle
  2
EdgeColorOff
 70
    22
 71
     2
 72
     2
 73
     0
 90
        0
 40
-0.6
 41
-30.0
 62
     5
 63
     7
421
 16777215
 74
     1
 91
        4
 64
     7
 65
   257
 75
     1
175
     1
 42
1.0
 92
        8
 66
     7
 43
1.0
 76
     1
 77
     6
 78
     2
 67
     7
 79
     5
170
     0
171
     0
290
     0
174
     0
 93
        1
 44
0.0
173
     0
291
     1
 45
0.0
1001
ACAD
1000
AcDbSavedByObjectVersion
1070
     0
  0
VISUALSTYLE
  5
38
102
{ACAD_XDICTIONARY
360
182
102
}
102
{ACAD_REACTORS
330
29
102
}
330
29
100
AcDbVisualStyle
  2
Facepattern
 70
    15
 71
     2
 72
     2
 73
     0
 90
        0
 40
-0.6
 41
-30.0
 62
     5
 63
     7
421
 16777215
 74
     1
 91
        4
 64
     7
 65
   257
 75
     1
175
     1
 42
1.0
 92
        8
 66
     7
 43
1.0
 76
     1
 77
     6
 78
     2
 67
     7
 79
     5
170
     0
171
     0
290
     0
174
     0
 93
        1
 44
0.0
173
     0
291
     1
 45
0.0
1001
ACAD
1000
AcDbSavedByObjectVersion
1070
     0
  0
VISUALSTYLE
  5
2A
102
{ACAD_XDICTIONARY
360
166
102
}
102
{ACAD_REACTORS
330
29
102
}
330
29
100
AcDbVisualStyle
  2
Flat
 70
     0
 71
     2
 72
     1
 73
     1
 90
        2
 40
-0.6
 41
30.0
 62
     5
 63
     7
421
 16777215
 74
     0
 91
        0
 64
     7
 65
   257
 75
     1
175
     1
 42
1.0
 92
        8
 66
     7
 43
1.0
 76
     1
 77
     6
 78
     2
 67
     7
 79
     5
170
     0
171
     0
290
     0
174
     0
 93
       13
 44
0.0
173
     0
291
     1
 45
0.0
1001
ACAD
1000
AcDbSavedByObjectVersion
1070
     0
  0
VISUALSTYLE
  5
2B
102
{ACAD_XDICTIONARY
360
168
102
}
102
{ACAD_REACTORS
330
29
102
}
330
29
100
AcDbVisualStyle
  2
FlatWithEdges
 70
     1
 71
     2
 72
     1
 73
     1
 90
        2
 40
-0.6
 41
30.0
 62
     5
 63
     7
421
 16777215
 74
     1
 91
        0
 64
     7
 65
   257
 75
     1
175
     1
 42
1.0
 92
        0
 66
   257
 43
1.0
 76
     1
 77
     6
 78
     2
 67
     7
 79
     5
170
     0
171
     0
290
     0
174
     0
 93
       13
 44
0.0
173
     0
291
     1
 45
0.0
1001
ACAD
1000
AcDbSavedByObjectVersion
1070
     0
  0
VISUALSTYLE
  5
2C
102
{ACAD_XDICTIONARY
360
16A
102
}
102
{ACAD_REACTORS
330
29
102
}
330
29
100
AcDbVisualStyle
  2
Gouraud
 70
     2
 71
     2
 72
     2
 73
     1
 90
        2
 40
-0.6
 41
30.0
 62
     5
 63
     7
421
 16777215
 74
     0
 91
        0
 64
     7
 65
   257
 75
     1
175
     1
 42
1.0
 92
        0
 66
     7
 43
1.0
 76
     1
 77
     6
 78
     2
 67
     7
 79
     5
170
     0
171
     0
290
     0
174
     0
 93
       13
 44
0.0
173
     0
291
     1
 45
0.0
1001
ACAD
1000
AcDbSavedByObjectVersion
1070
     0
  0
VISUALSTYLE
  5
2D
102
{ACAD_XDICTIONARY
360
16C
102
}
102
{ACAD_REACTORS
330
29
102
}
330
29
100
AcDbVisualStyle
  2
GouraudWithEdges
 70
     3
 71
     2
 72
     2
 73
     1
 90
        2
 40
-0.6
 41
30.0
 62
     5
 63
     7
421
 16777215
 74
     1
 91
        0
 64
     7
 65
   257
 75
     1
175
     1
 42
1.0
 92
        0
 66
   257
 43
1.0
 76
     1
 77
     6
 78
     2
 67
     7
 79
     5
170
     0
171
     0
290
     0
174
     0
 93
       13
 44
0.0
173
     0
291
     1
 45
0.0
1001
ACAD
1000
AcDbSavedByObjectVersion
1070
     0
  0
VISUALSTYLE
  5
31
102
{ACAD_XDICTIONARY
360
174
102
}
102
{ACAD_REACTORS
330
29
102
}
330
29
100
AcDbVisualStyle
  2
Hidden
 70
     6
 71
     1
 72
     2
 73
     2
 90
        0
 40
-0.6
 41
-30.0
 62
     5
 63
     7
421
 16777215
 74
     2
 91
        2
 64
     7
 65
   257
 75
     2
175
     1
 42
40.0
 92
        0
 66
   257
 43
1.0
 76
     1
 77
     6
 78
     2
 67
     7
 79
     3
170
     0
171
     0
290
     0
174
     0
 93
        1
 44
0.0
173
     0
291
     0
 45
0.0
1001
ACAD
1000
AcDbSavedByObjectVersion
1070
     0
  0
VISUALSTYLE
  5
3F
102
{ACAD_XDICTIONARY
360
190
102
}
102
{ACAD_REACTORS
330
29
102
}
330
29
100
AcDbVisualStyle
  2
JitterOff
 70
    20
 71
     2
 72
     2
 73
     0
 90
        0
 40
-0.6
 41
-30.0
 62
     5
 63
     7
421
 16777215
 74
     1
 91
        4
 64
     7
 65
   257
 75
     1
175
     1
 42
1.0
 92
       10
 66
     7
 43
1.0
 76
     1
 77
     6
 78
     2
 67
     7
 79
     5
170
     0
171
     0
290
     0
174
     0
 93
        1
 44
0.0
173
     0
291
     1
 45
0.0
1001
ACAD
1000
AcDbSavedByObjectVersion
1070
     0
  0
VISUALSTYLE
  5
37
102
{ACAD_XDICTIONARY
360
180
102
}
102
{ACAD_REACTORS
330
29
102
}
330
29
100
AcDbVisualStyle
  2
Linepattern
 70
    14
 71
     2
 72
     2
 73
     0
 90
        0
 40
-0.6
 41
-30.0
 62
     5
 63
     7
421
 16777215
 74
     1
 91
        4
 64
     7
 65
   257
 75
     7
175
     7
 42
1.0
 92
        8
 66
     7
 43
1.0
 76
     1
 77
     6
 78
     2
 67
     7
 79
     5
170
     0
171
     0
290
     0
174
     0
 93
        1
 44
0.0
173
     0
291
     1
 45
0.0
1001
ACAD
1000
AcDbSavedByObjectVersion
1070
     0
  0
VISUALSTYLE
  5
40
102
{ACAD_XDICTIONARY
360
192
102
}
102
{ACAD_REACTORS
330
29
102
}
330
29
100
AcDbVisualStyle
  2
OverhangOff
 70
    21
 71
     2
 72
     2
 73
     0
 90
        0
 40
-0.6
 41
-30.0
 62
     5
 63
     7
421
 16777215
 74
     1
 91
        4
 64
     7
 65
   257
 75
     1
175
     1
 42
1.0
 92
        9
 66
     7
 43
1.0
 76
     1
 77
     6
 78
     2
 67
     7
 79
     5
170
     0
171
     0
290
     0
174
     0
 93
        1
 44
0.0
173
     0
291
     1
 45
0.0
1001
ACAD
1000
AcDbSavedByObjectVersion
1070
     0
  0
VISUALSTYLE
  5
33
102
{ACAD_XDICTIONARY
360
178
102
}
102
{ACAD_REACTORS
330
29
102
}
330
29
100
AcDbVisualStyle
  2
Realistic
 70
     8
 71
     2
 72
     3
 73
     0
 90
        2
 40
-0.6
 41
30.0
 62
     5
 63
     7
421
 16777215
 74
     0
 91
        0
 64
     7
 65
   257
 75
     1
175
     1
 42
1.0
 92
        8
 66
   257
 43
1.0
 76
     1
 77
     6
 78
     2
 67
     7
 79
     3
170
     0
171
     0
290
     0
174
     0
 93
       13
 44
0.0
173
     0
291
     0
 45
0.0
1001
ACAD
1000
AcDbSavedByObjectVersion
1070
     0
  0
VISUALSTYLE
  5
3E
102
{ACAD_XDICTIONARY
360
18E
102
}
102
{ACAD_REACTORS
330
29
102
}
330
29
100
AcDbVisualStyle
  2
Shaded
 70
    27
 71
     2
 72
     2
 73
     1
 90
        2
 40
-0.6
 41
30.0
 62
     5
 63
     7
421
 16777215
 74
     0
 91
        4
 64
     7
 65
   257
 75
     1
175
     1
 42
1.0
 92
        8
 66
   257
 43
1.0
 76
     1
 77
     6
 78
     2
 67
     8
425
  7895160
 79
     3
170
     0
171
     0
290
     0
174
     0
 93
        5
 44
0.0
173
     0
291
     0
 45
0.0
1001
ACAD
1000
AcDbSavedByObjectVersion
1070
     0
  0
VISUALSTYLE
  5
3D
102
{ACAD_XDICTIONARY
360
18C
102
}
102
{ACAD_REACTORS
330
29
102
}
330
29
100
AcDbVisualStyle
  2
Shaded with edges
 70
    26
 71
     2
 72
     2
 73
     1
 90
        2
 40
-0.6
 41
30.0
 62
     5
 63
     7
421
 16777215
 74
     1
 91
        2
 64
     7
 65
   257
 75
     2
175
     1
 42
1.0
 92
        8
 66
   257
 43
1.0
 76
     1
 77
     6
 78
     2
 67
     7
 79
     3
170
     0
171
     0
290
     0
174
     0
 93
        5
 44
0.0
173
     0
291
     0
 45
0.0
1001
ACAD
1000
AcDbSavedByObjectVersion
1070
     0
  0
VISUALSTYLE
  5
3A
102
{ACAD_XDICTIONARY
360
186
102
}
102
{ACAD_REACTORS
330
29
102
}
330
29
100
AcDbVisualStyle
  2
Shades of Gray
 70
    23
 71
     2
 72
     2
 73
     3
 90
        0
 40
-0.6
 41
-30.0
 62
     5
 63
     7
421
 16777215
 74
     2
 91
        2
 64
     7
 65
     7
 75
     1
175
     1
 42
40.0
 92
        8
 66
     7
 43
1.0
 76
     1
 77
     6
 78
     2
 67
     7
 79
     3
170
     0
171
     0
290
     0
174
     0
 93
        1
 44
0.0
173
     0
291
     0
 45
0.0
1001
ACAD
1000
AcDbSavedByObjectVersion
1070
     0
  0
VISUALSTYLE
  5
3B
102
{ACAD_XDICTIONARY
360
188
102
}
102
{ACAD_REACTORS
330
29
102
}
330
29
100
AcDbVisualStyle
  2
Sketchy
 70
    24
 71
     1
 72
     2
 73
     2
 90
        0
 40
-0.6
 41
-30.0
 62
     5
 63
     7
421
 16777215
 74
     2
 91
        2
 64
     7
 65
     7
 75
     1
175
     1
 42
40.0
 92
       11
 66
     7
 43
1.0
 76
     1
 77
     6
 78
     2
 67
     7
 79
     6
170
     0
171
     0
290
     0
174
     0
 93
        1
 44
0.0
173
     0
291
     0
 45
0.0
1001
ACAD
1000
AcDbSavedByObjectVersion
1070
     0
  0
VISUALSTYLE
  5
36
102
{ACAD_XDICTIONARY
360
17E
102
}
102
{ACAD_REACTORS
330
29
102
}
330
29
100
AcDbVisualStyle
  2
Thicken
 70
    13
 71
     2
 72
     2
 73
     0
 90
        0
 40
-0.6
 41
-30.0
 62
     5
 63
     7
421
 16777215
 74
     1
 91
        4
 64
     7
 65
   257
 75
     1
175
     1
 42
1.0
 92
       12
 66
     7
 43
1.0
 76
     1
 77
     6
 78
     2
 67
     7
 79
     5
170
     0
171
     0
290
     0
174
     0
 93
        1
 44
0.0
173
     0
291
     1
 45
0.0
1001
ACAD
1000
AcDbSavedByObjectVersion
1070
     0
  0
VISUALSTYLE
  5
30
102
{ACAD_XDICTIONARY
360
172
102
}
102
{ACAD_REACTORS
330
29
102
}
330
29
100
AcDbVisualStyle
  2
Wireframe
 70
     5
 71
     0
 72
     2
 73
     0
 90
        0
 40
-0.6
 41
-30.0
 62
     5
 63
     7
421
 16777215
 74
     1
 91
        4
 64
     7
 65
   257
 75
     1
175
     1
 42
1.0
 92
        0
 66
   257
 43
1.0
 76
     1
 77
     6
 78
     2
 67
     7
 79
     3
170
     0
171
     0
290
     0
174
     0
 93
        1
 44
0.0
173
     0
291
     0
 45
0.0
1001
ACAD
1000
AcDbSavedByObjectVersion
1070
     0
  0
VISUALSTYLE
  5
3C
102
{ACAD_XDICTIONARY
360
18A
102
}
102
{ACAD_REACTORS
330
29
102
}
330
29
100
AcDbVisualStyle
  2
X-Ray
 70
    25
 71
     2
 72
     2
 73
     1
 90
        1
 40
0.5
 41
-30.0
 62
     5
 63
     7
421
 16777215
 74
     1
 91
        0
 64
     7
 65
   257
 75
     1
175
     1
 42
1.0
 92
        8
 66
     7
 43
1.0
 76
     1
 77
     6
 78
     2
 67
     7
 79
     3
170
     0
171
     0
290
     0
174
     0
 93
       13
 44
0.0
173
     0
291
     0
 45
0.0
1001
ACAD
1000
AcDbSavedByObjectVersion
1070
     0
  0
DICTIONARYVAR
  5
D5
102
{ACAD_REACTORS
330
D0
102
}
330
D0
100
DictionaryVariables
280
     0
  1
1:1
  0
DICTIONARYVAR
  5
D2
102
{ACAD_REACTORS
330
D0
102
}
330
D0
100
DictionaryVariables
280
     0
  1
STANDARD
  0
DICTIONARYVAR
  5
D1
102
{ACAD_REACTORS
330
D0
102
}
330
D0
100
DictionaryVariables
280
     0
  1
STANDARD
  0
DICTIONARYVAR
  5
D3
102
{ACAD_REACTORS
330
D0
102
}
330
D0
100
DictionaryVariables
280
     0
  1
Imperial24
  0
DICTIONARYVAR
  5
D4
102
{ACAD_REACTORS
330
D0
102
}
330
D0
100
DictionaryVariables
280
     0
  1
Imperial24
  0
DICTIONARYVAR
  5
12A
102
{ACAD_REACTORS
330
D0
102
}
330
D0
100
DictionaryVariables
280
     0
  1
2
  0
DICTIONARY
  5
19B
330
6B
100
AcDbDictionary
280
     1
281
     1
  3
ACAD_XREC_ROUNDTRIP
360
19C
  0
DICTIONARY
  5
1A
330
19
100
AcDbDictionary
280
     1
281
     1
  3
BUMPTILE
360
1C
  3
DIFFUSETILE
360
1B
  3
OPACITYTILE
360
1F
  3
REFLECTIONTILE
360
1E
  3
REFRACTIONTILE
360
20
  3
SPECULARTILE
360
1D
  0
DICTIONARY
  5
12
330
11
100
AcDbDictionary
280
     1
281
     1
  3
BUMPTILE
360
14
  3
DIFFUSETILE
360
13
  3
OPACITYTILE
360
17
  3
REFLECTIONTILE
360
16
  3
REFRACTIONTILE
360
18
  3
SPECULARTILE
360
15
  0
DICTIONARY
  5
22
330
21
100
AcDbDictionary
280
     1
281
     1
  3
BUMPTILE
360
24
  3
DIFFUSETILE
360
23
  3
OPACITYTILE
360
27
  3
REFLECTIONTILE
360
26
  3
REFRACTIONTILE
360
28
  3
SPECULARTILE
360
25
  0
DICTIONARY
  5
197
330
67
100
AcDbDictionary
280
     1
281
     1
  3
ACAD_XREC_ROUNDTRIP
360
198
  0
DICTIONARY
  5
199
330
69
100
AcDbDictionary
280
     1
281
     1
  3
ACAD_XREC_ROUNDTRIP
360
19A
  0
DICTIONARY
  5
D6
330
65
100
AcDbDictionary
280
     1
281
     1
  3
ACAD_ROUNDTRIP_2008_TABLESTYLE_CELLSTYLEMAP
360
164
  0
DICTIONARY
  5
170
330
2F
100
AcDbDictionary
280
     1
281
     1
  3
ACAD_XREC_ROUNDTRIP
360
171
  0
DICTIONARY
  5
16E
330
2E
100
AcDbDictionary
280
     1
281
     1
  3
ACAD_XREC_ROUNDTRIP
360
16F
  0
DICTIONARY
  5
17C
330
35
100
AcDbDictionary
280
     1
281
     1
  3
ACAD_XREC_ROUNDTRIP
360
17D
  0
DICTIONARY
  5
184
330
39
100
AcDbDictionary
280
     1
281
     1
  3
ACAD_XREC_ROUNDTRIP
360
185
  0
DICTIONARY
  5
176
330
32
100
AcDbDictionary
280
     1
281
     1
  3
ACAD_XREC_ROUNDTRIP
360
177
  0
DICTIONARY
  5
17A
330
34
100
AcDbDictionary
280
     1
281
     1
  3
ACAD_XREC_ROUNDTRIP
360
17B
  0
DICTIONARY
  5
194
330
41
100
AcDbDictionary
280
     1
281
     1
  3
ACAD_XREC_ROUNDTRIP
360
195
  0
DICTIONARY
  5
182
330
38
100
AcDbDictionary
280
     1
281
     1
  3
ACAD_XREC_ROUNDTRIP
360
183
  0
DICTIONARY
  5
166
330
2A
100
AcDbDictionary
280
     1
281
     1
  3
ACAD_XREC_ROUNDTRIP
360
167
  0
DICTIONARY
  5
168
330
2B
100
AcDbDictionary
280
     1
281
     1
  3
ACAD_XREC_ROUNDTRIP
360
169
  0
DICTIONARY
  5
16A
330
2C
100
AcDbDictionary
280
     1
281
     1
  3
ACAD_XREC_ROUNDTRIP
360
16B
  0
DICTIONARY
  5
16C
330
2D
100
AcDbDictionary
280
     1
281
     1
  3
ACAD_XREC_ROUNDTRIP
360
16D
  0
DICTIONARY
  5
174
330
31
100
AcDbDictionary
280
     1
281
     1
  3
ACAD_XREC_ROUNDTRIP
360
175
  0
DICTIONARY
  5
190
330
3F
100
AcDbDictionary
280
     1
281
     1
  3
ACAD_XREC_ROUNDTRIP
360
191
  0
DICTIONARY
  5
180
330
37
100
AcDbDictionary
280
     1
281
     1
  3
ACAD_XREC_ROUNDTRIP
360
181
  0
DICTIONARY
  5
192
330
40
100
AcDbDictionary
280
     1
281
     1
  3
ACAD_XREC_ROUNDTRIP
360
193
  0
DICTIONARY
  5
178
330
33
100
AcDbDictionary
280
     1
281
     1
  3
ACAD_XREC_ROUNDTRIP
360
179
  0
DICTIONARY
  5
18E
330
3E
100
AcDbDictionary
280
     1
281
     1
  3
ACAD_XREC_ROUNDTRIP
360
18F
  0
DICTIONARY
  5
18C
330
3D
100
AcDbDictionary
280
     1
281
     1
  3
ACAD_XREC_ROUNDTRIP
360
18D
  0
DICTIONARY
  5
186
330
3A
100
AcDbDictionary
280
     1
281
     1
  3
ACAD_XREC_ROUNDTRIP
360
187
  0
DICTIONARY
  5
188
330
3B
100
AcDbDictionary
280
     1
281
     1
  3
ACAD_XREC_ROUNDTRIP
360
189
  0
DICTIONARY
  5
17E
330
36
100
AcDbDictionary
280
     1
281
     1
  3
ACAD_XREC_ROUNDTRIP
360
17F
  0
DICTIONARY
  5
172
330
30
100
AcDbDictionary
280
     1
281
     1
  3
ACAD_XREC_ROUNDTRIP
360
173
  0
DICTIONARY
  5
18A
330
3C
100
AcDbDictionary
280
     1
281
     1
  3
ACAD_XREC_ROUNDTRIP
360
18B
  0
XRECORD
  5
19C
102
{ACAD_REACTORS
330
19B
102
}
330
19B
100
AcDbXrecord
280
     1
102
DISPLAYNAME
  1
Imperial24
102
FLAGS
 90
        0
  0
XRECORD
  5
1C
102
{ACAD_REACTORS
330
1A
102
}
330
1A
100
AcDbXrecord
280
     1
270
     1
271
     1
  0
XRECORD
  5
1B
102
{ACAD_REACTORS
330
1A
102
}
330
1A
100
AcDbXrecord
280
     1
270
     1
271
     1
  0
XRECORD
  5
1F
102
{ACAD_REACTORS
330
1A
102
}
330
1A
100
AcDbXrecord
280
     1
270
     1
271
     1
  0
XRECORD
  5
1E
102
{ACAD_REACTORS
330
1A
102
}
330
1A
100
AcDbXrecord
280
     1
270
     1
271
     1
  0
XRECORD
  5
20
102
{ACAD_REACTORS
330
1A
102
}
330
1A
100
AcDbXrecord
280
     1
270
     1
271
     1
  0
XRECORD
  5
1D
102
{ACAD_REACTORS
330
1A
102
}
330
1A
100
AcDbXrecord
280
     1
270
     1
271
     1
  0
XRECORD
  5
14
102
{ACAD_REACTORS
330
12
102
}
330
12
100
AcDbXrecord
280
     1
270
     1
271
     1
  0
XRECORD
  5
13
102
{ACAD_REACTORS
330
12
102
}
330
12
100
AcDbXrecord
280
     1
270
     1
271
     1
  0
XRECORD
  5
17
102
{ACAD_REACTORS
330
12
102
}
330
12
100
AcDbXrecord
280
     1
270
     1
271
     1
  0
XRECORD
  5
16
102
{ACAD_REACTORS
330
12
102
}
330
12
100
AcDbXrecord
280
     1
270
     1
271
     1
  0
XRECORD
  5
18
102
{ACAD_REACTORS
330
12
102
}
330
12
100
AcDbXrecord
280
     1
270
     1
271
     1
  0
XRECORD
  5
15
102
{ACAD_REACTORS
330
12
102
}
330
12
100
AcDbXrecord
280
     1
270
     1
271
     1
  0
XRECORD
  5
24
102
{ACAD_REACTORS
330
22
102
}
330
22
100
AcDbXrecord
280
     1
270
     1
271
     1
  0
XRECORD
  5
23
102
{ACAD_REACTORS
330
22
102
}
330
22
100
AcDbXrecord
280
     1
270
     1
271
     1
  0
XRECORD
  5
27
102
{ACAD_REACTORS
330
22
102
}
330
22
100
AcDbXrecord
280
     1
270
     1
271
     1
  0
XRECORD
  5
26
102
{ACAD_REACTORS
330
22
102
}
330
22
100
AcDbXrecord
280
     1
270
     1
271
     1
  0
XRECORD
  5
28
102
{ACAD_REACTORS
330
22
102
}
330
22
100
AcDbXrecord
280
     1
270
     1
271
     1
  0
XRECORD
  5
25
102
{ACAD_REACTORS
330
22
102
}
330
22
100
AcDbXrecord
280
     1
270
     1
271
     1
  0
XRECORD
  5
198
102
{ACAD_REACTORS
330
197
102
}
330
197
100
AcDbXrecord
280
     1
102
ACAD_ROUNDTRIP_2012_MLEADER_STYLE
298
     1
  0
XRECORD
  5
19A
102
{ACAD_REACTORS
330
199
102
}
330
199
100
AcDbXrecord
280
     1
102
DISPLAYNAME
  1
Imperial24
102
FLAGS
 90
        0
  0
CELLSTYLEMAP
  5
164
102
{ACAD_REACTORS
330
D6
102
}
330
D6
100
AcDbCellStyleMap
 90
        3
300
CELLSTYLE
  1
TABLEFORMAT_BEGIN
 90
        5
170
     1
 91
        0
 92
    32768
 62
   257
 93
        1
300
CONTENTFORMAT
  1
CONTENTFORMAT_BEGIN
 90
        0
 91
        0
 92
      512
 93
        0
300

 40
0.0
140
1.0
 94
        5
 62
     0
340
55
144
0.25
309
CONTENTFORMAT_END
171
     1
301
MARGIN
  1
CELLMARGIN_BEGIN
 40
0.06
 40
0.06
 40
0.06
 40
0.06
 40
0.18
 40
0.18
309
CELLMARGIN_END
 94
        6
 95
        1
302
GRIDFORMAT
  1
GRIDFORMAT_BEGIN
 90
        0
 91
        1
 62
     0
 92
       -2
340
0
 93
        0
 40
0.045
309
GRIDFORMAT_END
 95
        2
302
GRIDFORMAT
  1
GRIDFORMAT_BEGIN
 90
        0
 91
        1
 62
     0
 92
       -2
340
0
 93
        0
 40
0.045
309
GRIDFORMAT_END
 95
        4
302
GRIDFORMAT
  1
GRIDFORMAT_BEGIN
 90
        0
 91
        1
 62
     0
 92
       -2
340
0
 93
        0
 40
0.045
309
GRIDFORMAT_END
 95
        8
302
GRIDFORMAT
  1
GRIDFORMAT_BEGIN
 90
        0
 91
        1
 62
     0
 92
       -2
340
0
 93
        0
 40
0.045
309
GRIDFORMAT_END
 95
       16
302
GRIDFORMAT
  1
GRIDFORMAT_BEGIN
 90
        0
 91
        1
 62
     0
 92
       -2
340
0
 93
        0
 40
0.045
309
GRIDFORMAT_END
 95
       32
302
GRIDFORMAT
  1
GRIDFORMAT_BEGIN
 90
        0
 91
        1
 62
     0
 92
       -2
340
0
 93
        0
 40
0.045
309
GRIDFORMAT_END
309
TABLEFORMAT_END
  1
CELLSTYLE_BEGIN
 90
        1
 91
        1
300
_TITLE
309
CELLSTYLE_END
300
CELLSTYLE
  1
TABLEFORMAT_BEGIN
 90
        5
170
     1
 91
        0
 92
        0
 62
   257
 93
        1
300
CONTENTFORMAT
  1
CONTENTFORMAT_BEGIN
 90
        0
 91
        0
 92
      512
 93
        0
300

 40
0.0
140
1.0
 94
        5
 62
     0
340
55
144
0.18
309
CONTENTFORMAT_END
171
     1
301
MARGIN
  1
CELLMARGIN_BEGIN
 40
0.06
 40
0.06
 40
0.06
 40
0.06
 40
0.18
 40
0.18
309
CELLMARGIN_END
 94
        6
 95
        1
302
GRIDFORMAT
  1
GRIDFORMAT_BEGIN
 90
        0
 91
        1
 62
     0
 92
       -2
340
0
 93
        0
 40
0.045
309
GRIDFORMAT_END
 95
        2
302
GRIDFORMAT
  1
GRIDFORMAT_BEGIN
 90
        0
 91
        1
 62
     0
 92
       -2
340
0
 93
        0
 40
0.045
309
GRIDFORMAT_END
 95
        4
302
GRIDFORMAT
  1
GRIDFORMAT_BEGIN
 90
        0
 91
        1
 62
     0
 92
       -2
340
0
 93
        0
 40
0.045
309
GRIDFORMAT_END
 95
        8
302
GRIDFORMAT
  1
GRIDFORMAT_BEGIN
 90
        0
 91
        1
 62
     0
 92
       -2
340
0
 93
        0
 40
0.045
309
GRIDFORMAT_END
 95
       16
302
GRIDFORMAT
  1
GRIDFORMAT_BEGIN
 90
        0
 91
        1
 62
     0
 92
       -2
340
0
 93
        0
 40
0.045
309
GRIDFORMAT_END
 95
       32
302
GRIDFORMAT
  1
GRIDFORMAT_BEGIN
 90
        0
 91
        1
 62
     0
 92
       -2
340
0
 93
        0
 40
0.045
309
GRIDFORMAT_END
309
TABLEFORMAT_END
  1
CELLSTYLE_BEGIN
 90
        2
 91
        1
300
_HEADER
309
CELLSTYLE_END
300
CELLSTYLE
  1
TABLEFORMAT_BEGIN
 90
        5
170
     1
 91
        0
 92
        0
 62
   257
 93
        1
300
CONTENTFORMAT
  1
CONTENTFORMAT_BEGIN
 90
        0
 91
        0
 92
      512
 93
        0
300

 40
0.0
140
1.0
 94
        2
 62
     0
340
55
144
0.18
309
CONTENTFORMAT_END
171
     1
301
MARGIN
  1
CELLMARGIN_BEGIN
 40
0.06
 40
0.06
 40
0.06
 40
0.06
 40
0.18
 40
0.18
309
CELLMARGIN_END
 94
        6
 95
        1
302
GRIDFORMAT
  1
GRIDFORMAT_BEGIN
 90
        0
 91
        1
 62
     0
 92
       -2
340
0
 93
        0
 40
0.045
309
GRIDFORMAT_END
 95
        2
302
GRIDFORMAT
  1
GRIDFORMAT_BEGIN
 90
        0
 91
        1
 62
     0
 92
       -2
340
0
 93
        0
 40
0.045
309
GRIDFORMAT_END
 95
        4
302
GRIDFORMAT
  1
GRIDFORMAT_BEGIN
 90
        0
 91
        1
 62
     0
 92
       -2
340
0
 93
        0
 40
0.045
309
GRIDFORMAT_END
 95
        8
302
GRIDFORMAT
  1
GRIDFORMAT_BEGIN
 90
        0
 91
        1
 62
     0
 92
       -2
340
0
 93
        0
 40
0.045
309
GRIDFORMAT_END
 95
       16
302
GRIDFORMAT
  1
GRIDFORMAT_BEGIN
 90
        0
 91
        1
 62
     0
 92
       -2
340
0
 93
        0
 40
0.045
309
GRIDFORMAT_END
 95
       32
302
GRIDFORMAT
  1
GRIDFORMAT_BEGIN
 90
        0
 91
        1
 62
     0
 92
       -2
340
0
 93
        0
 40
0.045
309
GRIDFORMAT_END
309
TABLEFORMAT_END
  1
CELLSTYLE_BEGIN
 90
        3
 91
        2
300
_DATA
309
CELLSTYLE_END
  0
XRECORD
  5
171
102
{ACAD_REACTORS
330
170
102
}
330
170
100
AcDbXrecord
280
     1
102
RTVSPost2010Prop28
280
     1
102
RTVSPost2010PropOp28
 70
     1
102
RTVSPost2010Prop29
280
     1
102
RTVSPost2010PropOp29
 70
     1
102
RTVSPost2010Prop30
280
     0
102
RTVSPost2010PropOp30
 70
     1
102
RTVSPost2010Prop31
280
     0
102
RTVSPost2010PropOp31
 70
     1
102
RTVSPost2010Prop32
280
     0
102
RTVSPost2010PropOp32
 70
     1
102
RTVSPost2010Prop33
280
     0
102
RTVSPost2010PropOp33
 70
     1
102
RTVSPost2010Prop34
280
     0
102
RTVSPost2010PropOp34
 70
     1
102
RTVSPost2010Prop35
280
     0
102
RTVSPost2010PropOp35
 70
     1
102
RTVSPost2010Prop36
280
     0
102
RTVSPost2010PropOp36
 70
     1
102
RTVSPost2010Prop37
 90
       50
102
RTVSPost2010PropOp37
 70
     1
102
RTVSPost2010Prop38
140
0.0
102
RTVSPost2010PropOp38
 70
     1
102
RTVSPost2010Prop39
140
1.0
102
RTVSPost2010PropOp39
 70
     1
102
RTVSPost2010Prop40
 90
        0
102
RTVSPost2010PropOp40
 70
     1
102
RTVSPost2010Prop41ColorIndex
 90
       18
102
RTVSPost2010Prop41ColorRGB
 90
        0
102
RTVSPost2010PropOp41
 70
     1
102
RTVSPost2010Prop42
 90
       50
102
RTVSPost2010PropOp42
 70
     1
102
RTVSPost2010Prop43
 90
        3
102
RTVSPost2010PropOp43
 70
     1
102
RTVSPost2010Prop44ColorIndex
 90
        5
102
RTVSPost2010Prop44ColorRGB
 90
      255
102
RTVSPost2010PropOp44
 70
     1
102
RTVSPost2010Prop45
280
     0
102
RTVSPost2010PropOp45
 70
     1
102
RTVSPost2010Prop46
 90
       50
102
RTVSPost2010PropOp46
 70
     1
102
RTVSPost2010Prop47
 90
       50
102
RTVSPost2010PropOp47
 70
     1
102
RTVSPost2010Prop48
 90
       50
102
RTVSPost2010PropOp48
 70
     1
102
RTVSPost2010Prop49
280
     0
102
RTVSPost2010PropOp49
 70
     1
102
RTVSPost2010Prop50
 90
       50
102
RTVSPost2010PropOp50
 70
     1
102
RTVSPost2010Prop51ColorIndex
 90
      256
102
RTVSPost2010Prop51ColorRGB
 90
-16777216
102
RTVSPost2010PropOp51
 70
     0
102
RTVSPost2010Prop52
140
1.0
102
RTVSPost2010PropOp52
 70
     0
102
RTVSPost2010Prop53
 90
        2
102
RTVSPost2010PropOp53
 70
     1
102
RTVSPost2010Prop54
  1
strokes_ogs.tif
102
RTVSPost2010PropOp54
 70
     1
102
RTVSPost2010Prop55
280
     0
102
RTVSPost2010PropOp55
 70
     1
102
RTVSPost2010Prop56
140
1.0
102
RTVSPost2010PropOp56
 70
     1
102
RTVSPost2010Prop57
140
1.0
102
RTVSPost2010PropOp57
 70
     1
102
RTVSPropertyOp0
 70
     1
102
RTVSPropertyOp1
 70
     1
102
RTVSPropertyOp2
 70
     1
102
RTVSPropertyOp3
 70
     1
102
RTVSPropertyOp4
 70
     1
102
RTVSPropertyOp5
 70
     1
102
RTVSPropertyOp6
 70
     1
102
RTVSPropertyOp7
 70
     1
102
RTVSPropertyOp8
 70
     1
102
RTVSPropertyOp9
 70
     1
102
RTVSPropertyOp10
 70
     1
102
RTVSPropertyOp11
 70
     1
102
RTVSPropertyOp12
 70
     1
102
RTVSPropertyOp13
 70
     1
102
RTVSPropertyOp14
 70
     1
102
RTVSPropertyOp15
 70
     1
102
RTVSPropertyOp16
 70
     1
102
RTVSPropertyOp17
 70
     1
102
RTVSPropertyOp18
 70
     1
102
RTVSPropertyOp19
 70
     1
102
RTVSPropertyOp20
 70
     1
102
RTVSPropertyOp21
 70
     1
102
RTVSPropertyOp22
 70
     1
102
RTVSPropertyOp23
 70
     1
102
RTVSPropertyOp24
 70
     1
102
RTVSPropertyOp25
 70
     1
102
RTVSPropertyOp26
 70
     1
102
RTVSPropertyOp27
 70
     1
102
RTVSPropertyOp28
 70
     1
102
RTVSPropertyOp29
 70
     1
102
RTVSPropertyOp30
 70
     1
102
RTVSPropertyOp31
 70
     1
102
RTVSPropertyOp32
 70
     1
102
RTVSPropertyOp33
 70
     1
102
RTVSPropertyOp34
 70
     1
102
RTVSPropertyOp35
 70
     1
102
RTVSPropertyOp36
 70
     1
102
RTVSPropertyOp37
 70
     1
102
RTVSPropertyOp38
 70
     1
102
RTVSPropertyOp39
 70
     1
102
RTVSPropertyOp40
 70
     1
102
RTVSPropertyOp41
 70
     1
102
RTVSPropertyOp42
 70
     1
102
RTVSPropertyOp43
 70
     1
102
RTVSPropertyOp44
 70
     1
102
RTVSPropertyOp45
 70
     1
102
RTVSPropertyOp46
 70
     1
102
RTVSPropertyOp47
 70
     1
102
RTVSPropertyOp48
 70
     1
102
RTVSPropertyOp49
 70
     1
102
RTVSPropertyOp50
 70
     1
102
RTVSPropertyOp51
 70
     0
102
RTVSPropertyOp52
 70
     0
102
RTVSPropertyOp53
 70
     1
102
RTVSPropertyOp54
 70
     1
102
RTVSPropertyOp55
 70
     1
102
RTVSPropertyOp56
 70
     1
102
RTVSPropertyOp57
 70
     1
102
RTVSPropertyOp58
 70
     1
102
RTVSPropertyOp59
 70
     1
102
RTVSPropertyOp60
 70
     1
102
RTVSPropertyOp61
 70
     1
102
RTVSPropertyOp62
 70
     1
  0
XRECORD
  5
16F
102
{ACAD_REACTORS
330
16E
102
}
330
16E
100
AcDbXrecord
280
     1
102
RTVSPost2010Prop28
280
     0
102
RTVSPost2010PropOp28
 70
     1
102
RTVSPost2010Prop29
280
     1
102
RTVSPost2010PropOp29
 70
     1
102
RTVSPost2010Prop30
280
     1
102
RTVSPost2010PropOp30
 70
     1
102
RTVSPost2010Prop31
280
     0
102
RTVSPost2010PropOp31
 70
     1
102
RTVSPost2010Prop32
280
     0
102
RTVSPost2010PropOp32
 70
     1
102
RTVSPost2010Prop33
280
     0
102
RTVSPost2010PropOp33
 70
     1
102
RTVSPost2010Prop34
280
     0
102
RTVSPost2010PropOp34
 70
     1
102
RTVSPost2010Prop35
280
     0
102
RTVSPost2010PropOp35
 70
     1
102
RTVSPost2010Prop36
280
     0
102
RTVSPost2010PropOp36
 70
     1
102
RTVSPost2010Prop37
 90
       50
102
RTVSPost2010PropOp37
 70
     1
102
RTVSPost2010Prop38
140
0.0
102
RTVSPost2010PropOp38
 70
     1
102
RTVSPost2010Prop39
140
1.0
102
RTVSPost2010PropOp39
 70
     1
102
RTVSPost2010Prop40
 90
        0
102
RTVSPost2010PropOp40
 70
     1
102
RTVSPost2010Prop41ColorIndex
 90
       18
102
RTVSPost2010Prop41ColorRGB
 90
        0
102
RTVSPost2010PropOp41
 70
     1
102
RTVSPost2010Prop42
 90
       50
102
RTVSPost2010PropOp42
 70
     1
102
RTVSPost2010Prop43
 90
        3
102
RTVSPost2010PropOp43
 70
     1
102
RTVSPost2010Prop44ColorIndex
 90
        5
102
RTVSPost2010Prop44ColorRGB
 90
      255
102
RTVSPost2010PropOp44
 70
     1
102
RTVSPost2010Prop45
280
     0
102
RTVSPost2010PropOp45
 70
     1
102
RTVSPost2010Prop46
 90
       50
102
RTVSPost2010PropOp46
 70
     1
102
RTVSPost2010Prop47
 90
       50
102
RTVSPost2010PropOp47
 70
     1
102
RTVSPost2010Prop48
 90
       50
102
RTVSPost2010PropOp48
 70
     1
102
RTVSPost2010Prop49
280
     0
102
RTVSPost2010PropOp49
 70
     1
102
RTVSPost2010Prop50
 90
       50
102
RTVSPost2010PropOp50
 70
     1
102
RTVSPost2010Prop51ColorIndex
 90
      256
102
RTVSPost2010Prop51ColorRGB
 90
-16777216
102
RTVSPost2010PropOp51
 70
     0
102
RTVSPost2010Prop52
140
1.0
102
RTVSPost2010PropOp52
 70
     0
102
RTVSPost2010Prop53
 90
        2
102
RTVSPost2010PropOp53
 70
     1
102
RTVSPost2010Prop54
  1
strokes_ogs.tif
102
RTVSPost2010PropOp54
 70
     1
102
RTVSPost2010Prop55
280
     0
102
RTVSPost2010PropOp55
 70
     1
102
RTVSPost2010Prop56
140
1.0
102
RTVSPost2010PropOp56
 70
     1
102
RTVSPost2010Prop57
140
1.0
102
RTVSPost2010PropOp57
 70
     1
102
RTVSPropertyOp0
 70
     1
102
RTVSPropertyOp1
 70
     1
102
RTVSPropertyOp2
 70
     1
102
RTVSPropertyOp3
 70
     1
102
RTVSPropertyOp4
 70
     1
102
RTVSPropertyOp5
 70
     1
102
RTVSPropertyOp6
 70
     1
102
RTVSPropertyOp7
 70
     1
102
RTVSPropertyOp8
 70
     1
102
RTVSPropertyOp9
 70
     1
102
RTVSPropertyOp10
 70
     1
102
RTVSPropertyOp11
 70
     1
102
RTVSPropertyOp12
 70
     1
102
RTVSPropertyOp13
 70
     1
102
RTVSPropertyOp14
 70
     1
102
RTVSPropertyOp15
 70
     1
102
RTVSPropertyOp16
 70
     1
102
RTVSPropertyOp17
 70
     1
102
RTVSPropertyOp18
 70
     1
102
RTVSPropertyOp19
 70
     1
102
RTVSPropertyOp20
 70
     1
102
RTVSPropertyOp21
 70
     1
102
RTVSPropertyOp22
 70
     1
102
RTVSPropertyOp23
 70
     1
102
RTVSPropertyOp24
 70
     1
102
RTVSPropertyOp25
 70
     1
102
RTVSPropertyOp26
 70
     1
102
RTVSPropertyOp27
 70
     1
102
RTVSPropertyOp28
 70
     1
102
RTVSPropertyOp29
 70
     1
102
RTVSPropertyOp30
 70
     1
102
RTVSPropertyOp31
 70
     1
102
RTVSPropertyOp32
 70
     1
102
RTVSPropertyOp33
 70
     1
102
RTVSPropertyOp34
 70
     1
102
RTVSPropertyOp35
 70
     1
102
RTVSPropertyOp36
 70
     1
102
RTVSPropertyOp37
 70
     1
102
RTVSPropertyOp38
 70
     1
102
RTVSPropertyOp39
 70
     1
102
RTVSPropertyOp40
 70
     1
102
RTVSPropertyOp41
 70
     1
102
RTVSPropertyOp42
 70
     1
102
RTVSPropertyOp43
 70
     1
102
RTVSPropertyOp44
 70
     1
102
RTVSPropertyOp45
 70
     1
102
RTVSPropertyOp46
 70
     1
102
RTVSPropertyOp47
 70
     1
102
RTVSPropertyOp48
 70
     1
102
RTVSPropertyOp49
 70
     1
102
RTVSPropertyOp50
 70
     1
102
RTVSPropertyOp51
 70
     0
102
RTVSPropertyOp52
 70
     0
102
RTVSPropertyOp53
 70
     1
102
RTVSPropertyOp54
 70
     1
102
RTVSPropertyOp55
 70
     1
102
RTVSPropertyOp56
 70
     1
102
RTVSPropertyOp57
 70
     1
102
RTVSPropertyOp58
 70
     1
102
RTVSPropertyOp59
 70
     1
102
RTVSPropertyOp60
 70
     1
102
RTVSPropertyOp61
 70
     1
102
RTVSPropertyOp62
 70
     1
  0
XRECORD
  5
17D
102
{ACAD_REACTORS
330
17C
102
}
330
17C
100
AcDbXrecord
280
     1
102
RTVSPost2010Prop28
280
     0
102
RTVSPost2010PropOp28
 70
     1
102
RTVSPost2010Prop29
280
     1
102
RTVSPost2010PropOp29
 70
     1
102
RTVSPost2010Prop30
280
     1
102
RTVSPost2010PropOp30
 70
     1
102
RTVSPost2010Prop31
280
     0
102
RTVSPost2010PropOp31
 70
     1
102
RTVSPost2010Prop32
280
     0
102
RTVSPost2010PropOp32
 70
     1
102
RTVSPost2010Prop33
280
     0
102
RTVSPost2010PropOp33
 70
     1
102
RTVSPost2010Prop34
280
     0
102
RTVSPost2010PropOp34
 70
     1
102
RTVSPost2010Prop35
280
     0
102
RTVSPost2010PropOp35
 70
     1
102
RTVSPost2010Prop36
280
     0
102
RTVSPost2010PropOp36
 70
     1
102
RTVSPost2010Prop37
 90
       50
102
RTVSPost2010PropOp37
 70
     1
102
RTVSPost2010Prop38
140
0.0
102
RTVSPost2010PropOp38
 70
     1
102
RTVSPost2010Prop39
140
1.0
102
RTVSPost2010PropOp39
 70
     1
102
RTVSPost2010Prop40
 90
        0
102
RTVSPost2010PropOp40
 70
     1
102
RTVSPost2010Prop41ColorIndex
 90
       18
102
RTVSPost2010Prop41ColorRGB
 90
        0
102
RTVSPost2010PropOp41
 70
     1
102
RTVSPost2010Prop42
 90
       50
102
RTVSPost2010PropOp42
 70
     1
102
RTVSPost2010Prop43
 90
        3
102
RTVSPost2010PropOp43
 70
     1
102
RTVSPost2010Prop44ColorIndex
 90
        5
102
RTVSPost2010Prop44ColorRGB
 90
      255
102
RTVSPost2010PropOp44
 70
     1
102
RTVSPost2010Prop45
280
     0
102
RTVSPost2010PropOp45
 70
     1
102
RTVSPost2010Prop46
 90
       50
102
RTVSPost2010PropOp46
 70
     1
102
RTVSPost2010Prop47
 90
       50
102
RTVSPost2010PropOp47
 70
     1
102
RTVSPost2010Prop48
 90
       50
102
RTVSPost2010PropOp48
 70
     1
102
RTVSPost2010Prop49
280
     0
102
RTVSPost2010PropOp49
 70
     1
102
RTVSPost2010Prop50
 90
       50
102
RTVSPost2010PropOp50
 70
     1
102
RTVSPost2010Prop51ColorIndex
 90
      256
102
RTVSPost2010Prop51ColorRGB
 90
-16777216
102
RTVSPost2010PropOp51
 70
     0
102
RTVSPost2010Prop52
140
1.0
102
RTVSPost2010PropOp52
 70
     0
102
RTVSPost2010Prop53
 90
        2
102
RTVSPost2010PropOp53
 70
     1
102
RTVSPost2010Prop54
  1
strokes_ogs.tif
102
RTVSPost2010PropOp54
 70
     1
102
RTVSPost2010Prop55
280
     0
102
RTVSPost2010PropOp55
 70
     1
102
RTVSPost2010Prop56
140
1.0
102
RTVSPost2010PropOp56
 70
     1
102
RTVSPost2010Prop57
140
1.0
102
RTVSPost2010PropOp57
 70
     1
102
RTVSPropertyOp0
 70
     1
102
RTVSPropertyOp1
 70
     1
102
RTVSPropertyOp2
 70
     1
102
RTVSPropertyOp3
 70
     1
102
RTVSPropertyOp4
 70
     1
102
RTVSPropertyOp5
 70
     1
102
RTVSPropertyOp6
 70
     1
102
RTVSPropertyOp7
 70
     1
102
RTVSPropertyOp8
 70
     1
102
RTVSPropertyOp9
 70
     1
102
RTVSPropertyOp10
 70
     1
102
RTVSPropertyOp11
 70
     1
102
RTVSPropertyOp12
 70
     1
102
RTVSPropertyOp13
 70
     1
102
RTVSPropertyOp14
 70
     1
102
RTVSPropertyOp15
 70
     1
102
RTVSPropertyOp16
 70
     1
102
RTVSPropertyOp17
 70
     1
102
RTVSPropertyOp18
 70
     1
102
RTVSPropertyOp19
 70
     1
102
RTVSPropertyOp20
 70
     1
102
RTVSPropertyOp21
 70
     1
102
RTVSPropertyOp22
 70
     1
102
RTVSPropertyOp23
 70
     1
102
RTVSPropertyOp24
 70
     1
102
RTVSPropertyOp25
 70
     1
102
RTVSPropertyOp26
 70
     1
102
RTVSPropertyOp27
 70
     1
102
RTVSPropertyOp28
 70
     1
102
RTVSPropertyOp29
 70
     1
102
RTVSPropertyOp30
 70
     1
102
RTVSPropertyOp31
 70
     1
102
RTVSPropertyOp32
 70
     1
102
RTVSPropertyOp33
 70
     1
102
RTVSPropertyOp34
 70
     1
102
RTVSPropertyOp35
 70
     1
102
RTVSPropertyOp36
 70
     1
102
RTVSPropertyOp37
 70
     1
102
RTVSPropertyOp38
 70
     1
102
RTVSPropertyOp39
 70
     1
102
RTVSPropertyOp40
 70
     1
102
RTVSPropertyOp41
 70
     1
102
RTVSPropertyOp42
 70
     1
102
RTVSPropertyOp43
 70
     1
102
RTVSPropertyOp44
 70
     1
102
RTVSPropertyOp45
 70
     1
102
RTVSPropertyOp46
 70
     1
102
RTVSPropertyOp47
 70
     1
102
RTVSPropertyOp48
 70
     1
102
RTVSPropertyOp49
 70
     1
102
RTVSPropertyOp50
 70
     1
102
RTVSPropertyOp51
 70
     0
102
RTVSPropertyOp52
 70
     0
102
RTVSPropertyOp53
 70
     1
102
RTVSPropertyOp54
 70
     1
102
RTVSPropertyOp55
 70
     1
102
RTVSPropertyOp56
 70
     1
102
RTVSPropertyOp57
 70
     1
102
RTVSPropertyOp58
 70
     1
102
RTVSPropertyOp59
 70
     1
102
RTVSPropertyOp60
 70
     1
102
RTVSPropertyOp61
 70
     1
102
RTVSPropertyOp62
 70
     1
  0
XRECORD
  5
185
102
{ACAD_REACTORS
330
184
102
}
330
184
100
AcDbXrecord
280
     1
102
RTVSPost2010Prop28
280
     0
102
RTVSPost2010PropOp28
 70
     1
102
RTVSPost2010Prop29
280
     1
102
RTVSPost2010PropOp29
 70
     1
102
RTVSPost2010Prop30
280
     1
102
RTVSPost2010PropOp30
 70
     1
102
RTVSPost2010Prop31
280
     0
102
RTVSPost2010PropOp31
 70
     1
102
RTVSPost2010Prop32
280
     0
102
RTVSPost2010PropOp32
 70
     1
102
RTVSPost2010Prop33
280
     0
102
RTVSPost2010PropOp33
 70
     1
102
RTVSPost2010Prop34
280
     0
102
RTVSPost2010PropOp34
 70
     1
102
RTVSPost2010Prop35
280
     0
102
RTVSPost2010PropOp35
 70
     1
102
RTVSPost2010Prop36
280
     0
102
RTVSPost2010PropOp36
 70
     1
102
RTVSPost2010Prop37
 90
       50
102
RTVSPost2010PropOp37
 70
     1
102
RTVSPost2010Prop38
140
0.0
102
RTVSPost2010PropOp38
 70
     1
102
RTVSPost2010Prop39
140
1.0
102
RTVSPost2010PropOp39
 70
     1
102
RTVSPost2010Prop40
 90
        0
102
RTVSPost2010PropOp40
 70
     1
102
RTVSPost2010Prop41ColorIndex
 90
       18
102
RTVSPost2010Prop41ColorRGB
 90
        0
102
RTVSPost2010PropOp41
 70
     1
102
RTVSPost2010Prop42
 90
       50
102
RTVSPost2010PropOp42
 70
     1
102
RTVSPost2010Prop43
 90
        3
102
RTVSPost2010PropOp43
 70
     1
102
RTVSPost2010Prop44ColorIndex
 90
        5
102
RTVSPost2010Prop44ColorRGB
 90
      255
102
RTVSPost2010PropOp44
 70
     1
102
RTVSPost2010Prop45
280
     0
102
RTVSPost2010PropOp45
 70
     1
102
RTVSPost2010Prop46
 90
       50
102
RTVSPost2010PropOp46
 70
     1
102
RTVSPost2010Prop47
 90
       50
102
RTVSPost2010PropOp47
 70
     1
102
RTVSPost2010Prop48
 90
       50
102
RTVSPost2010PropOp48
 70
     1
102
RTVSPost2010Prop49
280
     0
102
RTVSPost2010PropOp49
 70
     1
102
RTVSPost2010Prop50
 90
       50
102
RTVSPost2010PropOp50
 70
     1
102
RTVSPost2010Prop51ColorIndex
 90
      256
102
RTVSPost2010Prop51ColorRGB
 90
-16777216
102
RTVSPost2010PropOp51
 70
     0
102
RTVSPost2010Prop52
140
1.0
102
RTVSPost2010PropOp52
 70
     0
102
RTVSPost2010Prop53
 90
        2
102
RTVSPost2010PropOp53
 70
     1
102
RTVSPost2010Prop54
  1
strokes_ogs.tif
102
RTVSPost2010PropOp54
 70
     1
102
RTVSPost2010Prop55
280
     0
102
RTVSPost2010PropOp55
 70
     1
102
RTVSPost2010Prop56
140
1.0
102
RTVSPost2010PropOp56
 70
     1
102
RTVSPost2010Prop57
140
1.0
102
RTVSPost2010PropOp57
 70
     1
102
RTVSPropertyOp0
 70
     1
102
RTVSPropertyOp1
 70
     1
102
RTVSPropertyOp2
 70
     1
102
RTVSPropertyOp3
 70
     1
102
RTVSPropertyOp4
 70
     1
102
RTVSPropertyOp5
 70
     1
102
RTVSPropertyOp6
 70
     1
102
RTVSPropertyOp7
 70
     1
102
RTVSPropertyOp8
 70
     1
102
RTVSPropertyOp9
 70
     1
102
RTVSPropertyOp10
 70
     1
102
RTVSPropertyOp11
 70
     1
102
RTVSPropertyOp12
 70
     1
102
RTVSPropertyOp13
 70
     1
102
RTVSPropertyOp14
 70
     1
102
RTVSPropertyOp15
 70
     1
102
RTVSPropertyOp16
 70
     1
102
RTVSPropertyOp17
 70
     1
102
RTVSPropertyOp18
 70
     1
102
RTVSPropertyOp19
 70
     1
102
RTVSPropertyOp20
 70
     1
102
RTVSPropertyOp21
 70
     1
102
RTVSPropertyOp22
 70
     1
102
RTVSPropertyOp23
 70
     1
102
RTVSPropertyOp24
 70
     1
102
RTVSPropertyOp25
 70
     1
102
RTVSPropertyOp26
 70
     1
102
RTVSPropertyOp27
 70
     1
102
RTVSPropertyOp28
 70
     1
102
RTVSPropertyOp29
 70
     1
102
RTVSPropertyOp30
 70
     1
102
RTVSPropertyOp31
 70
     1
102
RTVSPropertyOp32
 70
     1
102
RTVSPropertyOp33
 70
     1
102
RTVSPropertyOp34
 70
     1
102
RTVSPropertyOp35
 70
     1
102
RTVSPropertyOp36
 70
     1
102
RTVSPropertyOp37
 70
     1
102
RTVSPropertyOp38
 70
     1
102
RTVSPropertyOp39
 70
     1
102
RTVSPropertyOp40
 70
     1
102
RTVSPropertyOp41
 70
     1
102
RTVSPropertyOp42
 70
     1
102
RTVSPropertyOp43
 70
     1
102
RTVSPropertyOp44
 70
     1
102
RTVSPropertyOp45
 70
     1
102
RTVSPropertyOp46
 70
     1
102
RTVSPropertyOp47
 70
     1
102
RTVSPropertyOp48
 70
     1
102
RTVSPropertyOp49
 70
     1
102
RTVSPropertyOp50
 70
     1
102
RTVSPropertyOp51
 70
     0
102
RTVSPropertyOp52
 70
     0
102
RTVSPropertyOp53
 70
     1
102
RTVSPropertyOp54
 70
     1
102
RTVSPropertyOp55
 70
     1
102
RTVSPropertyOp56
 70
     1
102
RTVSPropertyOp57
 70
     1
102
RTVSPropertyOp58
 70
     1
102
RTVSPropertyOp59
 70
     1
102
RTVSPropertyOp60
 70
     1
102
RTVSPropertyOp61
 70
     1
102
RTVSPropertyOp62
 70
     1
  0
XRECORD
  5
177
102
{ACAD_REACTORS
330
176
102
}
330
176
100
AcDbXrecord
280
     1
102
RTVSPost2010Prop28
280
     0
102
RTVSPost2010PropOp28
 70
     1
102
RTVSPost2010Prop29
280
     1
102
RTVSPost2010PropOp29
 70
     1
102
RTVSPost2010Prop30
280
     1
102
RTVSPost2010PropOp30
 70
     1
102
RTVSPost2010Prop31
280
     0
102
RTVSPost2010PropOp31
 70
     1
102
RTVSPost2010Prop32
280
     0
102
RTVSPost2010PropOp32
 70
     1
102
RTVSPost2010Prop33
280
     0
102
RTVSPost2010PropOp33
 70
     1
102
RTVSPost2010Prop34
280
     0
102
RTVSPost2010PropOp34
 70
     1
102
RTVSPost2010Prop35
280
     0
102
RTVSPost2010PropOp35
 70
     1
102
RTVSPost2010Prop36
280
     0
102
RTVSPost2010PropOp36
 70
     1
102
RTVSPost2010Prop37
 90
       50
102
RTVSPost2010PropOp37
 70
     1
102
RTVSPost2010Prop38
140
0.0
102
RTVSPost2010PropOp38
 70
     1
102
RTVSPost2010Prop39
140
1.0
102
RTVSPost2010PropOp39
 70
     1
102
RTVSPost2010Prop40
 90
        0
102
RTVSPost2010PropOp40
 70
     1
102
RTVSPost2010Prop41ColorIndex
 90
       18
102
RTVSPost2010Prop41ColorRGB
 90
        0
102
RTVSPost2010PropOp41
 70
     1
102
RTVSPost2010Prop42
 90
       50
102
RTVSPost2010PropOp42
 70
     1
102
RTVSPost2010Prop43
 90
        3
102
RTVSPost2010PropOp43
 70
     1
102
RTVSPost2010Prop44ColorIndex
 90
        5
102
RTVSPost2010Prop44ColorRGB
 90
      255
102
RTVSPost2010PropOp44
 70
     1
102
RTVSPost2010Prop45
280
     0
102
RTVSPost2010PropOp45
 70
     1
102
RTVSPost2010Prop46
 90
       50
102
RTVSPost2010PropOp46
 70
     1
102
RTVSPost2010Prop47
 90
       50
102
RTVSPost2010PropOp47
 70
     1
102
RTVSPost2010Prop48
 90
       50
102
RTVSPost2010PropOp48
 70
     1
102
RTVSPost2010Prop49
280
     0
102
RTVSPost2010PropOp49
 70
     1
102
RTVSPost2010Prop50
 90
       50
102
RTVSPost2010PropOp50
 70
     1
102
RTVSPost2010Prop51ColorIndex
 90
      256
102
RTVSPost2010Prop51ColorRGB
 90
-16777216
102
RTVSPost2010PropOp51
 70
     0
102
RTVSPost2010Prop52
140
1.0
102
RTVSPost2010PropOp52
 70
     0
102
RTVSPost2010Prop53
 90
        2
102
RTVSPost2010PropOp53
 70
     1
102
RTVSPost2010Prop54
  1
strokes_ogs.tif
102
RTVSPost2010PropOp54
 70
     1
102
RTVSPost2010Prop55
280
     0
102
RTVSPost2010PropOp55
 70
     1
102
RTVSPost2010Prop56
140
1.0
102
RTVSPost2010PropOp56
 70
     1
102
RTVSPost2010Prop57
140
1.0
102
RTVSPost2010PropOp57
 70
     1
102
RTVSPropertyOp0
 70
     1
102
RTVSPropertyOp1
 70
     1
102
RTVSPropertyOp2
 70
     1
102
RTVSPropertyOp3
 70
     1
102
RTVSPropertyOp4
 70
     1
102
RTVSPropertyOp5
 70
     1
102
RTVSPropertyOp6
 70
     1
102
RTVSPropertyOp7
 70
     1
102
RTVSPropertyOp8
 70
     1
102
RTVSPropertyOp9
 70
     1
102
RTVSPropertyOp10
 70
     1
102
RTVSPropertyOp11
 70
     1
102
RTVSPropertyOp12
 70
     1
102
RTVSPropertyOp13
 70
     1
102
RTVSPropertyOp14
 70
     1
102
RTVSPropertyOp15
 70
     1
102
RTVSPropertyOp16
 70
     1
102
RTVSPropertyOp17
 70
     1
102
RTVSPropertyOp18
 70
     1
102
RTVSPropertyOp19
 70
     1
102
RTVSPropertyOp20
 70
     1
102
RTVSPropertyOp21
 70
     1
102
RTVSPropertyOp22
 70
     1
102
RTVSPropertyOp23
 70
     1
102
RTVSPropertyOp24
 70
     1
102
RTVSPropertyOp25
 70
     1
102
RTVSPropertyOp26
 70
     1
102
RTVSPropertyOp27
 70
     1
102
RTVSPropertyOp28
 70
     1
102
RTVSPropertyOp29
 70
     1
102
RTVSPropertyOp30
 70
     1
102
RTVSPropertyOp31
 70
     1
102
RTVSPropertyOp32
 70
     1
102
RTVSPropertyOp33
 70
     1
102
RTVSPropertyOp34
 70
     1
102
RTVSPropertyOp35
 70
     1
102
RTVSPropertyOp36
 70
     1
102
RTVSPropertyOp37
 70
     1
102
RTVSPropertyOp38
 70
     1
102
RTVSPropertyOp39
 70
     1
102
RTVSPropertyOp40
 70
     1
102
RTVSPropertyOp41
 70
     1
102
RTVSPropertyOp42
 70
     1
102
RTVSPropertyOp43
 70
     1
102
RTVSPropertyOp44
 70
     1
102
RTVSPropertyOp45
 70
     1
102
RTVSPropertyOp46
 70
     1
102
RTVSPropertyOp47
 70
     1
102
RTVSPropertyOp48
 70
     1
102
RTVSPropertyOp49
 70
     1
102
RTVSPropertyOp50
 70
     1
102
RTVSPropertyOp51
 70
     0
102
RTVSPropertyOp52
 70
     0
102
RTVSPropertyOp53
 70
     1
102
RTVSPropertyOp54
 70
     1
102
RTVSPropertyOp55
 70
     1
102
RTVSPropertyOp56
 70
     1
102
RTVSPropertyOp57
 70
     1
102
RTVSPropertyOp58
 70
     1
102
RTVSPropertyOp59
 70
     1
102
RTVSPropertyOp60
 70
     1
102
RTVSPropertyOp61
 70
     1
102
RTVSPropertyOp62
 70
     1
  0
XRECORD
  5
17B
102
{ACAD_REACTORS
330
17A
102
}
330
17A
100
AcDbXrecord
280
     1
102
RTVSPost2010Prop28
280
     0
102
RTVSPost2010PropOp28
 70
     1
102
RTVSPost2010Prop29
280
     1
102
RTVSPost2010PropOp29
 70
     1
102
RTVSPost2010Prop30
280
     1
102
RTVSPost2010PropOp30
 70
     1
102
RTVSPost2010Prop31
280
     0
102
RTVSPost2010PropOp31
 70
     1
102
RTVSPost2010Prop32
280
     0
102
RTVSPost2010PropOp32
 70
     1
102
RTVSPost2010Prop33
280
     0
102
RTVSPost2010PropOp33
 70
     1
102
RTVSPost2010Prop34
280
     0
102
RTVSPost2010PropOp34
 70
     1
102
RTVSPost2010Prop35
280
     0
102
RTVSPost2010PropOp35
 70
     1
102
RTVSPost2010Prop36
280
     0
102
RTVSPost2010PropOp36
 70
     1
102
RTVSPost2010Prop37
 90
       50
102
RTVSPost2010PropOp37
 70
     1
102
RTVSPost2010Prop38
140
0.0
102
RTVSPost2010PropOp38
 70
     1
102
RTVSPost2010Prop39
140
1.0
102
RTVSPost2010PropOp39
 70
     1
102
RTVSPost2010Prop40
 90
        0
102
RTVSPost2010PropOp40
 70
     1
102
RTVSPost2010Prop41ColorIndex
 90
       18
102
RTVSPost2010Prop41ColorRGB
 90
        0
102
RTVSPost2010PropOp41
 70
     1
102
RTVSPost2010Prop42
 90
       50
102
RTVSPost2010PropOp42
 70
     1
102
RTVSPost2010Prop43
 90
        3
102
RTVSPost2010PropOp43
 70
     1
102
RTVSPost2010Prop44ColorIndex
 90
        5
102
RTVSPost2010Prop44ColorRGB
 90
      255
102
RTVSPost2010PropOp44
 70
     1
102
RTVSPost2010Prop45
280
     0
102
RTVSPost2010PropOp45
 70
     1
102
RTVSPost2010Prop46
 90
       50
102
RTVSPost2010PropOp46
 70
     1
102
RTVSPost2010Prop47
 90
       50
102
RTVSPost2010PropOp47
 70
     1
102
RTVSPost2010Prop48
 90
       50
102
RTVSPost2010PropOp48
 70
     1
102
RTVSPost2010Prop49
280
     0
102
RTVSPost2010PropOp49
 70
     1
102
RTVSPost2010Prop50
 90
       50
102
RTVSPost2010PropOp50
 70
     1
102
RTVSPost2010Prop51ColorIndex
 90
      256
102
RTVSPost2010Prop51ColorRGB
 90
-16777216
102
RTVSPost2010PropOp51
 70
     0
102
RTVSPost2010Prop52
140
1.0
102
RTVSPost2010PropOp52
 70
     0
102
RTVSPost2010Prop53
 90
        2
102
RTVSPost2010PropOp53
 70
     1
102
RTVSPost2010Prop54
  1
strokes_ogs.tif
102
RTVSPost2010PropOp54
 70
     1
102
RTVSPost2010Prop55
280
     0
102
RTVSPost2010PropOp55
 70
     1
102
RTVSPost2010Prop56
140
1.0
102
RTVSPost2010PropOp56
 70
     1
102
RTVSPost2010Prop57
140
1.0
102
RTVSPost2010PropOp57
 70
     1
102
RTVSPropertyOp0
 70
     1
102
RTVSPropertyOp1
 70
     1
102
RTVSPropertyOp2
 70
     1
102
RTVSPropertyOp3
 70
     1
102
RTVSPropertyOp4
 70
     1
102
RTVSPropertyOp5
 70
     1
102
RTVSPropertyOp6
 70
     1
102
RTVSPropertyOp7
 70
     1
102
RTVSPropertyOp8
 70
     1
102
RTVSPropertyOp9
 70
     1
102
RTVSPropertyOp10
 70
     1
102
RTVSPropertyOp11
 70
     1
102
RTVSPropertyOp12
 70
     1
102
RTVSPropertyOp13
 70
     1
102
RTVSPropertyOp14
 70
     1
102
RTVSPropertyOp15
 70
     1
102
RTVSPropertyOp16
 70
     1
102
RTVSPropertyOp17
 70
     1
102
RTVSPropertyOp18
 70
     1
102
RTVSPropertyOp19
 70
     1
102
RTVSPropertyOp20
 70
     1
102
RTVSPropertyOp21
 70
     1
102
RTVSPropertyOp22
 70
     1
102
RTVSPropertyOp23
 70
     1
102
RTVSPropertyOp24
 70
     1
102
RTVSPropertyOp25
 70
     1
102
RTVSPropertyOp26
 70
     1
102
RTVSPropertyOp27
 70
     1
102
RTVSPropertyOp28
 70
     1
102
RTVSPropertyOp29
 70
     1
102
RTVSPropertyOp30
 70
     1
102
RTVSPropertyOp31
 70
     1
102
RTVSPropertyOp32
 70
     1
102
RTVSPropertyOp33
 70
     1
102
RTVSPropertyOp34
 70
     1
102
RTVSPropertyOp35
 70
     1
102
RTVSPropertyOp36
 70
     1
102
RTVSPropertyOp37
 70
     1
102
RTVSPropertyOp38
 70
     1
102
RTVSPropertyOp39
 70
     1
102
RTVSPropertyOp40
 70
     1
102
RTVSPropertyOp41
 70
     1
102
RTVSPropertyOp42
 70
     1
102
RTVSPropertyOp43
 70
     1
102
RTVSPropertyOp44
 70
     1
102
RTVSPropertyOp45
 70
     1
102
RTVSPropertyOp46
 70
     1
102
RTVSPropertyOp47
 70
     1
102
RTVSPropertyOp48
 70
     1
102
RTVSPropertyOp49
 70
     1
102
RTVSPropertyOp50
 70
     1
102
RTVSPropertyOp51
 70
     0
102
RTVSPropertyOp52
 70
     0
102
RTVSPropertyOp53
 70
     1
102
RTVSPropertyOp54
 70
     1
102
RTVSPropertyOp55
 70
     1
102
RTVSPropertyOp56
 70
     1
102
RTVSPropertyOp57
 70
     1
102
RTVSPropertyOp58
 70
     1
102
RTVSPropertyOp59
 70
     1
102
RTVSPropertyOp60
 70
     1
102
RTVSPropertyOp61
 70
     1
102
RTVSPropertyOp62
 70
     1
  0
XRECORD
  5
195
102
{ACAD_REACTORS
330
194
102
}
330
194
100
AcDbXrecord
280
     1
102
RTVSPost2010Prop28
280
     0
102
RTVSPost2010PropOp28
 70
     0
102
RTVSPost2010Prop29
280
     1
102
RTVSPost2010PropOp29
 70
     0
102
RTVSPost2010Prop30
280
     1
102
RTVSPost2010PropOp30
 70
     0
102
RTVSPost2010Prop31
280
     0
102
RTVSPost2010PropOp31
 70
     0
102
RTVSPost2010Prop32
280
     0
102
RTVSPost2010PropOp32
 70
     0
102
RTVSPost2010Prop33
280
     0
102
RTVSPost2010PropOp33
 70
     0
102
RTVSPost2010Prop34
280
     0
102
RTVSPost2010PropOp34
 70
     0
102
RTVSPost2010Prop35
280
     0
102
RTVSPost2010PropOp35
 70
     0
102
RTVSPost2010Prop36
280
     0
102
RTVSPost2010PropOp36
 70
     0
102
RTVSPost2010Prop37
 90
       50
102
RTVSPost2010PropOp37
 70
     0
102
RTVSPost2010Prop38
140
0.0
102
RTVSPost2010PropOp38
 70
     0
102
RTVSPost2010Prop39
140
1.0
102
RTVSPost2010PropOp39
 70
     0
102
RTVSPost2010Prop40
 90
        0
102
RTVSPost2010PropOp40
 70
     0
102
RTVSPost2010Prop41ColorIndex
 90
       18
102
RTVSPost2010Prop41ColorRGB
 90
        0
102
RTVSPost2010PropOp41
 70
     0
102
RTVSPost2010Prop42
 90
       50
102
RTVSPost2010PropOp42
 70
     0
102
RTVSPost2010Prop43
 90
        3
102
RTVSPost2010PropOp43
 70
     0
102
RTVSPost2010Prop44ColorIndex
 90
        5
102
RTVSPost2010Prop44ColorRGB
 90
      255
102
RTVSPost2010PropOp44
 70
     0
102
RTVSPost2010Prop45
280
     0
102
RTVSPost2010PropOp45
 70
     0
102
RTVSPost2010Prop46
 90
       50
102
RTVSPost2010PropOp46
 70
     0
102
RTVSPost2010Prop47
 90
       50
102
RTVSPost2010PropOp47
 70
     0
102
RTVSPost2010Prop48
 90
       50
102
RTVSPost2010PropOp48
 70
     0
102
RTVSPost2010Prop49
280
     0
102
RTVSPost2010PropOp49
 70
     0
102
RTVSPost2010Prop50
 90
       50
102
RTVSPost2010PropOp50
 70
     0
102
RTVSPost2010Prop51ColorIndex
 90
      256
102
RTVSPost2010Prop51ColorRGB
 90
-16777216
102
RTVSPost2010PropOp51
 70
     0
102
RTVSPost2010Prop52
140
1.0
102
RTVSPost2010PropOp52
 70
     0
102
RTVSPost2010Prop53
 90
        2
102
RTVSPost2010PropOp53
 70
     0
102
RTVSPost2010Prop54
  1
strokes_ogs.tif
102
RTVSPost2010PropOp54
 70
     0
102
RTVSPost2010Prop55
280
     0
102
RTVSPost2010PropOp55
 70
     0
102
RTVSPost2010Prop56
140
1.0
102
RTVSPost2010PropOp56
 70
     0
102
RTVSPost2010Prop57
140
1.0
102
RTVSPost2010PropOp57
 70
     0
102
RTVSPropertyOp0
 70
     0
102
RTVSPropertyOp1
 70
     0
102
RTVSPropertyOp2
 70
     0
102
RTVSPropertyOp3
 70
     0
102
RTVSPropertyOp4
 70
     0
102
RTVSPropertyOp5
 70
     0
102
RTVSPropertyOp6
 70
     0
102
RTVSPropertyOp7
 70
     0
102
RTVSPropertyOp8
 70
     0
102
RTVSPropertyOp9
 70
     0
102
RTVSPropertyOp10
 70
     0
102
RTVSPropertyOp11
 70
     0
102
RTVSPropertyOp12
 70
     0
102
RTVSPropertyOp13
 70
     0
102
RTVSPropertyOp14
 70
     2
102
RTVSPropertyOp15
 70
     0
102
RTVSPropertyOp16
 70
     0
102
RTVSPropertyOp17
 70
     0
102
RTVSPropertyOp18
 70
     0
102
RTVSPropertyOp19
 70
     0
102
RTVSPropertyOp20
 70
     0
102
RTVSPropertyOp21
 70
     0
102
RTVSPropertyOp22
 70
     0
102
RTVSPropertyOp23
 70
     0
102
RTVSPropertyOp24
 70
     0
102
RTVSPropertyOp25
 70
     0
102
RTVSPropertyOp26
 70
     0
102
RTVSPropertyOp27
 70
     0
102
RTVSPropertyOp28
 70
     0
102
RTVSPropertyOp29
 70
     0
102
RTVSPropertyOp30
 70
     0
102
RTVSPropertyOp31
 70
     0
102
RTVSPropertyOp32
 70
     0
102
RTVSPropertyOp33
 70
     0
102
RTVSPropertyOp34
 70
     0
102
RTVSPropertyOp35
 70
     0
102
RTVSPropertyOp36
 70
     0
102
RTVSPropertyOp37
 70
     0
102
RTVSPropertyOp38
 70
     0
102
RTVSPropertyOp39
 70
     0
102
RTVSPropertyOp40
 70
     0
102
RTVSPropertyOp41
 70
     0
102
RTVSPropertyOp42
 70
     0
102
RTVSPropertyOp43
 70
     0
102
RTVSPropertyOp44
 70
     0
102
RTVSPropertyOp45
 70
     0
102
RTVSPropertyOp46
 70
     0
102
RTVSPropertyOp47
 70
     0
102
RTVSPropertyOp48
 70
     0
102
RTVSPropertyOp49
 70
     0
102
RTVSPropertyOp50
 70
     0
102
RTVSPropertyOp51
 70
     0
102
RTVSPropertyOp52
 70
     0
102
RTVSPropertyOp53
 70
     0
102
RTVSPropertyOp54
 70
     0
102
RTVSPropertyOp55
 70
     0
102
RTVSPropertyOp56
 70
     0
102
RTVSPropertyOp57
 70
     0
102
RTVSPropertyOp58
 70
     1
102
RTVSPropertyOp59
 70
     1
102
RTVSPropertyOp60
 70
     1
102
RTVSPropertyOp61
 70
     1
102
RTVSPropertyOp62
 70
     1
  0
XRECORD
  5
183
102
{ACAD_REACTORS
330
182
102
}
330
182
100
AcDbXrecord
280
     1
102
RTVSPost2010Prop28
280
     0
102
RTVSPost2010PropOp28
 70
     1
102
RTVSPost2010Prop29
280
     1
102
RTVSPost2010PropOp29
 70
     1
102
RTVSPost2010Prop30
280
     1
102
RTVSPost2010PropOp30
 70
     1
102
RTVSPost2010Prop31
280
     0
102
RTVSPost2010PropOp31
 70
     1
102
RTVSPost2010Prop32
280
     0
102
RTVSPost2010PropOp32
 70
     1
102
RTVSPost2010Prop33
280
     0
102
RTVSPost2010PropOp33
 70
     1
102
RTVSPost2010Prop34
280
     0
102
RTVSPost2010PropOp34
 70
     1
102
RTVSPost2010Prop35
280
     0
102
RTVSPost2010PropOp35
 70
     1
102
RTVSPost2010Prop36
280
     0
102
RTVSPost2010PropOp36
 70
     1
102
RTVSPost2010Prop37
 90
       50
102
RTVSPost2010PropOp37
 70
     1
102
RTVSPost2010Prop38
140
0.0
102
RTVSPost2010PropOp38
 70
     1
102
RTVSPost2010Prop39
140
1.0
102
RTVSPost2010PropOp39
 70
     1
102
RTVSPost2010Prop40
 90
        0
102
RTVSPost2010PropOp40
 70
     1
102
RTVSPost2010Prop41ColorIndex
 90
       18
102
RTVSPost2010Prop41ColorRGB
 90
        0
102
RTVSPost2010PropOp41
 70
     1
102
RTVSPost2010Prop42
 90
       50
102
RTVSPost2010PropOp42
 70
     1
102
RTVSPost2010Prop43
 90
        3
102
RTVSPost2010PropOp43
 70
     1
102
RTVSPost2010Prop44ColorIndex
 90
        5
102
RTVSPost2010Prop44ColorRGB
 90
      255
102
RTVSPost2010PropOp44
 70
     1
102
RTVSPost2010Prop45
280
     0
102
RTVSPost2010PropOp45
 70
     1
102
RTVSPost2010Prop46
 90
       50
102
RTVSPost2010PropOp46
 70
     1
102
RTVSPost2010Prop47
 90
       50
102
RTVSPost2010PropOp47
 70
     1
102
RTVSPost2010Prop48
 90
       50
102
RTVSPost2010PropOp48
 70
     1
102
RTVSPost2010Prop49
280
     0
102
RTVSPost2010PropOp49
 70
     1
102
RTVSPost2010Prop50
 90
       50
102
RTVSPost2010PropOp50
 70
     1
102
RTVSPost2010Prop51ColorIndex
 90
      256
102
RTVSPost2010Prop51ColorRGB
 90
-16777216
102
RTVSPost2010PropOp51
 70
     0
102
RTVSPost2010Prop52
140
1.0
102
RTVSPost2010PropOp52
 70
     0
102
RTVSPost2010Prop53
 90
        2
102
RTVSPost2010PropOp53
 70
     1
102
RTVSPost2010Prop54
  1
strokes_ogs.tif
102
RTVSPost2010PropOp54
 70
     1
102
RTVSPost2010Prop55
280
     0
102
RTVSPost2010PropOp55
 70
     1
102
RTVSPost2010Prop56
140
1.0
102
RTVSPost2010PropOp56
 70
     1
102
RTVSPost2010Prop57
140
1.0
102
RTVSPost2010PropOp57
 70
     1
102
RTVSPropertyOp0
 70
     1
102
RTVSPropertyOp1
 70
     1
102
RTVSPropertyOp2
 70
     1
102
RTVSPropertyOp3
 70
     1
102
RTVSPropertyOp4
 70
     1
102
RTVSPropertyOp5
 70
     1
102
RTVSPropertyOp6
 70
     1
102
RTVSPropertyOp7
 70
     1
102
RTVSPropertyOp8
 70
     1
102
RTVSPropertyOp9
 70
     1
102
RTVSPropertyOp10
 70
     1
102
RTVSPropertyOp11
 70
     1
102
RTVSPropertyOp12
 70
     1
102
RTVSPropertyOp13
 70
     1
102
RTVSPropertyOp14
 70
     1
102
RTVSPropertyOp15
 70
     1
102
RTVSPropertyOp16
 70
     1
102
RTVSPropertyOp17
 70
     1
102
RTVSPropertyOp18
 70
     1
102
RTVSPropertyOp19
 70
     1
102
RTVSPropertyOp20
 70
     1
102
RTVSPropertyOp21
 70
     1
102
RTVSPropertyOp22
 70
     1
102
RTVSPropertyOp23
 70
     1
102
RTVSPropertyOp24
 70
     1
102
RTVSPropertyOp25
 70
     1
102
RTVSPropertyOp26
 70
     1
102
RTVSPropertyOp27
 70
     1
102
RTVSPropertyOp28
 70
     1
102
RTVSPropertyOp29
 70
     1
102
RTVSPropertyOp30
 70
     1
102
RTVSPropertyOp31
 70
     1
102
RTVSPropertyOp32
 70
     1
102
RTVSPropertyOp33
 70
     1
102
RTVSPropertyOp34
 70
     1
102
RTVSPropertyOp35
 70
     1
102
RTVSPropertyOp36
 70
     1
102
RTVSPropertyOp37
 70
     1
102
RTVSPropertyOp38
 70
     1
102
RTVSPropertyOp39
 70
     1
102
RTVSPropertyOp40
 70
     1
102
RTVSPropertyOp41
 70
     1
102
RTVSPropertyOp42
 70
     1
102
RTVSPropertyOp43
 70
     1
102
RTVSPropertyOp44
 70
     1
102
RTVSPropertyOp45
 70
     1
102
RTVSPropertyOp46
 70
     1
102
RTVSPropertyOp47
 70
     1
102
RTVSPropertyOp48
 70
     1
102
RTVSPropertyOp49
 70
     1
102
RTVSPropertyOp50
 70
     1
102
RTVSPropertyOp51
 70
     0
102
RTVSPropertyOp52
 70
     0
102
RTVSPropertyOp53
 70
     1
102
RTVSPropertyOp54
 70
     1
102
RTVSPropertyOp55
 70
     1
102
RTVSPropertyOp56
 70
     1
102
RTVSPropertyOp57
 70
     1
102
RTVSPropertyOp58
 70
     1
102
RTVSPropertyOp59
 70
     1
102
RTVSPropertyOp60
 70
     1
102
RTVSPropertyOp61
 70
     1
102
RTVSPropertyOp62
 70
     1
  0
XRECORD
  5
167
102
{ACAD_REACTORS
330
166
102
}
330
166
100
AcDbXrecord
280
     1
102
RTVSPost2010Prop28
280
     0
102
RTVSPost2010PropOp28
 70
     1
102
RTVSPost2010Prop29
280
     1
102
RTVSPost2010PropOp29
 70
     1
102
RTVSPost2010Prop30
280
     1
102
RTVSPost2010PropOp30
 70
     1
102
RTVSPost2010Prop31
280
     0
102
RTVSPost2010PropOp31
 70
     1
102
RTVSPost2010Prop32
280
     0
102
RTVSPost2010PropOp32
 70
     1
102
RTVSPost2010Prop33
280
     0
102
RTVSPost2010PropOp33
 70
     1
102
RTVSPost2010Prop34
280
     0
102
RTVSPost2010PropOp34
 70
     1
102
RTVSPost2010Prop35
280
     0
102
RTVSPost2010PropOp35
 70
     1
102
RTVSPost2010Prop36
280
     0
102
RTVSPost2010PropOp36
 70
     1
102
RTVSPost2010Prop37
 90
       50
102
RTVSPost2010PropOp37
 70
     1
102
RTVSPost2010Prop38
140
0.0
102
RTVSPost2010PropOp38
 70
     1
102
RTVSPost2010Prop39
140
1.0
102
RTVSPost2010PropOp39
 70
     1
102
RTVSPost2010Prop40
 90
        0
102
RTVSPost2010PropOp40
 70
     1
102
RTVSPost2010Prop41ColorIndex
 90
       18
102
RTVSPost2010Prop41ColorRGB
 90
        0
102
RTVSPost2010PropOp41
 70
     1
102
RTVSPost2010Prop42
 90
       50
102
RTVSPost2010PropOp42
 70
     1
102
RTVSPost2010Prop43
 90
        3
102
RTVSPost2010PropOp43
 70
     1
102
RTVSPost2010Prop44ColorIndex
 90
        5
102
RTVSPost2010Prop44ColorRGB
 90
      255
102
RTVSPost2010PropOp44
 70
     1
102
RTVSPost2010Prop45
280
     0
102
RTVSPost2010PropOp45
 70
     1
102
RTVSPost2010Prop46
 90
       50
102
RTVSPost2010PropOp46
 70
     1
102
RTVSPost2010Prop47
 90
       50
102
RTVSPost2010PropOp47
 70
     1
102
RTVSPost2010Prop48
 90
       50
102
RTVSPost2010PropOp48
 70
     1
102
RTVSPost2010Prop49
280
     0
102
RTVSPost2010PropOp49
 70
     1
102
RTVSPost2010Prop50
 90
       50
102
RTVSPost2010PropOp50
 70
     1
102
RTVSPost2010Prop51ColorIndex
 90
      256
102
RTVSPost2010Prop51ColorRGB
 90
-16777216
102
RTVSPost2010PropOp51
 70
     0
102
RTVSPost2010Prop52
140
1.0
102
RTVSPost2010PropOp52
 70
     0
102
RTVSPost2010Prop53
 90
        2
102
RTVSPost2010PropOp53
 70
     1
102
RTVSPost2010Prop54
  1
strokes_ogs.tif
102
RTVSPost2010PropOp54
 70
     1
102
RTVSPost2010Prop55
280
     0
102
RTVSPost2010PropOp55
 70
     1
102
RTVSPost2010Prop56
140
1.0
102
RTVSPost2010PropOp56
 70
     1
102
RTVSPost2010Prop57
140
1.0
102
RTVSPost2010PropOp57
 70
     1
102
RTVSPropertyOp0
 70
     1
102
RTVSPropertyOp1
 70
     1
102
RTVSPropertyOp2
 70
     1
102
RTVSPropertyOp3
 70
     1
102
RTVSPropertyOp4
 70
     1
102
RTVSPropertyOp5
 70
     1
102
RTVSPropertyOp6
 70
     1
102
RTVSPropertyOp7
 70
     1
102
RTVSPropertyOp8
 70
     1
102
RTVSPropertyOp9
 70
     1
102
RTVSPropertyOp10
 70
     1
102
RTVSPropertyOp11
 70
     1
102
RTVSPropertyOp12
 70
     1
102
RTVSPropertyOp13
 70
     1
102
RTVSPropertyOp14
 70
     1
102
RTVSPropertyOp15
 70
     1
102
RTVSPropertyOp16
 70
     1
102
RTVSPropertyOp17
 70
     1
102
RTVSPropertyOp18
 70
     1
102
RTVSPropertyOp19
 70
     1
102
RTVSPropertyOp20
 70
     1
102
RTVSPropertyOp21
 70
     1
102
RTVSPropertyOp22
 70
     1
102
RTVSPropertyOp23
 70
     1
102
RTVSPropertyOp24
 70
     1
102
RTVSPropertyOp25
 70
     1
102
RTVSPropertyOp26
 70
     1
102
RTVSPropertyOp27
 70
     1
102
RTVSPropertyOp28
 70
     1
102
RTVSPropertyOp29
 70
     1
102
RTVSPropertyOp30
 70
     1
102
RTVSPropertyOp31
 70
     1
102
RTVSPropertyOp32
 70
     1
102
RTVSPropertyOp33
 70
     1
102
RTVSPropertyOp34
 70
     1
102
RTVSPropertyOp35
 70
     1
102
RTVSPropertyOp36
 70
     1
102
RTVSPropertyOp37
 70
     1
102
RTVSPropertyOp38
 70
     1
102
RTVSPropertyOp39
 70
     1
102
RTVSPropertyOp40
 70
     1
102
RTVSPropertyOp41
 70
     1
102
RTVSPropertyOp42
 70
     1
102
RTVSPropertyOp43
 70
     1
102
RTVSPropertyOp44
 70
     1
102
RTVSPropertyOp45
 70
     1
102
RTVSPropertyOp46
 70
     1
102
RTVSPropertyOp47
 70
     1
102
RTVSPropertyOp48
 70
     1
102
RTVSPropertyOp49
 70
     1
102
RTVSPropertyOp50
 70
     1
102
RTVSPropertyOp51
 70
     0
102
RTVSPropertyOp52
 70
     0
102
RTVSPropertyOp53
 70
     1
102
RTVSPropertyOp54
 70
     1
102
RTVSPropertyOp55
 70
     1
102
RTVSPropertyOp56
 70
     1
102
RTVSPropertyOp57
 70
     1
102
RTVSPropertyOp58
 70
     1
102
RTVSPropertyOp59
 70
     1
102
RTVSPropertyOp60
 70
     1
102
RTVSPropertyOp61
 70
     1
102
RTVSPropertyOp62
 70
     1
  0
XRECORD
  5
169
102
{ACAD_REACTORS
330
168
102
}
330
168
100
AcDbXrecord
280
     1
102
RTVSPost2010Prop28
280
     0
102
RTVSPost2010PropOp28
 70
     1
102
RTVSPost2010Prop29
280
     1
102
RTVSPost2010PropOp29
 70
     1
102
RTVSPost2010Prop30
280
     1
102
RTVSPost2010PropOp30
 70
     1
102
RTVSPost2010Prop31
280
     0
102
RTVSPost2010PropOp31
 70
     1
102
RTVSPost2010Prop32
280
     0
102
RTVSPost2010PropOp32
 70
     1
102
RTVSPost2010Prop33
280
     0
102
RTVSPost2010PropOp33
 70
     1
102
RTVSPost2010Prop34
280
     0
102
RTVSPost2010PropOp34
 70
     1
102
RTVSPost2010Prop35
280
     0
102
RTVSPost2010PropOp35
 70
     1
102
RTVSPost2010Prop36
280
     0
102
RTVSPost2010PropOp36
 70
     1
102
RTVSPost2010Prop37
 90
       50
102
RTVSPost2010PropOp37
 70
     1
102
RTVSPost2010Prop38
140
0.0
102
RTVSPost2010PropOp38
 70
     1
102
RTVSPost2010Prop39
140
1.0
102
RTVSPost2010PropOp39
 70
     1
102
RTVSPost2010Prop40
 90
        0
102
RTVSPost2010PropOp40
 70
     1
102
RTVSPost2010Prop41ColorIndex
 90
       18
102
RTVSPost2010Prop41ColorRGB
 90
        0
102
RTVSPost2010PropOp41
 70
     1
102
RTVSPost2010Prop42
 90
       50
102
RTVSPost2010PropOp42
 70
     1
102
RTVSPost2010Prop43
 90
        3
102
RTVSPost2010PropOp43
 70
     1
102
RTVSPost2010Prop44ColorIndex
 90
        5
102
RTVSPost2010Prop44ColorRGB
 90
      255
102
RTVSPost2010PropOp44
 70
     1
102
RTVSPost2010Prop45
280
     0
102
RTVSPost2010PropOp45
 70
     1
102
RTVSPost2010Prop46
 90
       50
102
RTVSPost2010PropOp46
 70
     1
102
RTVSPost2010Prop47
 90
       50
102
RTVSPost2010PropOp47
 70
     1
102
RTVSPost2010Prop48
 90
       50
102
RTVSPost2010PropOp48
 70
     1
102
RTVSPost2010Prop49
280
     0
102
RTVSPost2010PropOp49
 70
     1
102
RTVSPost2010Prop50
 90
       50
102
RTVSPost2010PropOp50
 70
     1
102
RTVSPost2010Prop51ColorIndex
 90
      256
102
RTVSPost2010Prop51ColorRGB
 90
-16777216
102
RTVSPost2010PropOp51
 70
     0
102
RTVSPost2010Prop52
140
1.0
102
RTVSPost2010PropOp52
 70
     0
102
RTVSPost2010Prop53
 90
        2
102
RTVSPost2010PropOp53
 70
     1
102
RTVSPost2010Prop54
  1
strokes_ogs.tif
102
RTVSPost2010PropOp54
 70
     1
102
RTVSPost2010Prop55
280
     0
102
RTVSPost2010PropOp55
 70
     1
102
RTVSPost2010Prop56
140
1.0
102
RTVSPost2010PropOp56
 70
     1
102
RTVSPost2010Prop57
140
1.0
102
RTVSPost2010PropOp57
 70
     1
102
RTVSPropertyOp0
 70
     1
102
RTVSPropertyOp1
 70
     1
102
RTVSPropertyOp2
 70
     1
102
RTVSPropertyOp3
 70
     1
102
RTVSPropertyOp4
 70
     1
102
RTVSPropertyOp5
 70
     1
102
RTVSPropertyOp6
 70
     1
102
RTVSPropertyOp7
 70
     1
102
RTVSPropertyOp8
 70
     1
102
RTVSPropertyOp9
 70
     1
102
RTVSPropertyOp10
 70
     1
102
RTVSPropertyOp11
 70
     1
102
RTVSPropertyOp12
 70
     1
102
RTVSPropertyOp13
 70
     1
102
RTVSPropertyOp14
 70
     1
102
RTVSPropertyOp15
 70
     1
102
RTVSPropertyOp16
 70
     1
102
RTVSPropertyOp17
 70
     1
102
RTVSPropertyOp18
 70
     1
102
RTVSPropertyOp19
 70
     1
102
RTVSPropertyOp20
 70
     1
102
RTVSPropertyOp21
 70
     1
102
RTVSPropertyOp22
 70
     1
102
RTVSPropertyOp23
 70
     1
102
RTVSPropertyOp24
 70
     1
102
RTVSPropertyOp25
 70
     1
102
RTVSPropertyOp26
 70
     1
102
RTVSPropertyOp27
 70
     1
102
RTVSPropertyOp28
 70
     1
102
RTVSPropertyOp29
 70
     1
102
RTVSPropertyOp30
 70
     1
102
RTVSPropertyOp31
 70
     1
102
RTVSPropertyOp32
 70
     1
102
RTVSPropertyOp33
 70
     1
102
RTVSPropertyOp34
 70
     1
102
RTVSPropertyOp35
 70
     1
102
RTVSPropertyOp36
 70
     1
102
RTVSPropertyOp37
 70
     1
102
RTVSPropertyOp38
 70
     1
102
RTVSPropertyOp39
 70
     1
102
RTVSPropertyOp40
 70
     1
102
RTVSPropertyOp41
 70
     1
102
RTVSPropertyOp42
 70
     1
102
RTVSPropertyOp43
 70
     1
102
RTVSPropertyOp44
 70
     1
102
RTVSPropertyOp45
 70
     1
102
RTVSPropertyOp46
 70
     1
102
RTVSPropertyOp47
 70
     1
102
RTVSPropertyOp48
 70
     1
102
RTVSPropertyOp49
 70
     1
102
RTVSPropertyOp50
 70
     1
102
RTVSPropertyOp51
 70
     0
102
RTVSPropertyOp52
 70
     0
102
RTVSPropertyOp53
 70
     1
102
RTVSPropertyOp54
 70
     1
102
RTVSPropertyOp55
 70
     1
102
RTVSPropertyOp56
 70
     1
102
RTVSPropertyOp57
 70
     1
102
RTVSPropertyOp58
 70
     1
102
RTVSPropertyOp59
 70
     1
102
RTVSPropertyOp60
 70
     1
102
RTVSPropertyOp61
 70
     1
102
RTVSPropertyOp62
 70
     1
  0
XRECORD
  5
16B
102
{ACAD_REACTORS
330
16A
102
}
330
16A
100
AcDbXrecord
280
     1
102
RTVSPost2010Prop28
280
     0
102
RTVSPost2010PropOp28
 70
     1
102
RTVSPost2010Prop29
280
     1
102
RTVSPost2010PropOp29
 70
     1
102
RTVSPost2010Prop30
280
     1
102
RTVSPost2010PropOp30
 70
     1
102
RTVSPost2010Prop31
280
     0
102
RTVSPost2010PropOp31
 70
     1
102
RTVSPost2010Prop32
280
     0
102
RTVSPost2010PropOp32
 70
     1
102
RTVSPost2010Prop33
280
     0
102
RTVSPost2010PropOp33
 70
     1
102
RTVSPost2010Prop34
280
     0
102
RTVSPost2010PropOp34
 70
     1
102
RTVSPost2010Prop35
280
     0
102
RTVSPost2010PropOp35
 70
     1
102
RTVSPost2010Prop36
280
     0
102
RTVSPost2010PropOp36
 70
     1
102
RTVSPost2010Prop37
 90
       50
102
RTVSPost2010PropOp37
 70
     1
102
RTVSPost2010Prop38
140
0.0
102
RTVSPost2010PropOp38
 70
     1
102
RTVSPost2010Prop39
140
1.0
102
RTVSPost2010PropOp39
 70
     1
102
RTVSPost2010Prop40
 90
        0
102
RTVSPost2010PropOp40
 70
     1
102
RTVSPost2010Prop41ColorIndex
 90
       18
102
RTVSPost2010Prop41ColorRGB
 90
        0
102
RTVSPost2010PropOp41
 70
     1
102
RTVSPost2010Prop42
 90
       50
102
RTVSPost2010PropOp42
 70
     1
102
RTVSPost2010Prop43
 90
        3
102
RTVSPost2010PropOp43
 70
     1
102
RTVSPost2010Prop44ColorIndex
 90
        5
102
RTVSPost2010Prop44ColorRGB
 90
      255
102
RTVSPost2010PropOp44
 70
     1
102
RTVSPost2010Prop45
280
     0
102
RTVSPost2010PropOp45
 70
     1
102
RTVSPost2010Prop46
 90
       50
102
RTVSPost2010PropOp46
 70
     1
102
RTVSPost2010Prop47
 90
       50
102
RTVSPost2010PropOp47
 70
     1
102
RTVSPost2010Prop48
 90
       50
102
RTVSPost2010PropOp48
 70
     1
102
RTVSPost2010Prop49
280
     0
102
RTVSPost2010PropOp49
 70
     1
102
RTVSPost2010Prop50
 90
       50
102
RTVSPost2010PropOp50
 70
     1
102
RTVSPost2010Prop51ColorIndex
 90
      256
102
RTVSPost2010Prop51ColorRGB
 90
-16777216
102
RTVSPost2010PropOp51
 70
     0
102
RTVSPost2010Prop52
140
1.0
102
RTVSPost2010PropOp52
 70
     0
102
RTVSPost2010Prop53
 90
        2
102
RTVSPost2010PropOp53
 70
     1
102
RTVSPost2010Prop54
  1
strokes_ogs.tif
102
RTVSPost2010PropOp54
 70
     1
102
RTVSPost2010Prop55
280
     0
102
RTVSPost2010PropOp55
 70
     1
102
RTVSPost2010Prop56
140
1.0
102
RTVSPost2010PropOp56
 70
     1
102
RTVSPost2010Prop57
140
1.0
102
RTVSPost2010PropOp57
 70
     1
102
RTVSPropertyOp0
 70
     1
102
RTVSPropertyOp1
 70
     1
102
RTVSPropertyOp2
 70
     1
102
RTVSPropertyOp3
 70
     1
102
RTVSPropertyOp4
 70
     1
102
RTVSPropertyOp5
 70
     1
102
RTVSPropertyOp6
 70
     1
102
RTVSPropertyOp7
 70
     1
102
RTVSPropertyOp8
 70
     1
102
RTVSPropertyOp9
 70
     1
102
RTVSPropertyOp10
 70
     1
102
RTVSPropertyOp11
 70
     1
102
RTVSPropertyOp12
 70
     1
102
RTVSPropertyOp13
 70
     1
102
RTVSPropertyOp14
 70
     1
102
RTVSPropertyOp15
 70
     1
102
RTVSPropertyOp16
 70
     1
102
RTVSPropertyOp17
 70
     1
102
RTVSPropertyOp18
 70
     1
102
RTVSPropertyOp19
 70
     1
102
RTVSPropertyOp20
 70
     1
102
RTVSPropertyOp21
 70
     1
102
RTVSPropertyOp22
 70
     1
102
RTVSPropertyOp23
 70
     1
102
RTVSPropertyOp24
 70
     1
102
RTVSPropertyOp25
 70
     1
102
RTVSPropertyOp26
 70
     1
102
RTVSPropertyOp27
 70
     1
102
RTVSPropertyOp28
 70
     1
102
RTVSPropertyOp29
 70
     1
102
RTVSPropertyOp30
 70
     1
102
RTVSPropertyOp31
 70
     1
102
RTVSPropertyOp32
 70
     1
102
RTVSPropertyOp33
 70
     1
102
RTVSPropertyOp34
 70
     1
102
RTVSPropertyOp35
 70
     1
102
RTVSPropertyOp36
 70
     1
102
RTVSPropertyOp37
 70
     1
102
RTVSPropertyOp38
 70
     1
102
RTVSPropertyOp39
 70
     1
102
RTVSPropertyOp40
 70
     1
102
RTVSPropertyOp41
 70
     1
102
RTVSPropertyOp42
 70
     1
102
RTVSPropertyOp43
 70
     1
102
RTVSPropertyOp44
 70
     1
102
RTVSPropertyOp45
 70
     1
102
RTVSPropertyOp46
 70
     1
102
RTVSPropertyOp47
 70
     1
102
RTVSPropertyOp48
 70
     1
102
RTVSPropertyOp49
 70
     1
102
RTVSPropertyOp50
 70
     1
102
RTVSPropertyOp51
 70
     0
102
RTVSPropertyOp52
 70
     0
102
RTVSPropertyOp53
 70
     1
102
RTVSPropertyOp54
 70
     1
102
RTVSPropertyOp55
 70
     1
102
RTVSPropertyOp56
 70
     1
102
RTVSPropertyOp57
 70
     1
102
RTVSPropertyOp58
 70
     1
102
RTVSPropertyOp59
 70
     1
102
RTVSPropertyOp60
 70
     1
102
RTVSPropertyOp61
 70
     1
102
RTVSPropertyOp62
 70
     1
  0
XRECORD
  5
16D
102
{ACAD_REACTORS
330
16C
102
}
330
16C
100
AcDbXrecord
280
     1
102
RTVSPost2010Prop28
280
     0
102
RTVSPost2010PropOp28
 70
     1
102
RTVSPost2010Prop29
280
     1
102
RTVSPost2010PropOp29
 70
     1
102
RTVSPost2010Prop30
280
     1
102
RTVSPost2010PropOp30
 70
     1
102
RTVSPost2010Prop31
280
     0
102
RTVSPost2010PropOp31
 70
     1
102
RTVSPost2010Prop32
280
     0
102
RTVSPost2010PropOp32
 70
     1
102
RTVSPost2010Prop33
280
     0
102
RTVSPost2010PropOp33
 70
     1
102
RTVSPost2010Prop34
280
     0
102
RTVSPost2010PropOp34
 70
     1
102
RTVSPost2010Prop35
280
     0
102
RTVSPost2010PropOp35
 70
     1
102
RTVSPost2010Prop36
280
     0
102
RTVSPost2010PropOp36
 70
     1
102
RTVSPost2010Prop37
 90
       50
102
RTVSPost2010PropOp37
 70
     1
102
RTVSPost2010Prop38
140
0.0
102
RTVSPost2010PropOp38
 70
     1
102
RTVSPost2010Prop39
140
1.0
102
RTVSPost2010PropOp39
 70
     1
102
RTVSPost2010Prop40
 90
        0
102
RTVSPost2010PropOp40
 70
     1
102
RTVSPost2010Prop41ColorIndex
 90
       18
102
RTVSPost2010Prop41ColorRGB
 90
        0
102
RTVSPost2010PropOp41
 70
     1
102
RTVSPost2010Prop42
 90
       50
102
RTVSPost2010PropOp42
 70
     1
102
RTVSPost2010Prop43
 90
        3
102
RTVSPost2010PropOp43
 70
     1
102
RTVSPost2010Prop44ColorIndex
 90
        5
102
RTVSPost2010Prop44ColorRGB
 90
      255
102
RTVSPost2010PropOp44
 70
     1
102
RTVSPost2010Prop45
280
     0
102
RTVSPost2010PropOp45
 70
     1
102
RTVSPost2010Prop46
 90
       50
102
RTVSPost2010PropOp46
 70
     1
102
RTVSPost2010Prop47
 90
       50
102
RTVSPost2010PropOp47
 70
     1
102
RTVSPost2010Prop48
 90
       50
102
RTVSPost2010PropOp48
 70
     1
102
RTVSPost2010Prop49
280
     0
102
RTVSPost2010PropOp49
 70
     1
102
RTVSPost2010Prop50
 90
       50
102
RTVSPost2010PropOp50
 70
     1
102
RTVSPost2010Prop51ColorIndex
 90
      256
102
RTVSPost2010Prop51ColorRGB
 90
-16777216
102
RTVSPost2010PropOp51
 70
     0
102
RTVSPost2010Prop52
140
1.0
102
RTVSPost2010PropOp52
 70
     0
102
RTVSPost2010Prop53
 90
        2
102
RTVSPost2010PropOp53
 70
     1
102
RTVSPost2010Prop54
  1
strokes_ogs.tif
102
RTVSPost2010PropOp54
 70
     1
102
RTVSPost2010Prop55
280
     0
102
RTVSPost2010PropOp55
 70
     1
102
RTVSPost2010Prop56
140
1.0
102
RTVSPost2010PropOp56
 70
     1
102
RTVSPost2010Prop57
140
1.0
102
RTVSPost2010PropOp57
 70
     1
102
RTVSPropertyOp0
 70
     1
102
RTVSPropertyOp1
 70
     1
102
RTVSPropertyOp2
 70
     1
102
RTVSPropertyOp3
 70
     1
102
RTVSPropertyOp4
 70
     1
102
RTVSPropertyOp5
 70
     1
102
RTVSPropertyOp6
 70
     1
102
RTVSPropertyOp7
 70
     1
102
RTVSPropertyOp8
 70
     1
102
RTVSPropertyOp9
 70
     1
102
RTVSPropertyOp10
 70
     1
102
RTVSPropertyOp11
 70
     1
102
RTVSPropertyOp12
 70
     1
102
RTVSPropertyOp13
 70
     1
102
RTVSPropertyOp14
 70
     1
102
RTVSPropertyOp15
 70
     1
102
RTVSPropertyOp16
 70
     1
102
RTVSPropertyOp17
 70
     1
102
RTVSPropertyOp18
 70
     1
102
RTVSPropertyOp19
 70
     1
102
RTVSPropertyOp20
 70
     1
102
RTVSPropertyOp21
 70
     1
102
RTVSPropertyOp22
 70
     1
102
RTVSPropertyOp23
 70
     1
102
RTVSPropertyOp24
 70
     1
102
RTVSPropertyOp25
 70
     1
102
RTVSPropertyOp26
 70
     1
102
RTVSPropertyOp27
 70
     1
102
RTVSPropertyOp28
 70
     1
102
RTVSPropertyOp29
 70
     1
102
RTVSPropertyOp30
 70
     1
102
RTVSPropertyOp31
 70
     1
102
RTVSPropertyOp32
 70
     1
102
RTVSPropertyOp33
 70
     1
102
RTVSPropertyOp34
 70
     1
102
RTVSPropertyOp35
 70
     1
102
RTVSPropertyOp36
 70
     1
102
RTVSPropertyOp37
 70
     1
102
RTVSPropertyOp38
 70
     1
102
RTVSPropertyOp39
 70
     1
102
RTVSPropertyOp40
 70
     1
102
RTVSPropertyOp41
 70
     1
102
RTVSPropertyOp42
 70
     1
102
RTVSPropertyOp43
 70
     1
102
RTVSPropertyOp44
 70
     1
102
RTVSPropertyOp45
 70
     1
102
RTVSPropertyOp46
 70
     1
102
RTVSPropertyOp47
 70
     1
102
RTVSPropertyOp48
 70
     1
102
RTVSPropertyOp49
 70
     1
102
RTVSPropertyOp50
 70
     1
102
RTVSPropertyOp51
 70
     0
102
RTVSPropertyOp52
 70
     0
102
RTVSPropertyOp53
 70
     1
102
RTVSPropertyOp54
 70
     1
102
RTVSPropertyOp55
 70
     1
102
RTVSPropertyOp56
 70
     1
102
RTVSPropertyOp57
 70
     1
102
RTVSPropertyOp58
 70
     1
102
RTVSPropertyOp59
 70
     1
102
RTVSPropertyOp60
 70
     1
102
RTVSPropertyOp61
 70
     1
102
RTVSPropertyOp62
 70
     1
  0
XRECORD
  5
175
102
{ACAD_REACTORS
330
174
102
}
330
174
100
AcDbXrecord
280
     1
102
RTVSPost2010Prop28
280
     0
102
RTVSPost2010PropOp28
 70
     1
102
RTVSPost2010Prop29
280
     1
102
RTVSPost2010PropOp29
 70
     1
102
RTVSPost2010Prop30
280
     1
102
RTVSPost2010PropOp30
 70
     1
102
RTVSPost2010Prop31
280
     0
102
RTVSPost2010PropOp31
 70
     1
102
RTVSPost2010Prop32
280
     0
102
RTVSPost2010PropOp32
 70
     1
102
RTVSPost2010Prop33
280
     0
102
RTVSPost2010PropOp33
 70
     1
102
RTVSPost2010Prop34
280
     0
102
RTVSPost2010PropOp34
 70
     1
102
RTVSPost2010Prop35
280
     0
102
RTVSPost2010PropOp35
 70
     1
102
RTVSPost2010Prop36
280
     0
102
RTVSPost2010PropOp36
 70
     1
102
RTVSPost2010Prop37
 90
       50
102
RTVSPost2010PropOp37
 70
     1
102
RTVSPost2010Prop38
140
0.0
102
RTVSPost2010PropOp38
 70
     1
102
RTVSPost2010Prop39
140
1.0
102
RTVSPost2010PropOp39
 70
     1
102
RTVSPost2010Prop40
 90
        0
102
RTVSPost2010PropOp40
 70
     1
102
RTVSPost2010Prop41ColorIndex
 90
       18
102
RTVSPost2010Prop41ColorRGB
 90
        0
102
RTVSPost2010PropOp41
 70
     1
102
RTVSPost2010Prop42
 90
       50
102
RTVSPost2010PropOp42
 70
     1
102
RTVSPost2010Prop43
 90
        3
102
RTVSPost2010PropOp43
 70
     1
102
RTVSPost2010Prop44ColorIndex
 90
        5
102
RTVSPost2010Prop44ColorRGB
 90
      255
102
RTVSPost2010PropOp44
 70
     1
102
RTVSPost2010Prop45
280
     0
102
RTVSPost2010PropOp45
 70
     1
102
RTVSPost2010Prop46
 90
       50
102
RTVSPost2010PropOp46
 70
     1
102
RTVSPost2010Prop47
 90
       50
102
RTVSPost2010PropOp47
 70
     1
102
RTVSPost2010Prop48
 90
       50
102
RTVSPost2010PropOp48
 70
     1
102
RTVSPost2010Prop49
280
     0
102
RTVSPost2010PropOp49
 70
     1
102
RTVSPost2010Prop50
 90
       50
102
RTVSPost2010PropOp50
 70
     1
102
RTVSPost2010Prop51ColorIndex
 90
      256
102
RTVSPost2010Prop51ColorRGB
 90
-16777216
102
RTVSPost2010PropOp51
 70
     0
102
RTVSPost2010Prop52
140
1.0
102
RTVSPost2010PropOp52
 70
     0
102
RTVSPost2010Prop53
 90
        2
102
RTVSPost2010PropOp53
 70
     1
102
RTVSPost2010Prop54
  1
strokes_ogs.tif
102
RTVSPost2010PropOp54
 70
     1
102
RTVSPost2010Prop55
280
     0
102
RTVSPost2010PropOp55
 70
     1
102
RTVSPost2010Prop56
140
1.0
102
RTVSPost2010PropOp56
 70
     1
102
RTVSPost2010Prop57
140
1.0
102
RTVSPost2010PropOp57
 70
     1
102
RTVSPropertyOp0
 70
     1
102
RTVSPropertyOp1
 70
     1
102
RTVSPropertyOp2
 70
     1
102
RTVSPropertyOp3
 70
     1
102
RTVSPropertyOp4
 70
     1
102
RTVSPropertyOp5
 70
     1
102
RTVSPropertyOp6
 70
     1
102
RTVSPropertyOp7
 70
     1
102
RTVSPropertyOp8
 70
     1
102
RTVSPropertyOp9
 70
     1
102
RTVSPropertyOp10
 70
     1
102
RTVSPropertyOp11
 70
     1
102
RTVSPropertyOp12
 70
     1
102
RTVSPropertyOp13
 70
     1
102
RTVSPropertyOp14
 70
     1
102
RTVSPropertyOp15
 70
     1
102
RTVSPropertyOp16
 70
     1
102
RTVSPropertyOp17
 70
     1
102
RTVSPropertyOp18
 70
     1
102
RTVSPropertyOp19
 70
     1
102
RTVSPropertyOp20
 70
     1
102
RTVSPropertyOp21
 70
     1
102
RTVSPropertyOp22
 70
     1
102
RTVSPropertyOp23
 70
     1
102
RTVSPropertyOp24
 70
     1
102
RTVSPropertyOp25
 70
     1
102
RTVSPropertyOp26
 70
     1
102
RTVSPropertyOp27
 70
     1
102
RTVSPropertyOp28
 70
     1
102
RTVSPropertyOp29
 70
     1
102
RTVSPropertyOp30
 70
     1
102
RTVSPropertyOp31
 70
     1
102
RTVSPropertyOp32
 70
     1
102
RTVSPropertyOp33
 70
     1
102
RTVSPropertyOp34
 70
     1
102
RTVSPropertyOp35
 70
     1
102
RTVSPropertyOp36
 70
     1
102
RTVSPropertyOp37
 70
     1
102
RTVSPropertyOp38
 70
     1
102
RTVSPropertyOp39
 70
     1
102
RTVSPropertyOp40
 70
     1
102
RTVSPropertyOp41
 70
     1
102
RTVSPropertyOp42
 70
     1
102
RTVSPropertyOp43
 70
     1
102
RTVSPropertyOp44
 70
     1
102
RTVSPropertyOp45
 70
     1
102
RTVSPropertyOp46
 70
     1
102
RTVSPropertyOp47
 70
     1
102
RTVSPropertyOp48
 70
     1
102
RTVSPropertyOp49
 70
     1
102
RTVSPropertyOp50
 70
     1
102
RTVSPropertyOp51
 70
     0
102
RTVSPropertyOp52
 70
     0
102
RTVSPropertyOp53
 70
     1
102
RTVSPropertyOp54
 70
     1
102
RTVSPropertyOp55
 70
     1
102
RTVSPropertyOp56
 70
     1
102
RTVSPropertyOp57
 70
     1
102
RTVSPropertyOp58
 70
     1
102
RTVSPropertyOp59
 70
     1
102
RTVSPropertyOp60
 70
     1
102
RTVSPropertyOp61
 70
     1
102
RTVSPropertyOp62
 70
     1
  0
XRECORD
  5
191
102
{ACAD_REACTORS
330
190
102
}
330
190
100
AcDbXrecord
280
     1
102
RTVSPost2010Prop28
280
     0
102
RTVSPost2010PropOp28
 70
     0
102
RTVSPost2010Prop29
280
     1
102
RTVSPost2010PropOp29
 70
     0
102
RTVSPost2010Prop30
280
     1
102
RTVSPost2010PropOp30
 70
     0
102
RTVSPost2010Prop31
280
     0
102
RTVSPost2010PropOp31
 70
     0
102
RTVSPost2010Prop32
280
     0
102
RTVSPost2010PropOp32
 70
     0
102
RTVSPost2010Prop33
280
     0
102
RTVSPost2010PropOp33
 70
     0
102
RTVSPost2010Prop34
280
     0
102
RTVSPost2010PropOp34
 70
     0
102
RTVSPost2010Prop35
280
     0
102
RTVSPost2010PropOp35
 70
     0
102
RTVSPost2010Prop36
280
     0
102
RTVSPost2010PropOp36
 70
     0
102
RTVSPost2010Prop37
 90
       50
102
RTVSPost2010PropOp37
 70
     0
102
RTVSPost2010Prop38
140
0.0
102
RTVSPost2010PropOp38
 70
     0
102
RTVSPost2010Prop39
140
1.0
102
RTVSPost2010PropOp39
 70
     0
102
RTVSPost2010Prop40
 90
        0
102
RTVSPost2010PropOp40
 70
     0
102
RTVSPost2010Prop41ColorIndex
 90
       18
102
RTVSPost2010Prop41ColorRGB
 90
        0
102
RTVSPost2010PropOp41
 70
     0
102
RTVSPost2010Prop42
 90
       50
102
RTVSPost2010PropOp42
 70
     0
102
RTVSPost2010Prop43
 90
        3
102
RTVSPost2010PropOp43
 70
     0
102
RTVSPost2010Prop44ColorIndex
 90
        5
102
RTVSPost2010Prop44ColorRGB
 90
      255
102
RTVSPost2010PropOp44
 70
     0
102
RTVSPost2010Prop45
280
     0
102
RTVSPost2010PropOp45
 70
     0
102
RTVSPost2010Prop46
 90
       50
102
RTVSPost2010PropOp46
 70
     0
102
RTVSPost2010Prop47
 90
       50
102
RTVSPost2010PropOp47
 70
     0
102
RTVSPost2010Prop48
 90
       50
102
RTVSPost2010PropOp48
 70
     0
102
RTVSPost2010Prop49
280
     0
102
RTVSPost2010PropOp49
 70
     0
102
RTVSPost2010Prop50
 90
       50
102
RTVSPost2010PropOp50
 70
     0
102
RTVSPost2010Prop51ColorIndex
 90
      256
102
RTVSPost2010Prop51ColorRGB
 90
-16777216
102
RTVSPost2010PropOp51
 70
     0
102
RTVSPost2010Prop52
140
1.0
102
RTVSPost2010PropOp52
 70
     0
102
RTVSPost2010Prop53
 90
        2
102
RTVSPost2010PropOp53
 70
     0
102
RTVSPost2010Prop54
  1
strokes_ogs.tif
102
RTVSPost2010PropOp54
 70
     0
102
RTVSPost2010Prop55
280
     0
102
RTVSPost2010PropOp55
 70
     0
102
RTVSPost2010Prop56
140
1.0
102
RTVSPost2010PropOp56
 70
     0
102
RTVSPost2010Prop57
140
1.0
102
RTVSPost2010PropOp57
 70
     0
102
RTVSPropertyOp0
 70
     0
102
RTVSPropertyOp1
 70
     0
102
RTVSPropertyOp2
 70
     0
102
RTVSPropertyOp3
 70
     0
102
RTVSPropertyOp4
 70
     0
102
RTVSPropertyOp5
 70
     0
102
RTVSPropertyOp6
 70
     0
102
RTVSPropertyOp7
 70
     0
102
RTVSPropertyOp8
 70
     0
102
RTVSPropertyOp9
 70
     0
102
RTVSPropertyOp10
 70
     0
102
RTVSPropertyOp11
 70
     0
102
RTVSPropertyOp12
 70
     0
102
RTVSPropertyOp13
 70
     0
102
RTVSPropertyOp14
 70
     2
102
RTVSPropertyOp15
 70
     0
102
RTVSPropertyOp16
 70
     0
102
RTVSPropertyOp17
 70
     0
102
RTVSPropertyOp18
 70
     0
102
RTVSPropertyOp19
 70
     0
102
RTVSPropertyOp20
 70
     0
102
RTVSPropertyOp21
 70
     0
102
RTVSPropertyOp22
 70
     0
102
RTVSPropertyOp23
 70
     0
102
RTVSPropertyOp24
 70
     0
102
RTVSPropertyOp25
 70
     0
102
RTVSPropertyOp26
 70
     0
102
RTVSPropertyOp27
 70
     0
102
RTVSPropertyOp28
 70
     0
102
RTVSPropertyOp29
 70
     0
102
RTVSPropertyOp30
 70
     0
102
RTVSPropertyOp31
 70
     0
102
RTVSPropertyOp32
 70
     0
102
RTVSPropertyOp33
 70
     0
102
RTVSPropertyOp34
 70
     0
102
RTVSPropertyOp35
 70
     0
102
RTVSPropertyOp36
 70
     0
102
RTVSPropertyOp37
 70
     0
102
RTVSPropertyOp38
 70
     0
102
RTVSPropertyOp39
 70
     0
102
RTVSPropertyOp40
 70
     0
102
RTVSPropertyOp41
 70
     0
102
RTVSPropertyOp42
 70
     0
102
RTVSPropertyOp43
 70
     0
102
RTVSPropertyOp44
 70
     0
102
RTVSPropertyOp45
 70
     0
102
RTVSPropertyOp46
 70
     0
102
RTVSPropertyOp47
 70
     0
102
RTVSPropertyOp48
 70
     0
102
RTVSPropertyOp49
 70
     0
102
RTVSPropertyOp50
 70
     0
102
RTVSPropertyOp51
 70
     0
102
RTVSPropertyOp52
 70
     0
102
RTVSPropertyOp53
 70
     0
102
RTVSPropertyOp54
 70
     0
102
RTVSPropertyOp55
 70
     0
102
RTVSPropertyOp56
 70
     0
102
RTVSPropertyOp57
 70
     0
102
RTVSPropertyOp58
 70
     1
102
RTVSPropertyOp59
 70
     1
102
RTVSPropertyOp60
 70
     1
102
RTVSPropertyOp61
 70
     1
102
RTVSPropertyOp62
 70
     1
  0
XRECORD
  5
181
102
{ACAD_REACTORS
330
180
102
}
330
180
100
AcDbXrecord
280
     1
102
RTVSPost2010Prop28
280
     0
102
RTVSPost2010PropOp28
 70
     1
102
RTVSPost2010Prop29
280
     1
102
RTVSPost2010PropOp29
 70
     1
102
RTVSPost2010Prop30
280
     1
102
RTVSPost2010PropOp30
 70
     1
102
RTVSPost2010Prop31
280
     0
102
RTVSPost2010PropOp31
 70
     1
102
RTVSPost2010Prop32
280
     0
102
RTVSPost2010PropOp32
 70
     1
102
RTVSPost2010Prop33
280
     0
102
RTVSPost2010PropOp33
 70
     1
102
RTVSPost2010Prop34
280
     0
102
RTVSPost2010PropOp34
 70
     1
102
RTVSPost2010Prop35
280
     0
102
RTVSPost2010PropOp35
 70
     1
102
RTVSPost2010Prop36
280
     0
102
RTVSPost2010PropOp36
 70
     1
102
RTVSPost2010Prop37
 90
       50
102
RTVSPost2010PropOp37
 70
     1
102
RTVSPost2010Prop38
140
0.0
102
RTVSPost2010PropOp38
 70
     1
102
RTVSPost2010Prop39
140
1.0
102
RTVSPost2010PropOp39
 70
     1
102
RTVSPost2010Prop40
 90
        0
102
RTVSPost2010PropOp40
 70
     1
102
RTVSPost2010Prop41ColorIndex
 90
       18
102
RTVSPost2010Prop41ColorRGB
 90
        0
102
RTVSPost2010PropOp41
 70
     1
102
RTVSPost2010Prop42
 90
       50
102
RTVSPost2010PropOp42
 70
     1
102
RTVSPost2010Prop43
 90
        3
102
RTVSPost2010PropOp43
 70
     1
102
RTVSPost2010Prop44ColorIndex
 90
        5
102
RTVSPost2010Prop44ColorRGB
 90
      255
102
RTVSPost2010PropOp44
 70
     1
102
RTVSPost2010Prop45
280
     0
102
RTVSPost2010PropOp45
 70
     1
102
RTVSPost2010Prop46
 90
       50
102
RTVSPost2010PropOp46
 70
     1
102
RTVSPost2010Prop47
 90
       50
102
RTVSPost2010PropOp47
 70
     1
102
RTVSPost2010Prop48
 90
       50
102
RTVSPost2010PropOp48
 70
     1
102
RTVSPost2010Prop49
280
     0
102
RTVSPost2010PropOp49
 70
     1
102
RTVSPost2010Prop50
 90
       50
102
RTVSPost2010PropOp50
 70
     1
102
RTVSPost2010Prop51ColorIndex
 90
      256
102
RTVSPost2010Prop51ColorRGB
 90
-16777216
102
RTVSPost2010PropOp51
 70
     0
102
RTVSPost2010Prop52
140
1.0
102
RTVSPost2010PropOp52
 70
     0
102
RTVSPost2010Prop53
 90
        2
102
RTVSPost2010PropOp53
 70
     1
102
RTVSPost2010Prop54
  1
strokes_ogs.tif
102
RTVSPost2010PropOp54
 70
     1
102
RTVSPost2010Prop55
280
     0
102
RTVSPost2010PropOp55
 70
     1
102
RTVSPost2010Prop56
140
1.0
102
RTVSPost2010PropOp56
 70
     1
102
RTVSPost2010Prop57
140
1.0
102
RTVSPost2010PropOp57
 70
     1
102
RTVSPropertyOp0
 70
     1
102
RTVSPropertyOp1
 70
     1
102
RTVSPropertyOp2
 70
     1
102
RTVSPropertyOp3
 70
     1
102
RTVSPropertyOp4
 70
     1
102
RTVSPropertyOp5
 70
     1
102
RTVSPropertyOp6
 70
     1
102
RTVSPropertyOp7
 70
     1
102
RTVSPropertyOp8
 70
     1
102
RTVSPropertyOp9
 70
     1
102
RTVSPropertyOp10
 70
     1
102
RTVSPropertyOp11
 70
     1
102
RTVSPropertyOp12
 70
     1
102
RTVSPropertyOp13
 70
     1
102
RTVSPropertyOp14
 70
     1
102
RTVSPropertyOp15
 70
     1
102
RTVSPropertyOp16
 70
     1
102
RTVSPropertyOp17
 70
     1
102
RTVSPropertyOp18
 70
     1
102
RTVSPropertyOp19
 70
     1
102
RTVSPropertyOp20
 70
     1
102
RTVSPropertyOp21
 70
     1
102
RTVSPropertyOp22
 70
     1
102
RTVSPropertyOp23
 70
     1
102
RTVSPropertyOp24
 70
     1
102
RTVSPropertyOp25
 70
     1
102
RTVSPropertyOp26
 70
     1
102
RTVSPropertyOp27
 70
     1
102
RTVSPropertyOp28
 70
     1
102
RTVSPropertyOp29
 70
     1
102
RTVSPropertyOp30
 70
     1
102
RTVSPropertyOp31
 70
     1
102
RTVSPropertyOp32
 70
     1
102
RTVSPropertyOp33
 70
     1
102
RTVSPropertyOp34
 70
     1
102
RTVSPropertyOp35
 70
     1
102
RTVSPropertyOp36
 70
     1
102
RTVSPropertyOp37
 70
     1
102
RTVSPropertyOp38
 70
     1
102
RTVSPropertyOp39
 70
     1
102
RTVSPropertyOp40
 70
     1
102
RTVSPropertyOp41
 70
     1
102
RTVSPropertyOp42
 70
     1
102
RTVSPropertyOp43
 70
     1
102
RTVSPropertyOp44
 70
     1
102
RTVSPropertyOp45
 70
     1
102
RTVSPropertyOp46
 70
     1
102
RTVSPropertyOp47
 70
     1
102
RTVSPropertyOp48
 70
     1
102
RTVSPropertyOp49
 70
     1
102
RTVSPropertyOp50
 70
     1
102
RTVSPropertyOp51
 70
     0
102
RTVSPropertyOp52
 70
     0
102
RTVSPropertyOp53
 70
     1
102
RTVSPropertyOp54
 70
     1
102
RTVSPropertyOp55
 70
     1
102
RTVSPropertyOp56
 70
     1
102
RTVSPropertyOp57
 70
     1
102
RTVSPropertyOp58
 70
     1
102
RTVSPropertyOp59
 70
     1
102
RTVSPropertyOp60
 70
     1
102
RTVSPropertyOp61
 70
     1
102
RTVSPropertyOp62
 70
     1
  0
XRECORD
  5
193
102
{ACAD_REACTORS
330
192
102
}
330
192
100
AcDbXrecord
280
     1
102
RTVSPost2010Prop28
280
     0
102
RTVSPost2010PropOp28
 70
     0
102
RTVSPost2010Prop29
280
     1
102
RTVSPost2010PropOp29
 70
     0
102
RTVSPost2010Prop30
280
     1
102
RTVSPost2010PropOp30
 70
     0
102
RTVSPost2010Prop31
280
     0
102
RTVSPost2010PropOp31
 70
     0
102
RTVSPost2010Prop32
280
     0
102
RTVSPost2010PropOp32
 70
     0
102
RTVSPost2010Prop33
280
     0
102
RTVSPost2010PropOp33
 70
     0
102
RTVSPost2010Prop34
280
     0
102
RTVSPost2010PropOp34
 70
     0
102
RTVSPost2010Prop35
280
     0
102
RTVSPost2010PropOp35
 70
     0
102
RTVSPost2010Prop36
280
     0
102
RTVSPost2010PropOp36
 70
     0
102
RTVSPost2010Prop37
 90
       50
102
RTVSPost2010PropOp37
 70
     0
102
RTVSPost2010Prop38
140
0.0
102
RTVSPost2010PropOp38
 70
     0
102
RTVSPost2010Prop39
140
1.0
102
RTVSPost2010PropOp39
 70
     0
102
RTVSPost2010Prop40
 90
        0
102
RTVSPost2010PropOp40
 70
     0
102
RTVSPost2010Prop41ColorIndex
 90
       18
102
RTVSPost2010Prop41ColorRGB
 90
        0
102
RTVSPost2010PropOp41
 70
     0
102
RTVSPost2010Prop42
 90
       50
102
RTVSPost2010PropOp42
 70
     0
102
RTVSPost2010Prop43
 90
        3
102
RTVSPost2010PropOp43
 70
     0
102
RTVSPost2010Prop44ColorIndex
 90
        5
102
RTVSPost2010Prop44ColorRGB
 90
      255
102
RTVSPost2010PropOp44
 70
     0
102
RTVSPost2010Prop45
280
     0
102
RTVSPost2010PropOp45
 70
     0
102
RTVSPost2010Prop46
 90
       50
102
RTVSPost2010PropOp46
 70
     0
102
RTVSPost2010Prop47
 90
       50
102
RTVSPost2010PropOp47
 70
     0
102
RTVSPost2010Prop48
 90
       50
102
RTVSPost2010PropOp48
 70
     0
102
RTVSPost2010Prop49
280
     0
102
RTVSPost2010PropOp49
 70
     0
102
RTVSPost2010Prop50
 90
       50
102
RTVSPost2010PropOp50
 70
     0
102
RTVSPost2010Prop51ColorIndex
 90
      256
102
RTVSPost2010Prop51ColorRGB
 90
-16777216
102
RTVSPost2010PropOp51
 70
     0
102
RTVSPost2010Prop52
140
1.0
102
RTVSPost2010PropOp52
 70
     0
102
RTVSPost2010Prop53
 90
        2
102
RTVSPost2010PropOp53
 70
     0
102
RTVSPost2010Prop54
  1
strokes_ogs.tif
102
RTVSPost2010PropOp54
 70
     0
102
RTVSPost2010Prop55
280
     0
102
RTVSPost2010PropOp55
 70
     0
102
RTVSPost2010Prop56
140
1.0
102
RTVSPost2010PropOp56
 70
     0
102
RTVSPost2010Prop57
140
1.0
102
RTVSPost2010PropOp57
 70
     0
102
RTVSPropertyOp0
 70
     0
102
RTVSPropertyOp1
 70
     0
102
RTVSPropertyOp2
 70
     0
102
RTVSPropertyOp3
 70
     0
102
RTVSPropertyOp4
 70
     0
102
RTVSPropertyOp5
 70
     0
102
RTVSPropertyOp6
 70
     0
102
RTVSPropertyOp7
 70
     0
102
RTVSPropertyOp8
 70
     0
102
RTVSPropertyOp9
 70
     0
102
RTVSPropertyOp10
 70
     0
102
RTVSPropertyOp11
 70
     0
102
RTVSPropertyOp12
 70
     0
102
RTVSPropertyOp13
 70
     0
102
RTVSPropertyOp14
 70
     2
102
RTVSPropertyOp15
 70
     0
102
RTVSPropertyOp16
 70
     0
102
RTVSPropertyOp17
 70
     0
102
RTVSPropertyOp18
 70
     0
102
RTVSPropertyOp19
 70
     0
102
RTVSPropertyOp20
 70
     0
102
RTVSPropertyOp21
 70
     0
102
RTVSPropertyOp22
 70
     0
102
RTVSPropertyOp23
 70
     0
102
RTVSPropertyOp24
 70
     0
102
RTVSPropertyOp25
 70
     0
102
RTVSPropertyOp26
 70
     0
102
RTVSPropertyOp27
 70
     0
102
RTVSPropertyOp28
 70
     0
102
RTVSPropertyOp29
 70
     0
102
RTVSPropertyOp30
 70
     0
102
RTVSPropertyOp31
 70
     0
102
RTVSPropertyOp32
 70
     0
102
RTVSPropertyOp33
 70
     0
102
RTVSPropertyOp34
 70
     0
102
RTVSPropertyOp35
 70
     0
102
RTVSPropertyOp36
 70
     0
102
RTVSPropertyOp37
 70
     0
102
RTVSPropertyOp38
 70
     0
102
RTVSPropertyOp39
 70
     0
102
RTVSPropertyOp40
 70
     0
102
RTVSPropertyOp41
 70
     0
102
RTVSPropertyOp42
 70
     0
102
RTVSPropertyOp43
 70
     0
102
RTVSPropertyOp44
 70
     0
102
RTVSPropertyOp45
 70
     0
102
RTVSPropertyOp46
 70
     0
102
RTVSPropertyOp47
 70
     0
102
RTVSPropertyOp48
 70
     0
102
RTVSPropertyOp49
 70
     0
102
RTVSPropertyOp50
 70
     0
102
RTVSPropertyOp51
 70
     0
102
RTVSPropertyOp52
 70
     0
102
RTVSPropertyOp53
 70
     0
102
RTVSPropertyOp54
 70
     0
102
RTVSPropertyOp55
 70
     0
102
RTVSPropertyOp56
 70
     0
102
RTVSPropertyOp57
 70
     0
102
RTVSPropertyOp58
 70
     1
102
RTVSPropertyOp59
 70
     1
102
RTVSPropertyOp60
 70
     1
102
RTVSPropertyOp61
 70
     1
102
RTVSPropertyOp62
 70
     1
  0
XRECORD
  5
179
102
{ACAD_REACTORS
330
178
102
}
330
178
100
AcDbXrecord
280
     1
102
RTVSPost2010Prop28
280
     0
102
RTVSPost2010PropOp28
 70
     1
102
RTVSPost2010Prop29
280
     1
102
RTVSPost2010PropOp29
 70
     1
102
RTVSPost2010Prop30
280
     1
102
RTVSPost2010PropOp30
 70
     1
102
RTVSPost2010Prop31
280
     0
102
RTVSPost2010PropOp31
 70
     1
102
RTVSPost2010Prop32
280
     0
102
RTVSPost2010PropOp32
 70
     1
102
RTVSPost2010Prop33
280
     0
102
RTVSPost2010PropOp33
 70
     1
102
RTVSPost2010Prop34
280
     0
102
RTVSPost2010PropOp34
 70
     1
102
RTVSPost2010Prop35
280
     0
102
RTVSPost2010PropOp35
 70
     1
102
RTVSPost2010Prop36
280
     0
102
RTVSPost2010PropOp36
 70
     1
102
RTVSPost2010Prop37
 90
       50
102
RTVSPost2010PropOp37
 70
     1
102
RTVSPost2010Prop38
140
0.0
102
RTVSPost2010PropOp38
 70
     1
102
RTVSPost2010Prop39
140
1.0
102
RTVSPost2010PropOp39
 70
     1
102
RTVSPost2010Prop40
 90
        0
102
RTVSPost2010PropOp40
 70
     1
102
RTVSPost2010Prop41ColorIndex
 90
       18
102
RTVSPost2010Prop41ColorRGB
 90
        0
102
RTVSPost2010PropOp41
 70
     1
102
RTVSPost2010Prop42
 90
       50
102
RTVSPost2010PropOp42
 70
     1
102
RTVSPost2010Prop43
 90
        3
102
RTVSPost2010PropOp43
 70
     1
102
RTVSPost2010Prop44ColorIndex
 90
        5
102
RTVSPost2010Prop44ColorRGB
 90
      255
102
RTVSPost2010PropOp44
 70
     1
102
RTVSPost2010Prop45
280
     0
102
RTVSPost2010PropOp45
 70
     1
102
RTVSPost2010Prop46
 90
       50
102
RTVSPost2010PropOp46
 70
     1
102
RTVSPost2010Prop47
 90
       50
102
RTVSPost2010PropOp47
 70
     1
102
RTVSPost2010Prop48
 90
       50
102
RTVSPost2010PropOp48
 70
     1
102
RTVSPost2010Prop49
280
     0
102
RTVSPost2010PropOp49
 70
     1
102
RTVSPost2010Prop50
 90
       50
102
RTVSPost2010PropOp50
 70
     1
102
RTVSPost2010Prop51ColorIndex
 90
      256
102
RTVSPost2010Prop51ColorRGB
 90
-16777216
102
RTVSPost2010PropOp51
 70
     0
102
RTVSPost2010Prop52
140
1.0
102
RTVSPost2010PropOp52
 70
     0
102
RTVSPost2010Prop53
 90
        2
102
RTVSPost2010PropOp53
 70
     1
102
RTVSPost2010Prop54
  1
strokes_ogs.tif
102
RTVSPost2010PropOp54
 70
     1
102
RTVSPost2010Prop55
280
     0
102
RTVSPost2010PropOp55
 70
     1
102
RTVSPost2010Prop56
140
1.0
102
RTVSPost2010PropOp56
 70
     1
102
RTVSPost2010Prop57
140
1.0
102
RTVSPost2010PropOp57
 70
     1
102
RTVSPropertyOp0
 70
     1
102
RTVSPropertyOp1
 70
     1
102
RTVSPropertyOp2
 70
     1
102
RTVSPropertyOp3
 70
     1
102
RTVSPropertyOp4
 70
     1
102
RTVSPropertyOp5
 70
     1
102
RTVSPropertyOp6
 70
     1
102
RTVSPropertyOp7
 70
     1
102
RTVSPropertyOp8
 70
     1
102
RTVSPropertyOp9
 70
     1
102
RTVSPropertyOp10
 70
     1
102
RTVSPropertyOp11
 70
     1
102
RTVSPropertyOp12
 70
     1
102
RTVSPropertyOp13
 70
     1
102
RTVSPropertyOp14
 70
     1
102
RTVSPropertyOp15
 70
     1
102
RTVSPropertyOp16
 70
     1
102
RTVSPropertyOp17
 70
     1
102
RTVSPropertyOp18
 70
     1
102
RTVSPropertyOp19
 70
     1
102
RTVSPropertyOp20
 70
     1
102
RTVSPropertyOp21
 70
     1
102
RTVSPropertyOp22
 70
     1
102
RTVSPropertyOp23
 70
     1
102
RTVSPropertyOp24
 70
     1
102
RTVSPropertyOp25
 70
     1
102
RTVSPropertyOp26
 70
     1
102
RTVSPropertyOp27
 70
     1
102
RTVSPropertyOp28
 70
     1
102
RTVSPropertyOp29
 70
     1
102
RTVSPropertyOp30
 70
     1
102
RTVSPropertyOp31
 70
     1
102
RTVSPropertyOp32
 70
     1
102
RTVSPropertyOp33
 70
     1
102
RTVSPropertyOp34
 70
     1
102
RTVSPropertyOp35
 70
     1
102
RTVSPropertyOp36
 70
     1
102
RTVSPropertyOp37
 70
     1
102
RTVSPropertyOp38
 70
     1
102
RTVSPropertyOp39
 70
     1
102
RTVSPropertyOp40
 70
     1
102
RTVSPropertyOp41
 70
     1
102
RTVSPropertyOp42
 70
     1
102
RTVSPropertyOp43
 70
     1
102
RTVSPropertyOp44
 70
     1
102
RTVSPropertyOp45
 70
     1
102
RTVSPropertyOp46
 70
     1
102
RTVSPropertyOp47
 70
     1
102
RTVSPropertyOp48
 70
     1
102
RTVSPropertyOp49
 70
     1
102
RTVSPropertyOp50
 70
     1
102
RTVSPropertyOp51
 70
     0
102
RTVSPropertyOp52
 70
     0
102
RTVSPropertyOp53
 70
     1
102
RTVSPropertyOp54
 70
     1
102
RTVSPropertyOp55
 70
     1
102
RTVSPropertyOp56
 70
     1
102
RTVSPropertyOp57
 70
     1
102
RTVSPropertyOp58
 70
     1
102
RTVSPropertyOp59
 70
     1
102
RTVSPropertyOp60
 70
     1
102
RTVSPropertyOp61
 70
     1
102
RTVSPropertyOp62
 70
     1
  0
XRECORD
  5
18F
102
{ACAD_REACTORS
330
18E
102
}
330
18E
100
AcDbXrecord
280
     1
102
RTVSPost2010Prop28
280
     0
102
RTVSPost2010PropOp28
 70
     1
102
RTVSPost2010Prop29
280
     1
102
RTVSPost2010PropOp29
 70
     1
102
RTVSPost2010Prop30
280
     1
102
RTVSPost2010PropOp30
 70
     1
102
RTVSPost2010Prop31
280
     0
102
RTVSPost2010PropOp31
 70
     1
102
RTVSPost2010Prop32
280
     0
102
RTVSPost2010PropOp32
 70
     1
102
RTVSPost2010Prop33
280
     0
102
RTVSPost2010PropOp33
 70
     1
102
RTVSPost2010Prop34
280
     0
102
RTVSPost2010PropOp34
 70
     1
102
RTVSPost2010Prop35
280
     0
102
RTVSPost2010PropOp35
 70
     1
102
RTVSPost2010Prop36
280
     0
102
RTVSPost2010PropOp36
 70
     1
102
RTVSPost2010Prop37
 90
       50
102
RTVSPost2010PropOp37
 70
     1
102
RTVSPost2010Prop38
140
0.0
102
RTVSPost2010PropOp38
 70
     1
102
RTVSPost2010Prop39
140
1.0
102
RTVSPost2010PropOp39
 70
     1
102
RTVSPost2010Prop40
 90
        0
102
RTVSPost2010PropOp40
 70
     1
102
RTVSPost2010Prop41ColorIndex
 90
       18
102
RTVSPost2010Prop41ColorRGB
 90
        0
102
RTVSPost2010PropOp41
 70
     1
102
RTVSPost2010Prop42
 90
       50
102
RTVSPost2010PropOp42
 70
     1
102
RTVSPost2010Prop43
 90
        3
102
RTVSPost2010PropOp43
 70
     1
102
RTVSPost2010Prop44ColorIndex
 90
        5
102
RTVSPost2010Prop44ColorRGB
 90
      255
102
RTVSPost2010PropOp44
 70
     1
102
RTVSPost2010Prop45
280
     0
102
RTVSPost2010PropOp45
 70
     1
102
RTVSPost2010Prop46
 90
       50
102
RTVSPost2010PropOp46
 70
     1
102
RTVSPost2010Prop47
 90
       50
102
RTVSPost2010PropOp47
 70
     1
102
RTVSPost2010Prop48
 90
       50
102
RTVSPost2010PropOp48
 70
     1
102
RTVSPost2010Prop49
280
     0
102
RTVSPost2010PropOp49
 70
     1
102
RTVSPost2010Prop50
 90
       50
102
RTVSPost2010PropOp50
 70
     1
102
RTVSPost2010Prop51ColorIndex
 90
      256
102
RTVSPost2010Prop51ColorRGB
 90
-16777216
102
RTVSPost2010PropOp51
 70
     0
102
RTVSPost2010Prop52
140
1.0
102
RTVSPost2010PropOp52
 70
     0
102
RTVSPost2010Prop53
 90
        2
102
RTVSPost2010PropOp53
 70
     1
102
RTVSPost2010Prop54
  1
strokes_ogs.tif
102
RTVSPost2010PropOp54
 70
     1
102
RTVSPost2010Prop55
280
     0
102
RTVSPost2010PropOp55
 70
     1
102
RTVSPost2010Prop56
140
1.0
102
RTVSPost2010PropOp56
 70
     1
102
RTVSPost2010Prop57
140
1.0
102
RTVSPost2010PropOp57
 70
     1
102
RTVSPropertyOp0
 70
     1
102
RTVSPropertyOp1
 70
     1
102
RTVSPropertyOp2
 70
     1
102
RTVSPropertyOp3
 70
     1
102
RTVSPropertyOp4
 70
     1
102
RTVSPropertyOp5
 70
     1
102
RTVSPropertyOp6
 70
     1
102
RTVSPropertyOp7
 70
     1
102
RTVSPropertyOp8
 70
     1
102
RTVSPropertyOp9
 70
     1
102
RTVSPropertyOp10
 70
     1
102
RTVSPropertyOp11
 70
     1
102
RTVSPropertyOp12
 70
     1
102
RTVSPropertyOp13
 70
     1
102
RTVSPropertyOp14
 70
     1
102
RTVSPropertyOp15
 70
     1
102
RTVSPropertyOp16
 70
     1
102
RTVSPropertyOp17
 70
     1
102
RTVSPropertyOp18
 70
     1
102
RTVSPropertyOp19
 70
     1
102
RTVSPropertyOp20
 70
     1
102
RTVSPropertyOp21
 70
     1
102
RTVSPropertyOp22
 70
     1
102
RTVSPropertyOp23
 70
     1
102
RTVSPropertyOp24
 70
     1
102
RTVSPropertyOp25
 70
     1
102
RTVSPropertyOp26
 70
     1
102
RTVSPropertyOp27
 70
     1
102
RTVSPropertyOp28
 70
     1
102
RTVSPropertyOp29
 70
     1
102
RTVSPropertyOp30
 70
     1
102
RTVSPropertyOp31
 70
     1
102
RTVSPropertyOp32
 70
     1
102
RTVSPropertyOp33
 70
     1
102
RTVSPropertyOp34
 70
     1
102
RTVSPropertyOp35
 70
     1
102
RTVSPropertyOp36
 70
     1
102
RTVSPropertyOp37
 70
     1
102
RTVSPropertyOp38
 70
     1
102
RTVSPropertyOp39
 70
     1
102
RTVSPropertyOp40
 70
     1
102
RTVSPropertyOp41
 70
     1
102
RTVSPropertyOp42
 70
     1
102
RTVSPropertyOp43
 70
     1
102
RTVSPropertyOp44
 70
     1
102
RTVSPropertyOp45
 70
     1
102
RTVSPropertyOp46
 70
     1
102
RTVSPropertyOp47
 70
     1
102
RTVSPropertyOp48
 70
     1
102
RTVSPropertyOp49
 70
     1
102
RTVSPropertyOp50
 70
     1
102
RTVSPropertyOp51
 70
     0
102
RTVSPropertyOp52
 70
     0
102
RTVSPropertyOp53
 70
     1
102
RTVSPropertyOp54
 70
     1
102
RTVSPropertyOp55
 70
     1
102
RTVSPropertyOp56
 70
     1
102
RTVSPropertyOp57
 70
     1
102
RTVSPropertyOp58
 70
     1
102
RTVSPropertyOp59
 70
     1
102
RTVSPropertyOp60
 70
     1
102
RTVSPropertyOp61
 70
     1
102
RTVSPropertyOp62
 70
     1
  0
XRECORD
  5
18D
102
{ACAD_REACTORS
330
18C
102
}
330
18C
100
AcDbXrecord
280
     1
102
RTVSPost2010Prop28
280
     0
102
RTVSPost2010PropOp28
 70
     1
102
RTVSPost2010Prop29
280
     1
102
RTVSPost2010PropOp29
 70
     1
102
RTVSPost2010Prop30
280
     1
102
RTVSPost2010PropOp30
 70
     1
102
RTVSPost2010Prop31
280
     0
102
RTVSPost2010PropOp31
 70
     1
102
RTVSPost2010Prop32
280
     0
102
RTVSPost2010PropOp32
 70
     1
102
RTVSPost2010Prop33
280
     0
102
RTVSPost2010PropOp33
 70
     1
102
RTVSPost2010Prop34
280
     0
102
RTVSPost2010PropOp34
 70
     1
102
RTVSPost2010Prop35
280
     0
102
RTVSPost2010PropOp35
 70
     1
102
RTVSPost2010Prop36
280
     0
102
RTVSPost2010PropOp36
 70
     1
102
RTVSPost2010Prop37
 90
       50
102
RTVSPost2010PropOp37
 70
     1
102
RTVSPost2010Prop38
140
0.0
102
RTVSPost2010PropOp38
 70
     1
102
RTVSPost2010Prop39
140
1.0
102
RTVSPost2010PropOp39
 70
     1
102
RTVSPost2010Prop40
 90
        0
102
RTVSPost2010PropOp40
 70
     1
102
RTVSPost2010Prop41ColorIndex
 90
       18
102
RTVSPost2010Prop41ColorRGB
 90
        0
102
RTVSPost2010PropOp41
 70
     1
102
RTVSPost2010Prop42
 90
       50
102
RTVSPost2010PropOp42
 70
     1
102
RTVSPost2010Prop43
 90
        3
102
RTVSPost2010PropOp43
 70
     1
102
RTVSPost2010Prop44ColorIndex
 90
        5
102
RTVSPost2010Prop44ColorRGB
 90
      255
102
RTVSPost2010PropOp44
 70
     1
102
RTVSPost2010Prop45
280
     0
102
RTVSPost2010PropOp45
 70
     1
102
RTVSPost2010Prop46
 90
       50
102
RTVSPost2010PropOp46
 70
     1
102
RTVSPost2010Prop47
 90
       50
102
RTVSPost2010PropOp47
 70
     1
102
RTVSPost2010Prop48
 90
       50
102
RTVSPost2010PropOp48
 70
     1
102
RTVSPost2010Prop49
280
     0
102
RTVSPost2010PropOp49
 70
     1
102
RTVSPost2010Prop50
 90
       50
102
RTVSPost2010PropOp50
 70
     1
102
RTVSPost2010Prop51ColorIndex
 90
      256
102
RTVSPost2010Prop51ColorRGB
 90
-16777216
102
RTVSPost2010PropOp51
 70
     0
102
RTVSPost2010Prop52
140
1.0
102
RTVSPost2010PropOp52
 70
     0
102
RTVSPost2010Prop53
 90
        2
102
RTVSPost2010PropOp53
 70
     1
102
RTVSPost2010Prop54
  1
strokes_ogs.tif
102
RTVSPost2010PropOp54
 70
     1
102
RTVSPost2010Prop55
280
     0
102
RTVSPost2010PropOp55
 70
     1
102
RTVSPost2010Prop56
140
1.0
102
RTVSPost2010PropOp56
 70
     1
102
RTVSPost2010Prop57
140
1.0
102
RTVSPost2010PropOp57
 70
     1
102
RTVSPropertyOp0
 70
     1
102
RTVSPropertyOp1
 70
     1
102
RTVSPropertyOp2
 70
     1
102
RTVSPropertyOp3
 70
     1
102
RTVSPropertyOp4
 70
     1
102
RTVSPropertyOp5
 70
     1
102
RTVSPropertyOp6
 70
     1
102
RTVSPropertyOp7
 70
     1
102
RTVSPropertyOp8
 70
     1
102
RTVSPropertyOp9
 70
     1
102
RTVSPropertyOp10
 70
     1
102
RTVSPropertyOp11
 70
     1
102
RTVSPropertyOp12
 70
     1
102
RTVSPropertyOp13
 70
     1
102
RTVSPropertyOp14
 70
     1
102
RTVSPropertyOp15
 70
     1
102
RTVSPropertyOp16
 70
     1
102
RTVSPropertyOp17
 70
     1
102
RTVSPropertyOp18
 70
     1
102
RTVSPropertyOp19
 70
     1
102
RTVSPropertyOp20
 70
     1
102
RTVSPropertyOp21
 70
     1
102
RTVSPropertyOp22
 70
     1
102
RTVSPropertyOp23
 70
     1
102
RTVSPropertyOp24
 70
     1
102
RTVSPropertyOp25
 70
     1
102
RTVSPropertyOp26
 70
     1
102
RTVSPropertyOp27
 70
     1
102
RTVSPropertyOp28
 70
     1
102
RTVSPropertyOp29
 70
     1
102
RTVSPropertyOp30
 70
     1
102
RTVSPropertyOp31
 70
     1
102
RTVSPropertyOp32
 70
     1
102
RTVSPropertyOp33
 70
     1
102
RTVSPropertyOp34
 70
     1
102
RTVSPropertyOp35
 70
     1
102
RTVSPropertyOp36
 70
     1
102
RTVSPropertyOp37
 70
     1
102
RTVSPropertyOp38
 70
     1
102
RTVSPropertyOp39
 70
     1
102
RTVSPropertyOp40
 70
     1
102
RTVSPropertyOp41
 70
     1
102
RTVSPropertyOp42
 70
     1
102
RTVSPropertyOp43
 70
     1
102
RTVSPropertyOp44
 70
     1
102
RTVSPropertyOp45
 70
     1
102
RTVSPropertyOp46
 70
     1
102
RTVSPropertyOp47
 70
     1
102
RTVSPropertyOp48
 70
     1
102
RTVSPropertyOp49
 70
     1
102
RTVSPropertyOp50
 70
     1
102
RTVSPropertyOp51
 70
     0
102
RTVSPropertyOp52
 70
     0
102
RTVSPropertyOp53
 70
     1
102
RTVSPropertyOp54
 70
     1
102
RTVSPropertyOp55
 70
     1
102
RTVSPropertyOp56
 70
     1
102
RTVSPropertyOp57
 70
     1
102
RTVSPropertyOp58
 70
     1
102
RTVSPropertyOp59
 70
     1
102
RTVSPropertyOp60
 70
     1
102
RTVSPropertyOp61
 70
     1
102
RTVSPropertyOp62
 70
     1
  0
XRECORD
  5
187
102
{ACAD_REACTORS
330
186
102
}
330
186
100
AcDbXrecord
280
     1
102
RTVSPost2010Prop28
280
     0
102
RTVSPost2010PropOp28
 70
     1
102
RTVSPost2010Prop29
280
     1
102
RTVSPost2010PropOp29
 70
     1
102
RTVSPost2010Prop30
280
     1
102
RTVSPost2010PropOp30
 70
     1
102
RTVSPost2010Prop31
280
     0
102
RTVSPost2010PropOp31
 70
     1
102
RTVSPost2010Prop32
280
     0
102
RTVSPost2010PropOp32
 70
     1
102
RTVSPost2010Prop33
280
     0
102
RTVSPost2010PropOp33
 70
     1
102
RTVSPost2010Prop34
280
     0
102
RTVSPost2010PropOp34
 70
     1
102
RTVSPost2010Prop35
280
     0
102
RTVSPost2010PropOp35
 70
     1
102
RTVSPost2010Prop36
280
     0
102
RTVSPost2010PropOp36
 70
     1
102
RTVSPost2010Prop37
 90
       50
102
RTVSPost2010PropOp37
 70
     1
102
RTVSPost2010Prop38
140
0.0
102
RTVSPost2010PropOp38
 70
     1
102
RTVSPost2010Prop39
140
1.0
102
RTVSPost2010PropOp39
 70
     1
102
RTVSPost2010Prop40
 90
        0
102
RTVSPost2010PropOp40
 70
     1
102
RTVSPost2010Prop41ColorIndex
 90
       18
102
RTVSPost2010Prop41ColorRGB
 90
        0
102
RTVSPost2010PropOp41
 70
     1
102
RTVSPost2010Prop42
 90
       50
102
RTVSPost2010PropOp42
 70
     1
102
RTVSPost2010Prop43
 90
        3
102
RTVSPost2010PropOp43
 70
     1
102
RTVSPost2010Prop44ColorIndex
 90
        5
102
RTVSPost2010Prop44ColorRGB
 90
      255
102
RTVSPost2010PropOp44
 70
     1
102
RTVSPost2010Prop45
280
     0
102
RTVSPost2010PropOp45
 70
     1
102
RTVSPost2010Prop46
 90
       50
102
RTVSPost2010PropOp46
 70
     1
102
RTVSPost2010Prop47
 90
       50
102
RTVSPost2010PropOp47
 70
     1
102
RTVSPost2010Prop48
 90
       50
102
RTVSPost2010PropOp48
 70
     1
102
RTVSPost2010Prop49
280
     0
102
RTVSPost2010PropOp49
 70
     1
102
RTVSPost2010Prop50
 90
       50
102
RTVSPost2010PropOp50
 70
     1
102
RTVSPost2010Prop51ColorIndex
 90
      256
102
RTVSPost2010Prop51ColorRGB
 90
-16777216
102
RTVSPost2010PropOp51
 70
     0
102
RTVSPost2010Prop52
140
1.0
102
RTVSPost2010PropOp52
 70
     0
102
RTVSPost2010Prop53
 90
        2
102
RTVSPost2010PropOp53
 70
     1
102
RTVSPost2010Prop54
  1
strokes_ogs.tif
102
RTVSPost2010PropOp54
 70
     1
102
RTVSPost2010Prop55
280
     0
102
RTVSPost2010PropOp55
 70
     1
102
RTVSPost2010Prop56
140
1.0
102
RTVSPost2010PropOp56
 70
     1
102
RTVSPost2010Prop57
140
1.0
102
RTVSPost2010PropOp57
 70
     1
102
RTVSPropertyOp0
 70
     1
102
RTVSPropertyOp1
 70
     1
102
RTVSPropertyOp2
 70
     1
102
RTVSPropertyOp3
 70
     1
102
RTVSPropertyOp4
 70
     1
102
RTVSPropertyOp5
 70
     1
102
RTVSPropertyOp6
 70
     1
102
RTVSPropertyOp7
 70
     1
102
RTVSPropertyOp8
 70
     1
102
RTVSPropertyOp9
 70
     1
102
RTVSPropertyOp10
 70
     1
102
RTVSPropertyOp11
 70
     1
102
RTVSPropertyOp12
 70
     1
102
RTVSPropertyOp13
 70
     1
102
RTVSPropertyOp14
 70
     1
102
RTVSPropertyOp15
 70
     1
102
RTVSPropertyOp16
 70
     1
102
RTVSPropertyOp17
 70
     1
102
RTVSPropertyOp18
 70
     1
102
RTVSPropertyOp19
 70
     1
102
RTVSPropertyOp20
 70
     1
102
RTVSPropertyOp21
 70
     1
102
RTVSPropertyOp22
 70
     1
102
RTVSPropertyOp23
 70
     1
102
RTVSPropertyOp24
 70
     1
102
RTVSPropertyOp25
 70
     1
102
RTVSPropertyOp26
 70
     1
102
RTVSPropertyOp27
 70
     1
102
RTVSPropertyOp28
 70
     1
102
RTVSPropertyOp29
 70
     1
102
RTVSPropertyOp30
 70
     1
102
RTVSPropertyOp31
 70
     1
102
RTVSPropertyOp32
 70
     1
102
RTVSPropertyOp33
 70
     1
102
RTVSPropertyOp34
 70
     1
102
RTVSPropertyOp35
 70
     1
102
RTVSPropertyOp36
 70
     1
102
RTVSPropertyOp37
 70
     1
102
RTVSPropertyOp38
 70
     1
102
RTVSPropertyOp39
 70
     1
102
RTVSPropertyOp40
 70
     1
102
RTVSPropertyOp41
 70
     1
102
RTVSPropertyOp42
 70
     1
102
RTVSPropertyOp43
 70
     1
102
RTVSPropertyOp44
 70
     1
102
RTVSPropertyOp45
 70
     1
102
RTVSPropertyOp46
 70
     1
102
RTVSPropertyOp47
 70
     1
102
RTVSPropertyOp48
 70
     1
102
RTVSPropertyOp49
 70
     1
102
RTVSPropertyOp50
 70
     1
102
RTVSPropertyOp51
 70
     0
102
RTVSPropertyOp52
 70
     0
102
RTVSPropertyOp53
 70
     1
102
RTVSPropertyOp54
 70
     1
102
RTVSPropertyOp55
 70
     1
102
RTVSPropertyOp56
 70
     1
102
RTVSPropertyOp57
 70
     1
102
RTVSPropertyOp58
 70
     1
102
RTVSPropertyOp59
 70
     1
102
RTVSPropertyOp60
 70
     1
102
RTVSPropertyOp61
 70
     1
102
RTVSPropertyOp62
 70
     1
  0
XRECORD
  5
189
102
{ACAD_REACTORS
330
188
102
}
330
188
100
AcDbXrecord
280
     1
102
RTVSPost2010Prop28
280
     0
102
RTVSPost2010PropOp28
 70
     1
102
RTVSPost2010Prop29
280
     1
102
RTVSPost2010PropOp29
 70
     1
102
RTVSPost2010Prop30
280
     1
102
RTVSPost2010PropOp30
 70
     1
102
RTVSPost2010Prop31
280
     0
102
RTVSPost2010PropOp31
 70
     1
102
RTVSPost2010Prop32
280
     0
102
RTVSPost2010PropOp32
 70
     1
102
RTVSPost2010Prop33
280
     0
102
RTVSPost2010PropOp33
 70
     1
102
RTVSPost2010Prop34
280
     0
102
RTVSPost2010PropOp34
 70
     1
102
RTVSPost2010Prop35
280
     0
102
RTVSPost2010PropOp35
 70
     1
102
RTVSPost2010Prop36
280
     0
102
RTVSPost2010PropOp36
 70
     1
102
RTVSPost2010Prop37
 90
       50
102
RTVSPost2010PropOp37
 70
     1
102
RTVSPost2010Prop38
140
0.0
102
RTVSPost2010PropOp38
 70
     1
102
RTVSPost2010Prop39
140
1.0
102
RTVSPost2010PropOp39
 70
     1
102
RTVSPost2010Prop40
 90
        0
102
RTVSPost2010PropOp40
 70
     1
102
RTVSPost2010Prop41ColorIndex
 90
       18
102
RTVSPost2010Prop41ColorRGB
 90
        0
102
RTVSPost2010PropOp41
 70
     1
102
RTVSPost2010Prop42
 90
       50
102
RTVSPost2010PropOp42
 70
     1
102
RTVSPost2010Prop43
 90
        3
102
RTVSPost2010PropOp43
 70
     1
102
RTVSPost2010Prop44ColorIndex
 90
        5
102
RTVSPost2010Prop44ColorRGB
 90
      255
102
RTVSPost2010PropOp44
 70
     1
102
RTVSPost2010Prop45
280
     0
102
RTVSPost2010PropOp45
 70
     1
102
RTVSPost2010Prop46
 90
       50
102
RTVSPost2010PropOp46
 70
     1
102
RTVSPost2010Prop47
 90
       50
102
RTVSPost2010PropOp47
 70
     1
102
RTVSPost2010Prop48
 90
       50
102
RTVSPost2010PropOp48
 70
     1
102
RTVSPost2010Prop49
280
     0
102
RTVSPost2010PropOp49
 70
     1
102
RTVSPost2010Prop50
 90
       50
102
RTVSPost2010PropOp50
 70
     1
102
RTVSPost2010Prop51ColorIndex
 90
      256
102
RTVSPost2010Prop51ColorRGB
 90
-16777216
102
RTVSPost2010PropOp51
 70
     0
102
RTVSPost2010Prop52
140
1.0
102
RTVSPost2010PropOp52
 70
     0
102
RTVSPost2010Prop53
 90
        2
102
RTVSPost2010PropOp53
 70
     1
102
RTVSPost2010Prop54
  1
strokes_ogs.tif
102
RTVSPost2010PropOp54
 70
     1
102
RTVSPost2010Prop55
280
     0
102
RTVSPost2010PropOp55
 70
     1
102
RTVSPost2010Prop56
140
1.0
102
RTVSPost2010PropOp56
 70
     1
102
RTVSPost2010Prop57
140
1.0
102
RTVSPost2010PropOp57
 70
     1
102
RTVSPropertyOp0
 70
     1
102
RTVSPropertyOp1
 70
     1
102
RTVSPropertyOp2
 70
     1
102
RTVSPropertyOp3
 70
     1
102
RTVSPropertyOp4
 70
     1
102
RTVSPropertyOp5
 70
     1
102
RTVSPropertyOp6
 70
     1
102
RTVSPropertyOp7
 70
     1
102
RTVSPropertyOp8
 70
     1
102
RTVSPropertyOp9
 70
     1
102
RTVSPropertyOp10
 70
     1
102
RTVSPropertyOp11
 70
     1
102
RTVSPropertyOp12
 70
     1
102
RTVSPropertyOp13
 70
     1
102
RTVSPropertyOp14
 70
     1
102
RTVSPropertyOp15
 70
     1
102
RTVSPropertyOp16
 70
     1
102
RTVSPropertyOp17
 70
     1
102
RTVSPropertyOp18
 70
     1
102
RTVSPropertyOp19
 70
     1
102
RTVSPropertyOp20
 70
     1
102
RTVSPropertyOp21
 70
     1
102
RTVSPropertyOp22
 70
     1
102
RTVSPropertyOp23
 70
     1
102
RTVSPropertyOp24
 70
     1
102
RTVSPropertyOp25
 70
     1
102
RTVSPropertyOp26
 70
     1
102
RTVSPropertyOp27
 70
     1
102
RTVSPropertyOp28
 70
     1
102
RTVSPropertyOp29
 70
     1
102
RTVSPropertyOp30
 70
     1
102
RTVSPropertyOp31
 70
     1
102
RTVSPropertyOp32
 70
     1
102
RTVSPropertyOp33
 70
     1
102
RTVSPropertyOp34
 70
     1
102
RTVSPropertyOp35
 70
     1
102
RTVSPropertyOp36
 70
     1
102
RTVSPropertyOp37
 70
     1
102
RTVSPropertyOp38
 70
     1
102
RTVSPropertyOp39
 70
     1
102
RTVSPropertyOp40
 70
     1
102
RTVSPropertyOp41
 70
     1
102
RTVSPropertyOp42
 70
     1
102
RTVSPropertyOp43
 70
     1
102
RTVSPropertyOp44
 70
     1
102
RTVSPropertyOp45
 70
     1
102
RTVSPropertyOp46
 70
     1
102
RTVSPropertyOp47
 70
     1
102
RTVSPropertyOp48
 70
     1
102
RTVSPropertyOp49
 70
     1
102
RTVSPropertyOp50
 70
     1
102
RTVSPropertyOp51
 70
     0
102
RTVSPropertyOp52
 70
     0
102
RTVSPropertyOp53
 70
     1
102
RTVSPropertyOp54
 70
     1
102
RTVSPropertyOp55
 70
     1
102
RTVSPropertyOp56
 70
     1
102
RTVSPropertyOp57
 70
     1
102
RTVSPropertyOp58
 70
     1
102
RTVSPropertyOp59
 70
     1
102
RTVSPropertyOp60
 70
     1
102
RTVSPropertyOp61
 70
     1
102
RTVSPropertyOp62
 70
     1
  0
XRECORD
  5
17F
102
{ACAD_REACTORS
330
17E
102
}
330
17E
100
AcDbXrecord
280
     1
102
RTVSPost2010Prop28
280
     0
102
RTVSPost2010PropOp28
 70
     1
102
RTVSPost2010Prop29
280
     1
102
RTVSPost2010PropOp29
 70
     1
102
RTVSPost2010Prop30
280
     1
102
RTVSPost2010PropOp30
 70
     1
102
RTVSPost2010Prop31
280
     0
102
RTVSPost2010PropOp31
 70
     1
102
RTVSPost2010Prop32
280
     0
102
RTVSPost2010PropOp32
 70
     1
102
RTVSPost2010Prop33
280
     0
102
RTVSPost2010PropOp33
 70
     1
102
RTVSPost2010Prop34
280
     0
102
RTVSPost2010PropOp34
 70
     1
102
RTVSPost2010Prop35
280
     0
102
RTVSPost2010PropOp35
 70
     1
102
RTVSPost2010Prop36
280
     0
102
RTVSPost2010PropOp36
 70
     1
102
RTVSPost2010Prop37
 90
       50
102
RTVSPost2010PropOp37
 70
     1
102
RTVSPost2010Prop38
140
0.0
102
RTVSPost2010PropOp38
 70
     1
102
RTVSPost2010Prop39
140
1.0
102
RTVSPost2010PropOp39
 70
     1
102
RTVSPost2010Prop40
 90
        0
102
RTVSPost2010PropOp40
 70
     1
102
RTVSPost2010Prop41ColorIndex
 90
       18
102
RTVSPost2010Prop41ColorRGB
 90
        0
102
RTVSPost2010PropOp41
 70
     1
102
RTVSPost2010Prop42
 90
       50
102
RTVSPost2010PropOp42
 70
     1
102
RTVSPost2010Prop43
 90
        3
102
RTVSPost2010PropOp43
 70
     1
102
RTVSPost2010Prop44ColorIndex
 90
        5
102
RTVSPost2010Prop44ColorRGB
 90
      255
102
RTVSPost2010PropOp44
 70
     1
102
RTVSPost2010Prop45
280
     0
102
RTVSPost2010PropOp45
 70
     1
102
RTVSPost2010Prop46
 90
       50
102
RTVSPost2010PropOp46
 70
     1
102
RTVSPost2010Prop47
 90
       50
102
RTVSPost2010PropOp47
 70
     1
102
RTVSPost2010Prop48
 90
       50
102
RTVSPost2010PropOp48
 70
     1
102
RTVSPost2010Prop49
280
     0
102
RTVSPost2010PropOp49
 70
     1
102
RTVSPost2010Prop50
 90
       50
102
RTVSPost2010PropOp50
 70
     1
102
RTVSPost2010Prop51ColorIndex
 90
      256
102
RTVSPost2010Prop51ColorRGB
 90
-16777216
102
RTVSPost2010PropOp51
 70
     0
102
RTVSPost2010Prop52
140
1.0
102
RTVSPost2010PropOp52
 70
     0
102
RTVSPost2010Prop53
 90
        2
102
RTVSPost2010PropOp53
 70
     1
102
RTVSPost2010Prop54
  1
strokes_ogs.tif
102
RTVSPost2010PropOp54
 70
     1
102
RTVSPost2010Prop55
280
     0
102
RTVSPost2010PropOp55
 70
     1
102
RTVSPost2010Prop56
140
1.0
102
RTVSPost2010PropOp56
 70
     1
102
RTVSPost2010Prop57
140
1.0
102
RTVSPost2010PropOp57
 70
     1
102
RTVSPropertyOp0
 70
     1
102
RTVSPropertyOp1
 70
     1
102
RTVSPropertyOp2
 70
     1
102
RTVSPropertyOp3
 70
     1
102
RTVSPropertyOp4
 70
     1
102
RTVSPropertyOp5
 70
     1
102
RTVSPropertyOp6
 70
     1
102
RTVSPropertyOp7
 70
     1
102
RTVSPropertyOp8
 70
     1
102
RTVSPropertyOp9
 70
     1
102
RTVSPropertyOp10
 70
     1
102
RTVSPropertyOp11
 70
     1
102
RTVSPropertyOp12
 70
     1
102
RTVSPropertyOp13
 70
     1
102
RTVSPropertyOp14
 70
     1
102
RTVSPropertyOp15
 70
     1
102
RTVSPropertyOp16
 70
     1
102
RTVSPropertyOp17
 70
     1
102
RTVSPropertyOp18
 70
     1
102
RTVSPropertyOp19
 70
     1
102
RTVSPropertyOp20
 70
     1
102
RTVSPropertyOp21
 70
     1
102
RTVSPropertyOp22
 70
     1
102
RTVSPropertyOp23
 70
     1
102
RTVSPropertyOp24
 70
     1
102
RTVSPropertyOp25
 70
     1
102
RTVSPropertyOp26
 70
     1
102
RTVSPropertyOp27
 70
     1
102
RTVSPropertyOp28
 70
     1
102
RTVSPropertyOp29
 70
     1
102
RTVSPropertyOp30
 70
     1
102
RTVSPropertyOp31
 70
     1
102
RTVSPropertyOp32
 70
     1
102
RTVSPropertyOp33
 70
     1
102
RTVSPropertyOp34
 70
     1
102
RTVSPropertyOp35
 70
     1
102
RTVSPropertyOp36
 70
     1
102
RTVSPropertyOp37
 70
     1
102
RTVSPropertyOp38
 70
     1
102
RTVSPropertyOp39
 70
     1
102
RTVSPropertyOp40
 70
     1
102
RTVSPropertyOp41
 70
     1
102
RTVSPropertyOp42
 70
     1
102
RTVSPropertyOp43
 70
     1
102
RTVSPropertyOp44
 70
     1
102
RTVSPropertyOp45
 70
     1
102
RTVSPropertyOp46
 70
     1
102
RTVSPropertyOp47
 70
     1
102
RTVSPropertyOp48
 70
     1
102
RTVSPropertyOp49
 70
     1
102
RTVSPropertyOp50
 70
     1
102
RTVSPropertyOp51
 70
     0
102
RTVSPropertyOp52
 70
     0
102
RTVSPropertyOp53
 70
     1
102
RTVSPropertyOp54
 70
     1
102
RTVSPropertyOp55
 70
     1
102
RTVSPropertyOp56
 70
     1
102
RTVSPropertyOp57
 70
     1
102
RTVSPropertyOp58
 70
     1
102
RTVSPropertyOp59
 70
     1
102
RTVSPropertyOp60
 70
     1
102
RTVSPropertyOp61
 70
     1
102
RTVSPropertyOp62
 70
     1
  0
XRECORD
  5
173
102
{ACAD_REACTORS
330
172
102
}
330
172
100
AcDbXrecord
280
     1
102
RTVSPost2010Prop28
280
     0
102
RTVSPost2010PropOp28
 70
     1
102
RTVSPost2010Prop29
280
     1
102
RTVSPost2010PropOp29
 70
     1
102
RTVSPost2010Prop30
280
     1
102
RTVSPost2010PropOp30
 70
     1
102
RTVSPost2010Prop31
280
     0
102
RTVSPost2010PropOp31
 70
     1
102
RTVSPost2010Prop32
280
     0
102
RTVSPost2010PropOp32
 70
     1
102
RTVSPost2010Prop33
280
     0
102
RTVSPost2010PropOp33
 70
     1
102
RTVSPost2010Prop34
280
     0
102
RTVSPost2010PropOp34
 70
     1
102
RTVSPost2010Prop35
280
     0
102
RTVSPost2010PropOp35
 70
     1
102
RTVSPost2010Prop36
280
     0
102
RTVSPost2010PropOp36
 70
     1
102
RTVSPost2010Prop37
 90
       50
102
RTVSPost2010PropOp37
 70
     1
102
RTVSPost2010Prop38
140
0.0
102
RTVSPost2010PropOp38
 70
     1
102
RTVSPost2010Prop39
140
1.0
102
RTVSPost2010PropOp39
 70
     1
102
RTVSPost2010Prop40
 90
        0
102
RTVSPost2010PropOp40
 70
     1
102
RTVSPost2010Prop41ColorIndex
 90
       18
102
RTVSPost2010Prop41ColorRGB
 90
        0
102
RTVSPost2010PropOp41
 70
     1
102
RTVSPost2010Prop42
 90
       50
102
RTVSPost2010PropOp42
 70
     1
102
RTVSPost2010Prop43
 90
        3
102
RTVSPost2010PropOp43
 70
     1
102
RTVSPost2010Prop44ColorIndex
 90
        5
102
RTVSPost2010Prop44ColorRGB
 90
      255
102
RTVSPost2010PropOp44
 70
     1
102
RTVSPost2010Prop45
280
     0
102
RTVSPost2010PropOp45
 70
     1
102
RTVSPost2010Prop46
 90
       50
102
RTVSPost2010PropOp46
 70
     1
102
RTVSPost2010Prop47
 90
       50
102
RTVSPost2010PropOp47
 70
     1
102
RTVSPost2010Prop48
 90
       50
102
RTVSPost2010PropOp48
 70
     1
102
RTVSPost2010Prop49
280
     0
102
RTVSPost2010PropOp49
 70
     1
102
RTVSPost2010Prop50
 90
       50
102
RTVSPost2010PropOp50
 70
     1
102
RTVSPost2010Prop51ColorIndex
 90
      256
102
RTVSPost2010Prop51ColorRGB
 90
-16777216
102
RTVSPost2010PropOp51
 70
     0
102
RTVSPost2010Prop52
140
1.0
102
RTVSPost2010PropOp52
 70
     0
102
RTVSPost2010Prop53
 90
        2
102
RTVSPost2010PropOp53
 70
     1
102
RTVSPost2010Prop54
  1
strokes_ogs.tif
102
RTVSPost2010PropOp54
 70
     1
102
RTVSPost2010Prop55
280
     0
102
RTVSPost2010PropOp55
 70
     1
102
RTVSPost2010Prop56
140
1.0
102
RTVSPost2010PropOp56
 70
     1
102
RTVSPost2010Prop57
140
1.0
102
RTVSPost2010PropOp57
 70
     1
102
RTVSPropertyOp0
 70
     1
102
RTVSPropertyOp1
 70
     1
102
RTVSPropertyOp2
 70
     1
102
RTVSPropertyOp3
 70
     1
102
RTVSPropertyOp4
 70
     1
102
RTVSPropertyOp5
 70
     1
102
RTVSPropertyOp6
 70
     1
102
RTVSPropertyOp7
 70
     1
102
RTVSPropertyOp8
 70
     1
102
RTVSPropertyOp9
 70
     1
102
RTVSPropertyOp10
 70
     1
102
RTVSPropertyOp11
 70
     1
102
RTVSPropertyOp12
 70
     1
102
RTVSPropertyOp13
 70
     1
102
RTVSPropertyOp14
 70
     1
102
RTVSPropertyOp15
 70
     1
102
RTVSPropertyOp16
 70
     1
102
RTVSPropertyOp17
 70
     1
102
RTVSPropertyOp18
 70
     1
102
RTVSPropertyOp19
 70
     1
102
RTVSPropertyOp20
 70
     1
102
RTVSPropertyOp21
 70
     1
102
RTVSPropertyOp22
 70
     1
102
RTVSPropertyOp23
 70
     1
102
RTVSPropertyOp24
 70
     1
102
RTVSPropertyOp25
 70
     1
102
RTVSPropertyOp26
 70
     1
102
RTVSPropertyOp27
 70
     1
102
RTVSPropertyOp28
 70
     1
102
RTVSPropertyOp29
 70
     1
102
RTVSPropertyOp30
 70
     1
102
RTVSPropertyOp31
 70
     1
102
RTVSPropertyOp32
 70
     1
102
RTVSPropertyOp33
 70
     1
102
RTVSPropertyOp34
 70
     1
102
RTVSPropertyOp35
 70
     1
102
RTVSPropertyOp36
 70
     1
102
RTVSPropertyOp37
 70
     1
102
RTVSPropertyOp38
 70
     1
102
RTVSPropertyOp39
 70
     1
102
RTVSPropertyOp40
 70
     1
102
RTVSPropertyOp41
 70
     1
102
RTVSPropertyOp42
 70
     1
102
RTVSPropertyOp43
 70
     1
102
RTVSPropertyOp44
 70
     1
102
RTVSPropertyOp45
 70
     1
102
RTVSPropertyOp46
 70
     1
102
RTVSPropertyOp47
 70
     1
102
RTVSPropertyOp48
 70
     1
102
RTVSPropertyOp49
 70
     1
102
RTVSPropertyOp50
 70
     1
102
RTVSPropertyOp51
 70
     0
102
RTVSPropertyOp52
 70
     0
102
RTVSPropertyOp53
 70
     1
102
RTVSPropertyOp54
 70
     1
102
RTVSPropertyOp55
 70
     1
102
RTVSPropertyOp56
 70
     1
102
RTVSPropertyOp57
 70
     1
102
RTVSPropertyOp58
 70
     1
102
RTVSPropertyOp59
 70
     1
102
RTVSPropertyOp60
 70
     1
102
RTVSPropertyOp61
 70
     1
102
RTVSPropertyOp62
 70
     1
  0
XRECORD
  5
18B
102
{ACAD_REACTORS
330
18A
102
}
330
18A
100
AcDbXrecord
280
     1
102
RTVSPost2010Prop28
280
     0
102
RTVSPost2010PropOp28
 70
     1
102
RTVSPost2010Prop29
280
     1
102
RTVSPost2010PropOp29
 70
     1
102
RTVSPost2010Prop30
280
     1
102
RTVSPost2010PropOp30
 70
     1
102
RTVSPost2010Prop31
280
     0
102
RTVSPost2010PropOp31
 70
     1
102
RTVSPost2010Prop32
280
     0
102
RTVSPost2010PropOp32
 70
     1
102
RTVSPost2010Prop33
280
     0
102
RTVSPost2010PropOp33
 70
     1
102
RTVSPost2010Prop34
280
     0
102
RTVSPost2010PropOp34
 70
     1
102
RTVSPost2010Prop35
280
     0
102
RTVSPost2010PropOp35
 70
     1
102
RTVSPost2010Prop36
280
     0
102
RTVSPost2010PropOp36
 70
     1
102
RTVSPost2010Prop37
 90
       50
102
RTVSPost2010PropOp37
 70
     1
102
RTVSPost2010Prop38
140
0.0
102
RTVSPost2010PropOp38
 70
     1
102
RTVSPost2010Prop39
140
1.0
102
RTVSPost2010PropOp39
 70
     1
102
RTVSPost2010Prop40
 90
        0
102
RTVSPost2010PropOp40
 70
     1
102
RTVSPost2010Prop41ColorIndex
 90
       18
102
RTVSPost2010Prop41ColorRGB
 90
        0
102
RTVSPost2010PropOp41
 70
     1
102
RTVSPost2010Prop42
 90
       50
102
RTVSPost2010PropOp42
 70
     1
102
RTVSPost2010Prop43
 90
        3
102
RTVSPost2010PropOp43
 70
     1
102
RTVSPost2010Prop44ColorIndex
 90
        5
102
RTVSPost2010Prop44ColorRGB
 90
      255
102
RTVSPost2010PropOp44
 70
     1
102
RTVSPost2010Prop45
280
     0
102
RTVSPost2010PropOp45
 70
     1
102
RTVSPost2010Prop46
 90
       50
102
RTVSPost2010PropOp46
 70
     1
102
RTVSPost2010Prop47
 90
       50
102
RTVSPost2010PropOp47
 70
     1
102
RTVSPost2010Prop48
 90
       50
102
RTVSPost2010PropOp48
 70
     1
102
RTVSPost2010Prop49
280
     0
102
RTVSPost2010PropOp49
 70
     1
102
RTVSPost2010Prop50
 90
       50
102
RTVSPost2010PropOp50
 70
     1
102
RTVSPost2010Prop51ColorIndex
 90
      256
102
RTVSPost2010Prop51ColorRGB
 90
-16777216
102
RTVSPost2010PropOp51
 70
     0
102
RTVSPost2010Prop52
140
1.0
102
RTVSPost2010PropOp52
 70
     0
102
RTVSPost2010Prop53
 90
        2
102
RTVSPost2010PropOp53
 70
     1
102
RTVSPost2010Prop54
  1
strokes_ogs.tif
102
RTVSPost2010PropOp54
 70
     1
102
RTVSPost2010Prop55
280
     0
102
RTVSPost2010PropOp55
 70
     1
102
RTVSPost2010Prop56
140
1.0
102
RTVSPost2010PropOp56
 70
     1
102
RTVSPost2010Prop57
140
1.0
102
RTVSPost2010PropOp57
 70
     1
102
RTVSPropertyOp0
 70
     1
102
RTVSPropertyOp1
 70
     1
102
RTVSPropertyOp2
 70
     1
102
RTVSPropertyOp3
 70
     1
102
RTVSPropertyOp4
 70
     1
102
RTVSPropertyOp5
 70
     1
102
RTVSPropertyOp6
 70
     1
102
RTVSPropertyOp7
 70
     1
102
RTVSPropertyOp8
 70
     1
102
RTVSPropertyOp9
 70
     1
102
RTVSPropertyOp10
 70
     1
102
RTVSPropertyOp11
 70
     1
102
RTVSPropertyOp12
 70
     1
102
RTVSPropertyOp13
 70
     1
102
RTVSPropertyOp14
 70
     1
102
RTVSPropertyOp15
 70
     1
102
RTVSPropertyOp16
 70
     1
102
RTVSPropertyOp17
 70
     1
102
RTVSPropertyOp18
 70
     1
102
RTVSPropertyOp19
 70
     1
102
RTVSPropertyOp20
 70
     1
102
RTVSPropertyOp21
 70
     1
102
RTVSPropertyOp22
 70
     1
102
RTVSPropertyOp23
 70
     1
102
RTVSPropertyOp24
 70
     1
102
RTVSPropertyOp25
 70
     1
102
RTVSPropertyOp26
 70
     1
102
RTVSPropertyOp27
 70
     1
102
RTVSPropertyOp28
 70
     1
102
RTVSPropertyOp29
 70
     1
102
RTVSPropertyOp30
 70
     1
102
RTVSPropertyOp31
 70
     1
102
RTVSPropertyOp32
 70
     1
102
RTVSPropertyOp33
 70
     1
102
RTVSPropertyOp34
 70
     1
102
RTVSPropertyOp35
 70
     1
102
RTVSPropertyOp36
 70
     1
102
RTVSPropertyOp37
 70
     1
102
RTVSPropertyOp38
 70
     1
102
RTVSPropertyOp39
 70
     1
102
RTVSPropertyOp40
 70
     1
102
RTVSPropertyOp41
 70
     1
102
RTVSPropertyOp42
 70
     1
102
RTVSPropertyOp43
 70
     1
102
RTVSPropertyOp44
 70
     1
102
RTVSPropertyOp45
 70
     1
102
RTVSPropertyOp46
 70
     1
102
RTVSPropertyOp47
 70
     1
102
RTVSPropertyOp48
 70
     1
102
RTVSPropertyOp49
 70
     1
102
RTVSPropertyOp50
 70
     1
102
RTVSPropertyOp51
 70
     0
102
RTVSPropertyOp52
 70
     0
102
RTVSPropertyOp53
 70
     1
102
RTVSPropertyOp54
 70
     1
102
RTVSPropertyOp55
 70
     1
102
RTVSPropertyOp56
 70
     1
102
RTVSPropertyOp57
 70
     1
102
RTVSPropertyOp58
 70
     1
102
RTVSPropertyOp59
 70
     1
102
RTVSPropertyOp60
 70
     1
102
RTVSPropertyOp61
 70
     1
102
RTVSPropertyOp62
 70
     1
  0
ENDSEC
  0
EOF
