  0
SECTION
  2
HEADER
  9
$ACADVER
  1
AC1021
  9
$ACADMAINTVER
 70
    50
  9
$DWGCODEPAGE
  3
ANSI_1252
  9
$LASTSAVEDBY
  1
ufficio.tecnico
  9
$INSBASE
 10
0.0
 20
0.0
 30
0.0
  9
$EXTMIN
 10
1.720849956506093
 20
1.205289187951645
 30
0.0
  9
$EXTMAX
 10
29.64054118494687
 20
35.86480050779822
 30
0.0
  9
$LIMMIN
 10
0.0
 20
0.0
  9
$LIMMAX
 10
12.0
 20
9.0
  9
$ORTHOMODE
 70
     0
  9
$REGENMODE
 70
     1
  9
$FILLMODE
 70
     1
  9
$QTEXTMODE
 70
     0
  9
$MIRRTEXT
 70
     0
  9
$LTSCALE
 40
1.0
  9
$ATTMODE
 70
     1
  9
$TEXTSIZE
 40
0.2
  9
$TRACEWID
 40
0.05
  9
$TEXTSTYLE
  7
Standard
  9
$CLAYER
  8
0
  9
$CELTYPE
  6
ByLayer
  9
$CECOLOR
 62
   256
  9
$CELTSCALE
 40
1.0
  9
$DISPSILH
 70
     0
  9
$DIMSCALE
 40
1.0
  9
$DIMASZ
 40
0.18
  9
$DIMEXO
 40
0.0625
  9
$DIMDLI
 40
0.38
  9
$DIMRND
 40
0.0
  9
$DIMDLE
 40
0.0
  9
$DIMEXE
 40
0.18
  9
$DIMTP
 40
0.0
  9
$DIMTM
 40
0.0
  9
$DIMTXT
 40
0.18
  9
$DIMCEN
 40
0.09
  9
$DIMTSZ
 40
0.0
  9
$DIMTOL
 70
     0
  9
$DIMLIM
 70
     0
  9
$DIMTIH
 70
     1
  9
$DIMTOH
 70
     1
  9
$DIMSE1
 70
     0
  9
$DIMSE2
 70
     0
  9
$DIMTAD
 70
     0
  9
$DIMZIN
 70
     0
  9
$DIMBLK
  1

  9
$DIMASO
 70
     1
  9
$DIMSHO
 70
     1
  9
$DIMPOST
  1

  9
$DIMAPOST
  1

  9
$DIMALT
 70
     0
  9
$DIMALTD
 70
     2
  9
$DIMALTF
 40
25.4
  9
$DIMLFAC
 40
1.0
  9
$DIMTOFL
 70
     0
  9
$DIMTVP
 40
0.0
  9
$DIMTIX
 70
     0
  9
$DIMSOXD
 70
     0
  9
$DIMSAH
 70
     0
  9
$DIMBLK1
  1

  9
$DIMBLK2
  1

  9
$DIMSTYLE
  2
Standard
  9
$DIMCLRD
 70
     0
  9
$DIMCLRE
 70
     0
  9
$DIMCLRT
 70
     0
  9
$DIMTFAC
 40
1.0
  9
$DIMGAP
 40
0.09
  9
$DIMJUST
 70
     0
  9
$DIMSD1
 70
     0
  9
$DIMSD2
 70
     0
  9
$DIMTOLJ
 70
     1
  9
$DIMTZIN
 70
     0
  9
$DIMALTZ
 70
     0
  9
$DIMALTTZ
 70
     0
  9
$DIMUPT
 70
     0
  9
$DIMDEC
 70
     4
  9
$DIMTDEC
 70
     4
  9
$DIMALTU
 70
     2
  9
$DIMALTTD
 70
     2
  9
$DIMTXSTY
  7
Standard
  9
$DIMAUNIT
 70
     0
  9
$DIMADEC
 70
     0
  9
$DIMALTRND
 40
0.0
  9
$DIMAZIN
 70
     0
  9
$DIMDSEP
 70
    46
  9
$DIMATFIT
 70
     3
  9
$DIMFRAC
 70
     0
  9
$DIMLDRBLK
  1

  9
$DIMLUNIT
 70
     2
  9
$DIMLWD
 70
    -2
  9
$DIMLWE
 70
    -2
  9
$DIMTMOVE
 70
     0
  9
$DIMFXL
 40
1.0
  9
$DIMFXLON
 70
     0
  9
$DIMJOGANG
 40
0.7853981633974483
  9
$DIMTFILL
 70
     0
  9
$DIMTFILLCLR
 70
     0
  9
$DIMARCSYM
 70
     0
  9
$DIMLTYPE
  6

  9
$DIMLTEX1
  6

  9
$DIMLTEX2
  6

  9
$LUNITS
 70
     2
  9
$LUPREC
 70
     4
  9
$SKETCHINC
 40
0.1
  9
$FILLETRAD
 40
0.0
  9
$AUNITS
 70
     0
  9
$AUPREC
 70
     0
  9
$MENU
  1
.
  9
$ELEVATION
 40
0.0
  9
$PELEVATION
 40
0.0
  9
$THICKNESS
 40
0.0
  9
$LIMCHECK
 70
     0
  9
$CHAMFERA
 40
0.0
  9
$CHAMFERB
 40
0.0
  9
$CHAMFERC
 40
0.0
  9
$CHAMFERD
 40
0.0
  9
$SKPOLY
 70
     0
  9
$TDCREATE
 40
2459457.589745370
  9
$TDUCREATE
 40
2459457.506412037
  9
$TDUPDATE
 40
2459457.714363426
  9
$TDUUPDATE
 40
2459457.631030093
  9
$TDINDWG
 40
0.0014004630
  9
$TDUSRTIMER
 40
0.0014004630
  9
$USRTIMER
 70
     1
  9
$ANGBASE
 50
0.0
  9
$ANGDIR
 70
     0
  9
$PDMODE
 70
     0
  9
$PDSIZE
 40
0.0
  9
$PLINEWID
 40
0.0
  9
$SPLFRAME
 70
     0
  9
$SPLINETYPE
 70
     6
  9
$SPLINESEGS
 70
     8
  9
$HANDSEED
  5
23A
  9
$SURFTAB1
 70
     6
  9
$SURFTAB2
 70
     6
  9
$SURFTYPE
 70
     6
  9
$SURFU
 70
     6
  9
$SURFV
 70
     6
  9
$UCSBASE
  2

  9
$UCSNAME
  2

  9
$UCSORG
 10
0.0
 20
0.0
 30
0.0
  9
$UCSXDIR
 10
1.0
 20
0.0
 30
0.0
  9
$UCSYDIR
 10
0.0
 20
1.0
 30
0.0
  9
$UCSORTHOREF
  2

  9
$UCSORTHOVIEW
 70
     0
  9
$UCSORGTOP
 10
0.0
 20
0.0
 30
0.0
  9
$UCSORGBOTTOM
 10
0.0
 20
0.0
 30
0.0
  9
$UCSORGLEFT
 10
0.0
 20
0.0
 30
0.0
  9
$UCSORGRIGHT
 10
0.0
 20
0.0
 30
0.0
  9
$UCSORGFRONT
 10
0.0
 20
0.0
 30
0.0
  9
$UCSORGBACK
 10
0.0
 20
0.0
 30
0.0
  9
$PUCSBASE
  2

  9
$PUCSNAME
  2

  9
$PUCSORG
 10
0.0
 20
0.0
 30
0.0
  9
$PUCSXDIR
 10
1.0
 20
0.0
 30
0.0
  9
$PUCSYDIR
 10
0.0
 20
1.0
 30
0.0
  9
$PUCSORTHOREF
  2

  9
$PUCSORTHOVIEW
 70
     0
  9
$PUCSORGTOP
 10
0.0
 20
0.0
 30
0.0
  9
$PUCSORGBOTTOM
 10
0.0
 20
0.0
 30
0.0
  9
$PUCSORGLEFT
 10
0.0
 20
0.0
 30
0.0
  9
$PUCSORGRIGHT
 10
0.0
 20
0.0
 30
0.0
  9
$PUCSORGFRONT
 10
0.0
 20
0.0
 30
0.0
  9
$PUCSORGBACK
 10
0.0
 20
0.0
 30
0.0
  9
$USERI1
 70
     0
  9
$USERI2
 70
     0
  9
$USERI3
 70
     0
  9
$USERI4
 70
     0
  9
$USERI5
 70
     0
  9
$USERR1
 40
0.0
  9
$USERR2
 40
0.0
  9
$USERR3
 40
0.0
  9
$USERR4
 40
0.0
  9
$USERR5
 40
0.0
  9
$WORLDVIEW
 70
     1
  9
$SHADEDGE
 70
     3
  9
$SHADEDIF
 70
    70
  9
$TILEMODE
 70
     1
  9
$MAXACTVP
 70
    64
  9
$PINSBASE
 10
0.0
 20
0.0
 30
0.0
  9
$PLIMCHECK
 70
     0
  9
$PEXTMIN
 10
1.000000000000000E+20
 20
1.000000000000000E+20
 30
1.000000000000000E+20
  9
$PEXTMAX
 10
-1.000000000000000E+20
 20
-1.000000000000000E+20
 30
-1.000000000000000E+20
  9
$PLIMMIN
 10
0.0
 20
0.0
  9
$PLIMMAX
 10
12.0
 20
9.0
  9
$UNITMODE
 70
     0
  9
$VISRETAIN
 70
     1
  9
$PLINEGEN
 70
     0
  9
$PSLTSCALE
 70
     1
  9
$TREEDEPTH
 70
  3020
  9
$CMLSTYLE
  2
Standard
  9
$CMLJUST
 70
     0
  9
$CMLSCALE
 40
1.0
  9
$PROXYGRAPHICS
 70
     1
  9
$MEASUREMENT
 70
     0
  9
$CELWEIGHT
370
    -1
  9
$ENDCAPS
280
     0
  9
$JOINSTYLE
280
     0
  9
$LWDISPLAY
290
     1
  9
$INSUNITS
 70
     5
  9
$HYPERLINKBASE
  1

  9
$STYLESHEET
  1

  9
$XEDIT
290
     1
  9
$CEPSNTYPE
380
     0
  9
$PSTYLEMODE
290
     1
  9
$FINGERPRINTGUID
  2
{1CC27B03-29F9-954D-9BCB-0EA6382FB174}
  9
$VERSIONGUID
  2
{D087C369-2239-7D43-8E56-50B0E797471B}
  9
$EXTNAMES
290
     1
  9
$PSVPSCALE
 40
0.0
  9
$OLESTARTUP
290
     0
  9
$SORTENTS
280
   127
  9
$INDEXCTL
280
     0
  9
$HIDETEXT
280
     1
  9
$XCLIPFRAME
290
     0
  9
$HALOGAP
280
     0
  9
$OBSCOLOR
 70
   257
  9
$OBSLTYPE
280
     0
  9
$INTERSECTIONDISPLAY
280
     0
  9
$INTERSECTIONCOLOR
 70
   257
  9
$DIMASSOC
280
     2
  9
$PROJECTNAME
  1

  9
$CAMERADISPLAY
290
     0
  9
$LENSLENGTH
 40
50.0
  9
$CAMERAHEIGHT
 40
0.0
  9
$STEPSPERSEC
 40
2.0
  9
$STEPSIZE
 40
6.0
  9
$3DDWFPREC
 40
2.0
  9
$PSOLWIDTH
 40
0.25
  9
$PSOLHEIGHT
 40
4.0
  9
$LOFTANG1
 40
1.570796326794896
  9
$LOFTANG2
 40
1.570796326794896
  9
$LOFTMAG1
 40
0.0
  9
$LOFTMAG2
 40
0.0
  9
$LOFTPARAM
 70
     7
  9
$LOFTNORMALS
280
     1
  9
$LATITUDE
 40
37.795
  9
$LONGITUDE
 40
-122.394
  9
$NORTHDIRECTION
 40
0.0
  9
$TIMEZONE
 70
 -8000
  9
$LIGHTGLYPHDISPLAY
280
     1
  9
$TILEMODELIGHTSYNCH
280
     1
  9
$CMATERIAL
347
11
  9
$SOLIDHIST
280
     0
  9
$SHOWHIST
280
     1
  9
$DWFFRAME
280
     2
  9
$DGNFRAME
280
     0
  9
$REALWORLDSCALE
290
     1
  9
$INTERFERECOLOR
 62
     1
  9
$INTERFEREOBJVS
345
33
  9
$INTERFEREVPVS
346
30
  9
$CSHADOW
280
     0
  9
$SHADOWPLANELOCATION
 40
0.0
  0
ENDSEC
  0
SECTION
  2
CLASSES
  0
CLASS
  1
ACDBDICTIONARYWDFLT
  2
AcDbDictionaryWithDefault
  3
ObjectDBX Classes
 90
        0
 91
        1
280
     0
281
     0
  0
CLASS
  1
MATERIAL
  2
AcDbMaterial
  3
ObjectDBX Classes
 90
     1153
 91
        3
280
     0
281
     0
  0
CLASS
  1
VISUALSTYLE
  2
AcDbVisualStyle
  3
ObjectDBX Classes
 90
     4095
 91
       24
280
     0
281
     0
  0
CLASS
  1
SCALE
  2
AcDbScale
  3
ObjectDBX Classes
 90
     1153
 91
       17
280
     0
281
     0
  0
CLASS
  1
TABLESTYLE
  2
AcDbTableStyle
  3
ObjectDBX Classes
 90
     4095
 91
        1
280
     0
281
     0
  0
CLASS
  1
MLEADERSTYLE
  2
AcDbMLeaderStyle
  3
ACDB_MLEADERSTYLE_CLASS
 90
     4095
 91
        1
280
     0
281
     0
  0
CLASS
  1
ACDBSECTIONVIEWSTYLE
  2
AcDbSectionViewStyle
  3
ObjectDBX Classes
 90
     1025
 91
        1
280
     0
281
     0
  0
CLASS
  1
ACDBDETAILVIEWSTYLE
  2
AcDbDetailViewStyle
  3
ObjectDBX Classes
 90
     1025
 91
        1
280
     0
281
     0
  0
CLASS
  1
DICTIONARYVAR
  2
AcDbDictionaryVar
  3
ObjectDBX Classes
 90
        0
 91
        6
280
     0
281
     0
  0
CLASS
  1
CELLSTYLEMAP
  2
AcDbCellStyleMap
  3
ObjectDBX Classes
 90
     1152
 91
        2
280
     0
281
     0
  0
CLASS
  1
SORTENTSTABLE
  2
AcDbSortentsTable
  3
ObjectDBX Classes
 90
        0
 91
        3
280
     0
281
     0
  0
ENDSEC
  0
SECTION
  2
TABLES
  0
TABLE
  2
VPORT
  5
8
330
0
100
AcDbSymbolTable
 70
     1
  0
VPORT
  5
57
330
8
100
AcDbSymbolTableRecord
100
AcDbViewportTableRecord
  2
*Active
 70
     0
 10
0.0
 20
0.0
 11
1.0
 21
1.0
 12
0.1379052745947291
 22
-17.40677022474901
 13
0.0
 23
0.0
 14
1.0
 24
1.0
 15
0.0
 25
0.0
 16
0.0
 26
0.0
 36
1.0
 17
14.85194444073146
 27
21.0079166614147
 37
0.0
 40
78.73551024849337
 41
2.545333333333333
 42
50.0
 43
0.0
 44
0.0
 50
0.0
 51
0.0
 71
     0
 72
   100
 73
     1
 74
     0
 75
     1
 76
     0
 77
     0
 78
     0
281
     0
 65
     1
110
0.0
120
0.0
130
0.0
111
1.0
121
0.0
131
0.0
112
0.0
122
1.0
132
0.0
 79
     0
146
0.0
348
2F
 60
     3
 61
     5
292
     1
282
     1
141
0.0
142
0.0
 63
   250
421
  3355443
1001
ACAD_NAV_VCDISPLAY
1070
     3
  0
ENDTAB
  0
TABLE
  2
LTYPE
  5
5
330
0
100
AcDbSymbolTable
 70
     2
  0
LTYPE
  5
5B
330
5
100
AcDbSymbolTableRecord
100
AcDbLinetypeTableRecord
  2
ByBlock
 70
     0
  3

 72
    65
 73
     0
 40
0.0
  0
LTYPE
  5
5C
330
5
100
AcDbSymbolTableRecord
100
AcDbLinetypeTableRecord
  2
ByLayer
 70
     0
  3

 72
    65
 73
     0
 40
0.0
  0
LTYPE
  5
5D
330
5
100
AcDbSymbolTableRecord
100
AcDbLinetypeTableRecord
  2
Continuous
 70
     0
  3
Solid line
 72
    65
 73
     0
 40
0.0
  0
ENDTAB
  0
TABLE
  2
LAYER
  5
2
330
0
100
AcDbSymbolTable
 70
     2
  0
LAYER
  5
54
330
2
100
AcDbSymbolTableRecord
100
AcDbLayerTableRecord
  2
0
 70
     0
 62
     7
  6
Continuous
370
    -3
390
F
347
21
  0
LAYER
  5
78
330
2
100
AcDbSymbolTableRecord
100
AcDbLayerTableRecord
  2
Livello 1
 70
     0
 62
     7
  6
Continuous
370
     0
390
F
347
21
  0
ENDTAB
  0
TABLE
  2
STYLE
  5
3
330
0
100
AcDbSymbolTable
 70
     2
  0
STYLE
  5
55
330
3
100
AcDbSymbolTableRecord
100
AcDbTextStyleTableRecord
  2
Standard
 70
     0
 40
0.0
 41
1.0
 50
0.0
 71
     0
 42
0.2
  3
txt
  4

  0
STYLE
  5
5A
330
3
100
AcDbSymbolTableRecord
100
AcDbTextStyleTableRecord
  2
Annotative
 70
     0
 40
0.0
 41
1.0
 50
0.0
 71
     0
 42
0.2
  3
txt
  4

1001
AcadAnnotative
1000
AnnotativeData
1002
{
1070
     1
1070
     1
1002
}
  0
ENDTAB
  0
TABLE
  2
VIEW
  5
6
330
0
100
AcDbSymbolTable
 70
     0
  0
ENDTAB
  0
TABLE
  2
UCS
  5
7
330
0
100
AcDbSymbolTable
 70
     0
  0
ENDTAB
  0
TABLE
  2
APPID
  5
9
330
0
100
AcDbSymbolTable
 70
     5
  0
APPID
  5
56
330
9
100
AcDbSymbolTableRecord
100
AcDbRegAppTableRecord
  2
ACAD
 70
     0
  0
APPID
  5
5E
330
9
100
AcDbSymbolTableRecord
100
AcDbRegAppTableRecord
  2
AcadAnnotative
 70
     0
  0
APPID
  5
1EC
330
9
100
AcDbSymbolTableRecord
100
AcDbRegAppTableRecord
  2
ACAD_EXEMPT_FROM_CAD_STANDARDS
 70
     0
  0
APPID
  5
1EF
330
9
100
AcDbSymbolTableRecord
100
AcDbRegAppTableRecord
  2
ACAD_NAV_VCDISPLAY
 70
     0
  0
APPID
  5
233
330
9
100
AcDbSymbolTableRecord
100
AcDbRegAppTableRecord
  2
ACAD_MLEADERVER
 70
     0
  0
ENDTAB
  0
TABLE
  2
DIMSTYLE
  5
A
330
0
100
AcDbSymbolTable
 70
     2
100
AcDbDimStyleTable
 71
     0
  0
DIMSTYLE
105
58
330
A
100
AcDbSymbolTableRecord
100
AcDbDimStyleTableRecord
  2
Standard
 70
     0
340
55
  0
DIMSTYLE
105
59
330
A
100
AcDbSymbolTableRecord
100
AcDbDimStyleTableRecord
  2
Annotative
 70
     0
340
55
1001
AcadAnnotative
1000
AnnotativeData
1002
{
1070
     1
1070
     1
1002
}
  0
ENDTAB
  0
TABLE
  2
BLOCK_RECORD
  5
1
330
0
100
AcDbSymbolTable
 70
     9
  0
BLOCK_RECORD
  5
70
102
{ACAD_XDICTIONARY
360
142
102
}
330
1
100
AcDbSymbolTableRecord
100
AcDbBlockTableRecord
  2
*Model_Space
340
73
 70
     0
280
     1
281
     0
  0
BLOCK_RECORD
  5
6C
330
1
100
AcDbSymbolTableRecord
100
AcDbBlockTableRecord
  2
*Paper_Space
340
6F
 70
     0
280
     1
281
     0
  0
BLOCK_RECORD
  5
74
330
1
100
AcDbSymbolTableRecord
100
AcDbBlockTableRecord
  2
*Paper_Space0
340
77
 70
     0
280
     1
281
     0
  0
BLOCK_RECORD
  5
C0
330
1
100
AcDbSymbolTableRecord
100
AcDbBlockTableRecord
  2
Block_0
340
0
 70
     0
280
     1
281
     0
  0
BLOCK_RECORD
  5
C4
330
1
100
AcDbSymbolTableRecord
100
AcDbBlockTableRecord
  2
Block_1
340
0
102
{BLKREFS
331
C5
102
}
 70
     0
280
     1
281
     0
  0
BLOCK_RECORD
  5
D5
330
1
100
AcDbSymbolTableRecord
100
AcDbBlockTableRecord
  2
Block_2
340
0
 70
     0
280
     1
281
     0
  0
BLOCK_RECORD
  5
D9
330
1
100
AcDbSymbolTableRecord
100
AcDbBlockTableRecord
  2
Block_3
340
0
102
{BLKREFS
331
DA
102
}
 70
     0
280
     1
281
     0
  0
BLOCK_RECORD
  5
EA
330
1
100
AcDbSymbolTableRecord
100
AcDbBlockTableRecord
  2
Block_4
340
0
 70
     0
280
     1
281
     0
  0
BLOCK_RECORD
  5
EE
330
1
100
AcDbSymbolTableRecord
100
AcDbBlockTableRecord
  2
Block_5
340
0
102
{BLKREFS
331
EF
102
}
 70
     0
280
     1
281
     0
  0
ENDTAB
  0
ENDSEC
  0
SECTION
  2
BLOCKS
  0
BLOCK
  5
71
330
70
100
AcDbEntity
  8
0
100
AcDbBlockBegin
  2
*Model_Space
 70
     0
 10
0.0
 20
0.0
 30
0.0
  3
*Model_Space
  1

  0
ENDBLK
  5
72
330
70
100
AcDbEntity
  8
0
100
AcDbBlockEnd
  0
BLOCK
  5
6D
330
6C
100
AcDbEntity
 67
     1
  8
0
100
AcDbBlockBegin
  2
*Paper_Space
 70
     0
 10
0.0
 20
0.0
 30
0.0
  3
*Paper_Space
  1

  0
ENDBLK
  5
6E
330
6C
100
AcDbEntity
 67
     1
  8
0
100
AcDbBlockEnd
  0
BLOCK
  5
75
330
74
100
AcDbEntity
 67
     1
  8
0
100
AcDbBlockBegin
  2
*Paper_Space0
 70
     0
 10
0.0
 20
0.0
 30
0.0
  3
*Paper_Space0
  1

  0
ENDBLK
  5
76
330
74
100
AcDbEntity
 67
     1
  8
0
100
AcDbBlockEnd
  0
BLOCK
  5
C2
330
C0
100
AcDbEntity
  8
0
100
AcDbBlockBegin
  2
Block_0
 70
     0
 10
0.0
 20
0.0
 30
0.0
  3
Block_0
  1

  0
INSERT
  5
C5
330
C0
100
AcDbEntity
  8
Livello 1
100
AcDbBlockReference
  2
Block_1
 10
0.0
 20
0.0
 30
0.0
  0
ENDBLK
  5
C3
330
C0
100
AcDbEntity
  8
0
100
AcDbBlockEnd
  0
BLOCK
  5
C6
330
C4
100
AcDbEntity
  8
0
100
AcDbBlockBegin
  2
Block_1
 70
     0
 10
0.0
 20
0.0
 30
0.0
  3
Block_1
  1

  0
SPLINE
  5
C8
330
C4
100
AcDbEntity
  8
Livello 1
100
AcDbSpline
210
0.0
220
0.0
230
1.0
 70
    11
 71
     3
 72
    29
 73
    25
 74
     0
 42
0.000000001
 43
0.0000000001
 40
0.0
 40
0.0
 40
0.0
 40
0.0
 40
1.0
 40
1.0
 40
1.0
 40
2.0
 40
2.0
 40
2.0
 40
3.0
 40
3.0
 40
3.0
 40
4.0
 40
4.0
 40
4.0
 40
5.0
 40
5.0
 40
5.0
 40
6.0
 40
6.0
 40
6.0
 40
7.0
 40
7.0
 40
7.0
 40
8.0
 40
8.0
 40
8.0
 40
8.0
 10
4.236175536050329
 20
3.498046602858126
 30
0.0
 10
4.236175536050329
 20
3.498046602858126
 30
0.0
 10
4.233626165391244
 20
3.498046602858126
 30
0.0
 10
4.233626165391244
 20
3.498046602858126
 30
0.0
 10
4.233626165391244
 20
3.498046602858126
 30
0.0
 10
4.090137938430589
 20
3.42060085634971
 30
0.0
 10
4.090137938430589
 20
3.42060085634971
 30
0.0
 10
4.090137938430589
 20
3.42060085634971
 30
0.0
 10
4.068554415215499
 20
3.505660263880528
 30
0.0
 10
4.068554415215499
 20
3.505660263880528
 30
0.0
 10
4.068554415215499
 20
3.505660263880528
 30
0.0
 10
4.248870712913475
 20
3.602191839377228
 30
0.0
 10
4.248870712913475
 20
3.602191839377228
 30
0.0
 10
4.248870712913475
 20
3.602191839377228
 30
0.0
 10
4.344110377603207
 20
3.602191839377228
 30
0.0
 10
4.344110377603207
 20
3.602191839377228
 30
0.0
 10
4.344110377603207
 20
3.602191839377228
 30
0.0
 10
4.344110377603207
 20
2.77678141206622
 30
0.0
 10
4.344110377603207
 20
2.77678141206622
 30
0.0
 10
4.344110377603207
 20
2.77678141206622
 30
0.0
 10
4.236175536050329
 20
2.77678141206622
 30
0.0
 10
4.236175536050329
 20
2.77678141206622
 30
0.0
 10
4.236175536050329
 20
2.77678141206622
 30
0.0
 10
4.236175536050329
 20
3.498046602858126
 30
0.0
 10
4.236175536050329
 20
3.498046602858126
 30
0.0
  0
HATCH
  5
C9
330
C4
100
AcDbEntity
  8
Livello 1
 62
    18
420
        0
440
 33554687
100
AcDbHatch
 10
0.0
 20
0.0
 30
0.0
210
0.0
220
0.0
230
1.0
  2
SOLID
 70
     1
 71
     1
 91
        1
 92
        1
 93
        1
 72
     4
 94
        3
 73
     0
 74
     0
 95
       29
 96
       25
 40
0.0
 40
0.0
 40
0.0
 40
0.0
 40
1.0
 40
1.0
 40
1.0
 40
2.0
 40
2.0
 40
2.0
 40
3.0
 40
3.0
 40
3.0
 40
4.0
 40
4.0
 40
4.0
 40
5.0
 40
5.0
 40
5.0
 40
6.0
 40
6.0
 40
6.0
 40
7.0
 40
7.0
 40
7.0
 40
8.0
 40
8.0
 40
8.0
 40
8.0
 10
4.236175536050329
 20
3.498046602858126
 10
4.236175536050329
 20
3.498046602858126
 10
4.233626165391244
 20
3.498046602858126
 10
4.233626165391244
 20
3.498046602858126
 10
4.233626165391244
 20
3.498046602858126
 10
4.090137938430589
 20
3.42060085634971
 10
4.090137938430589
 20
3.42060085634971
 10
4.090137938430589
 20
3.42060085634971
 10
4.068554415215499
 20
3.505660263880528
 10
4.068554415215499
 20
3.505660263880528
 10
4.068554415215499
 20
3.505660263880528
 10
4.248870712913475
 20
3.602191839377228
 10
4.248870712913475
 20
3.602191839377228
 10
4.248870712913475
 20
3.602191839377228
 10
4.344110377603207
 20
3.602191839377228
 10
4.344110377603207
 20
3.602191839377228
 10
4.344110377603207
 20
3.602191839377228
 10
4.344110377603207
 20
2.77678141206622
 10
4.344110377603207
 20
2.77678141206622
 10
4.344110377603207
 20
2.77678141206622
 10
4.236175536050329
 20
2.77678141206622
 10
4.236175536050329
 20
2.77678141206622
 10
4.236175536050329
 20
2.77678141206622
 10
4.236175536050329
 20
3.498046602858126
 10
4.236175536050329
 20
3.498046602858126
 97
        1
330
C8
 75
     2
 76
     1
 98
        1
 10
0.0
 20
0.0
450
        0
451
        0
460
0.0
461
0.0
452
        0
462
0.0
453
        0
470

  0
SPLINE
  5
CA
330
C4
100
AcDbEntity
  8
Livello 1
100
AcDbSpline
210
0.0
220
0.0
230
1.0
 70
     9
 71
     3
 72
    17
 73
    13
 74
     0
 42
0.000000001
 43
0.0000000001
 40
0.0
 40
0.0
 40
0.0
 40
0.0
 40
1.0
 40
1.0
 40
1.0
 40
2.0
 40
2.0
 40
2.0
 40
3.0
 40
3.0
 40
3.0
 40
4.0
 40
4.0
 40
4.0
 40
4.0
 10
4.772094589735794
 20
3.404098848975364
 30
0.0
 10
4.772094589735794
 20
3.321554361148777
 30
0.0
 10
4.834313014199406
 20
3.277112629389053
 30
0.0
 10
4.929552678889137
 20
3.25168782470791
 30
0.0
 10
5.000676675182122
 20
3.275837944059511
 30
0.0
 10
5.055281438623331
 20
3.326618651512095
 30
0.0
 10
5.055281438623331
 20
3.401549478316279
 30
0.0
 10
5.055281438623331
 20
3.467557507813666
 30
0.0
 10
5.015903997226925
 20
3.53614935892499
 30
0.0
 10
4.915582816696451
 20
3.53614935892499
 30
0.0
 10
4.822892522665803
 20
3.53614935892499
 30
0.0
 10
4.772094589735794
 20
3.475205619790919
 30
0.0
 10
4.772094589735794
 20
3.404098848975364
 30
0.0
  0
SPLINE
  5
CB
330
C4
100
AcDbEntity
  8
Livello 1
100
AcDbSpline
210
0.0
220
0.0
230
1.0
 70
     9
 71
     3
 72
    17
 73
    13
 74
     0
 42
0.000000001
 43
0.0000000001
 40
0.0
 40
0.0
 40
0.0
 40
0.0
 40
1.0
 40
1.0
 40
1.0
 40
2.0
 40
2.0
 40
2.0
 40
3.0
 40
3.0
 40
3.0
 40
4.0
 40
4.0
 40
4.0
 40
4.0
 10
5.07939710702008
 20
2.991376409842433
 30
0.0
 10
5.07939710702008
 20
3.091697590372908
 30
0.0
 10
5.009565021534066
 20
3.139963378121258
 30
0.0
 10
4.897806123992562
 20
3.171692707540409
 30
0.0
 10
4.801308999450712
 20
3.143752983155033
 30
0.0
 10
4.749236381191161
 20
3.080259873361879
 30
0.0
 10
4.749236381191161
 20
3.001539441523919
 30
0.0
 10
4.74542955067996
 20
2.917720268367791
 30
0.0
 10
4.808922660473116
 20
2.844098577848003
 30
0.0
 10
4.914325356844335
 20
2.844098577848003
 30
0.0
 10
5.014629311897382
 20
2.844098577848003
 30
0.0
 10
5.07939710702008
 20
2.906317002311615
 30
0.0
 10
5.07939710702008
 20
2.991376409842433
 30
0.0
  0
SPLINE
  5
CC
330
C4
100
AcDbEntity
  8
Livello 1
100
AcDbSpline
210
0.0
220
0.0
230
1.0
 70
     9
 71
     3
 72
    35
 73
    31
 74
     0
 42
0.000000001
 43
0.0000000001
 40
0.0
 40
0.0
 40
0.0
 40
0.0
 40
1.0
 40
1.0
 40
1.0
 40
2.0
 40
2.0
 40
2.0
 40
3.0
 40
3.0
 40
3.0
 40
4.0
 40
4.0
 40
4.0
 40
5.0
 40
5.0
 40
5.0
 40
6.0
 40
6.0
 40
6.0
 40
7.0
 40
7.0
 40
7.0
 40
8.0
 40
8.0
 40
8.0
 40
9.0
 40
9.0
 40
9.0
 40
10.0
 40
10.0
 40
10.0
 40
10.0
 10
4.634962563945424
 20
2.986312119479116
 30
0.0
 10
4.634962563945424
 20
3.090422905043365
 30
0.0
 10
4.697180988409036
 20
3.164079046518006
 30
0.0
 10
4.798759628791628
 20
3.207246092948188
 30
0.0
 10
4.798759628791628
 20
3.207246092948188
 30
0.0
 10
4.797502168939511
 20
3.211070148936814
 30
0.0
 10
4.797502168939511
 20
3.211070148936814
 30
0.0
 10
4.70606933476098
 20
3.254237195366995
 30
0.0
 10
4.666709118842002
 20
3.325343966182551
 30
0.0
 10
4.666709118842002
 20
3.396450736998108
 30
0.0
 10
4.666709118842002
 20
3.527261012573045
 30
0.0
 10
4.777176105576539
 20
3.616144476092491
 30
0.0
 10
4.921939017866737
 20
3.616144476092491
 30
0.0
 10
5.081946477679164
 20
3.616144476092491
 30
0.0
 10
5.161941594846665
 20
3.515823295562016
 30
0.0
 10
5.161941594846665
 20
3.412987195327308
 30
0.0
 10
5.161941594846665
 20
3.343120658886441
 30
0.0
 10
5.127645669291005
 20
3.268224283037109
 30
0.0
 10
5.026067028908412
 20
3.219958495288759
 30
0.0
 10
5.026067028908412
 20
3.219958495288759
 30
0.0
 10
5.026067028908412
 20
3.216134439300131
 30
0.0
 10
5.026067028908412
 20
3.216134439300131
 30
0.0
 10
5.128920354620547
 20
3.175516763529037
 30
0.0
 10
5.192413464413701
 20
3.103135307383937
 30
0.0
 10
5.192413464413701
 20
3.002814126853461
 30
0.0
 10
5.192413464413701
 20
2.859325899892806
 30
0.0
 10
5.069234075338592
 20
2.762828775350958
 30
0.0
 10
4.91177598618525
 20
2.762828775350958
 30
0.0
 10
4.739090574987101
 20
2.762828775350958
 30
0.0
 10
4.634962563945424
 20
2.865664875585666
 30
0.0
 10
4.634962563945424
 20
2.986312119479116
 30
0.0
  0
HATCH
  5
CD
330
C4
100
AcDbEntity
  8
Livello 1
 62
    18
420
        0
440
 33554687
100
AcDbHatch
 10
0.0
 20
0.0
 30
0.0
210
0.0
220
0.0
230
1.0
  2
SOLID
 70
     1
 71
     1
 91
        3
 92
        1
 93
        1
 72
     4
 94
        3
 73
     0
 74
     0
 95
       17
 96
       13
 40
0.0
 40
0.0
 40
0.0
 40
0.0
 40
1.0
 40
1.0
 40
1.0
 40
2.0
 40
2.0
 40
2.0
 40
3.0
 40
3.0
 40
3.0
 40
4.0
 40
4.0
 40
4.0
 40
4.0
 10
4.772094589735794
 20
3.404098848975364
 10
4.772094589735794
 20
3.321554361148777
 10
4.834313014199406
 20
3.277112629389053
 10
4.929552678889137
 20
3.25168782470791
 10
5.000676675182122
 20
3.275837944059511
 10
5.055281438623331
 20
3.326618651512095
 10
5.055281438623331
 20
3.401549478316279
 10
5.055281438623331
 20
3.467557507813666
 10
5.015903997226925
 20
3.53614935892499
 10
4.915582816696451
 20
3.53614935892499
 10
4.822892522665803
 20
3.53614935892499
 10
4.772094589735794
 20
3.475205619790919
 10
4.772094589735794
 20
3.404098848975364
 97
        1
330
CA
 92
        1
 93
        1
 72
     4
 94
        3
 73
     0
 74
     0
 95
       17
 96
       13
 40
0.0
 40
0.0
 40
0.0
 40
0.0
 40
1.0
 40
1.0
 40
1.0
 40
2.0
 40
2.0
 40
2.0
 40
3.0
 40
3.0
 40
3.0
 40
4.0
 40
4.0
 40
4.0
 40
4.0
 10
5.07939710702008
 20
2.991376409842433
 10
5.07939710702008
 20
3.091697590372908
 10
5.009565021534066
 20
3.139963378121258
 10
4.897806123992562
 20
3.171692707540409
 10
4.801308999450712
 20
3.143752983155033
 10
4.749236381191161
 20
3.080259873361879
 10
4.749236381191161
 20
3.001539441523919
 10
4.74542955067996
 20
2.917720268367791
 10
4.808922660473116
 20
2.844098577848003
 10
4.914325356844335
 20
2.844098577848003
 10
5.014629311897382
 20
2.844098577848003
 10
5.07939710702008
 20
2.906317002311615
 10
5.07939710702008
 20
2.991376409842433
 97
        1
330
CB
 92
        1
 93
        1
 72
     4
 94
        3
 73
     0
 74
     0
 95
       35
 96
       31
 40
0.0
 40
0.0
 40
0.0
 40
0.0
 40
1.0
 40
1.0
 40
1.0
 40
2.0
 40
2.0
 40
2.0
 40
3.0
 40
3.0
 40
3.0
 40
4.0
 40
4.0
 40
4.0
 40
5.0
 40
5.0
 40
5.0
 40
6.0
 40
6.0
 40
6.0
 40
7.0
 40
7.0
 40
7.0
 40
8.0
 40
8.0
 40
8.0
 40
9.0
 40
9.0
 40
9.0
 40
10.0
 40
10.0
 40
10.0
 40
10.0
 10
4.634962563945424
 20
2.986312119479116
 10
4.634962563945424
 20
3.090422905043365
 10
4.697180988409036
 20
3.164079046518006
 10
4.798759628791628
 20
3.207246092948188
 10
4.798759628791628
 20
3.207246092948188
 10
4.797502168939511
 20
3.211070148936814
 10
4.797502168939511
 20
3.211070148936814
 10
4.70606933476098
 20
3.254237195366995
 10
4.666709118842002
 20
3.325343966182551
 10
4.666709118842002
 20
3.396450736998108
 10
4.666709118842002
 20
3.527261012573045
 10
4.777176105576539
 20
3.616144476092491
 10
4.921939017866737
 20
3.616144476092491
 10
5.081946477679164
 20
3.616144476092491
 10
5.161941594846665
 20
3.515823295562016
 10
5.161941594846665
 20
3.412987195327308
 10
5.161941594846665
 20
3.343120658886441
 10
5.127645669291005
 20
3.268224283037109
 10
5.026067028908412
 20
3.219958495288759
 10
5.026067028908412
 20
3.219958495288759
 10
5.026067028908412
 20
3.216134439300131
 10
5.026067028908412
 20
3.216134439300131
 10
5.128920354620547
 20
3.175516763529037
 10
5.192413464413701
 20
3.103135307383937
 10
5.192413464413701
 20
3.002814126853461
 10
5.192413464413701
 20
2.859325899892806
 10
5.069234075338592
 20
2.762828775350958
 10
4.91177598618525
 20
2.762828775350958
 10
4.739090574987101
 20
2.762828775350958
 10
4.634962563945424
 20
2.865664875585666
 10
4.634962563945424
 20
2.986312119479116
 97
        1
330
CC
 75
     2
 76
     1
 98
        1
 10
0.0
 20
0.0
450
        0
451
        0
460
0.0
461
0.0
452
        0
462
0.0
453
        0
470

  0
SPLINE
  5
CE
330
C4
100
AcDbEntity
  8
Livello 1
100
AcDbSpline
210
0.0
220
0.0
230
1.0
 70
     9
 71
     3
 72
    17
 73
    13
 74
     0
 42
0.000000001
 43
0.0000000001
 40
0.0
 40
0.0
 40
0.0
 40
0.0
 40
1.0
 40
1.0
 40
1.0
 40
2.0
 40
2.0
 40
2.0
 40
3.0
 40
3.0
 40
3.0
 40
4.0
 40
4.0
 40
4.0
 40
4.0
 10
5.396931557895559
 20
3.185679795210524
 30
0.0
 10
5.396931557895559
 20
2.971050346479458
 30
0.0
 10
5.462974038347797
 20
2.849162868211319
 30
0.0
 10
5.564552678730389
 20
2.849162868211319
 30
0.0
 10
5.678843721453552
 20
2.849162868211319
 30
0.0
 10
5.733448484894763
 20
2.982488063490488
 30
0.0
 10
5.733448484894763
 20
3.193293456232926
 30
0.0
 10
5.733448484894763
 20
3.396450736998108
 30
0.0
 10
5.68137586663521
 20
3.529810383232129
 30
0.0
 10
5.565827364059932
 20
3.529810383232129
 30
0.0
 10
5.468038328711115
 20
3.529810383232129
 30
0.0
 10
5.396931557895559
 20
3.410437824668223
 30
0.0
 10
5.396931557895559
 20
3.185679795210524
 30
0.0
  0
SPLINE
  5
CF
330
C4
100
AcDbEntity
  8
Livello 1
100
AcDbSpline
210
0.0
220
0.0
230
1.0
 70
     9
 71
     3
 72
    17
 73
    13
 74
     0
 42
0.000000001
 43
0.0000000001
 40
0.0
 40
0.0
 40
0.0
 40
0.0
 40
1.0
 40
1.0
 40
1.0
 40
2.0
 40
2.0
 40
2.0
 40
3.0
 40
3.0
 40
3.0
 40
4.0
 40
4.0
 40
4.0
 40
4.0
 10
5.845190156958841
 20
3.198357746596243
 30
0.0
 10
5.845190156958841
 20
2.917720268367791
 30
0.0
 10
5.741062145917164
 20
2.762828775350958
 30
0.0
 10
5.558196477560103
 20
2.762828775350958
 30
0.0
 10
5.396931557895559
 20
2.762828775350958
 30
0.0
 10
5.287722031013137
 20
2.913930663334016
 30
0.0
 10
5.28518988583148
 20
3.186954480540066
 30
0.0
 10
5.28518988583148
 20
3.463767902779891
 30
0.0
 10
5.404545218917959
 20
3.616144476092491
 30
0.0
 10
5.57216633975279
 20
3.616144476092491
 30
0.0
 10
5.746143661757906
 20
3.616144476092491
 30
0.0
 10
5.845190156958841
 20
3.461218532120805
 30
0.0
 10
5.845190156958841
 20
3.198357746596243
 30
0.0
  0
HATCH
  5
D0
330
C4
100
AcDbEntity
  8
Livello 1
 62
    18
420
        0
440
 33554687
100
AcDbHatch
 10
0.0
 20
0.0
 30
0.0
210
0.0
220
0.0
230
1.0
  2
SOLID
 70
     1
 71
     1
 91
        2
 92
        1
 93
        1
 72
     4
 94
        3
 73
     0
 74
     0
 95
       17
 96
       13
 40
0.0
 40
0.0
 40
0.0
 40
0.0
 40
1.0
 40
1.0
 40
1.0
 40
2.0
 40
2.0
 40
2.0
 40
3.0
 40
3.0
 40
3.0
 40
4.0
 40
4.0
 40
4.0
 40
4.0
 10
5.396931557895559
 20
3.185679795210524
 10
5.396931557895559
 20
2.971050346479458
 10
5.462974038347797
 20
2.849162868211319
 10
5.564552678730389
 20
2.849162868211319
 10
5.678843721453552
 20
2.849162868211319
 10
5.733448484894763
 20
2.982488063490488
 10
5.733448484894763
 20
3.193293456232926
 10
5.733448484894763
 20
3.396450736998108
 10
5.68137586663521
 20
3.529810383232129
 10
5.565827364059932
 20
3.529810383232129
 10
5.468038328711115
 20
3.529810383232129
 10
5.396931557895559
 20
3.410437824668223
 10
5.396931557895559
 20
3.185679795210524
 97
        1
330
CE
 92
        1
 93
        1
 72
     4
 94
        3
 73
     0
 74
     0
 95
       17
 96
       13
 40
0.0
 40
0.0
 40
0.0
 40
0.0
 40
1.0
 40
1.0
 40
1.0
 40
2.0
 40
2.0
 40
2.0
 40
3.0
 40
3.0
 40
3.0
 40
4.0
 40
4.0
 40
4.0
 40
4.0
 10
5.845190156958841
 20
3.198357746596243
 10
5.845190156958841
 20
2.917720268367791
 10
5.741062145917164
 20
2.762828775350958
 10
5.558196477560103
 20
2.762828775350958
 10
5.396931557895559
 20
2.762828775350958
 10
5.287722031013137
 20
2.913930663334016
 10
5.28518988583148
 20
3.186954480540066
 10
5.28518988583148
 20
3.463767902779891
 10
5.404545218917959
 20
3.616144476092491
 10
5.57216633975279
 20
3.616144476092491
 10
5.746143661757906
 20
3.616144476092491
 10
5.845190156958841
 20
3.461218532120805
 10
5.845190156958841
 20
3.198357746596243
 97
        1
330
CF
 75
     2
 76
     1
 98
        1
 10
0.0
 20
0.0
450
        0
451
        0
460
0.0
461
0.0
452
        0
462
0.0
453
        0
470

  0
SPLINE
  5
D1
330
C4
100
AcDbEntity
  8
Livello 1
100
AcDbSpline
210
0.0
220
0.0
230
1.0
 70
     9
 71
     3
 72
    80
 73
    76
 74
     0
 42
0.000000001
 43
0.0000000001
 40
0.0
 40
0.0
 40
0.0
 40
0.0
 40
1.0
 40
1.0
 40
1.0
 40
2.0
 40
2.0
 40
2.0
 40
3.0
 40
3.0
 40
3.0
 40
4.0
 40
4.0
 40
4.0
 40
5.0
 40
5.0
 40
5.0
 40
6.0
 40
6.0
 40
6.0
 40
7.0
 40
7.0
 40
7.0
 40
8.0
 40
8.0
 40
8.0
 40
9.0
 40
9.0
 40
9.0
 40
10.0
 40
10.0
 40
10.0
 40
11.0
 40
11.0
 40
11.0
 40
12.0
 40
12.0
 40
12.0
 40
13.0
 40
13.0
 40
13.0
 40
14.0
 40
14.0
 40
14.0
 40
15.0
 40
15.0
 40
15.0
 40
16.0
 40
16.0
 40
16.0
 40
17.0
 40
17.0
 40
17.0
 40
18.0
 40
18.0
 40
18.0
 40
19.0
 40
19.0
 40
19.0
 40
20.0
 40
20.0
 40
20.0
 40
21.0
 40
21.0
 40
21.0
 40
22.0
 40
22.0
 40
22.0
 40
23.0
 40
23.0
 40
23.0
 40
24.0
 40
24.0
 40
24.0
 40
25.0
 40
25.0
 40
25.0
 40
25.0
 10
6.252882756683306
 20
3.225022785652076
 30
0.0
 10
6.252882756683306
 20
3.288515895445231
 30
0.0
 10
6.25162529683119
 20
3.340605739182208
 30
0.0
 10
6.247818466319987
 20
3.391386446634792
 30
0.0
 10
6.247818466319987
 20
3.391386446634792
 30
0.0
 10
6.345590276191378
 20
3.391386446634792
 30
0.0
 10
6.345590276191378
 20
3.391386446634792
 30
0.0
 10
6.345590276191378
 20
3.391386446634792
 30
0.0
 10
6.350671792032122
 20
3.292339951433858
 30
0.0
 10
6.350671792032122
 20
3.292339951433858
 30
0.0
 10
6.350671792032122
 20
3.292339951433858
 30
0.0
 10
6.354478622543323
 20
3.292339951433858
 30
0.0
 10
6.354478622543323
 20
3.292339951433858
 30
0.0
 10
6.388757322621559
 20
3.350734319908843
 30
0.0
 10
6.445911456721852
 20
3.405339083350053
 30
0.0
 10
6.547490097104446
 20
3.405339083350053
 30
0.0
 10
6.631309270260573
 20
3.405339083350053
 30
0.0
 10
6.694802380053729
 20
3.354558375897471
 30
0.0
 10
6.721467419109562
 20
3.282176919752371
 30
0.0
 10
6.721467419109562
 20
3.282176919752371
 30
0.0
 10
6.723999564291221
 20
3.282176919752371
 30
0.0
 10
6.723999564291221
 20
3.282176919752371
 30
0.0
 10
6.743050942324652
 20
3.316455619830607
 30
0.0
 10
6.767183836198826
 20
3.343120658886441
 30
0.0
 10
6.79257418992512
 20
3.362172036919872
 30
0.0
 10
6.82940226066244
 20
3.390111761305248
 30
0.0
 10
6.870037161910962
 20
3.405339083350053
 30
0.0
 10
6.928448755863372
 20
3.405339083350053
 30
0.0
 10
7.009718558360416
 20
3.405339083350053
 30
0.0
 10
7.13034857677644
 20
3.352009005238386
 30
0.0
 10
7.13034857677644
 20
3.138688692791716
 30
0.0
 10
7.13034857677644
 20
3.138688692791716
 30
0.0
 10
7.13034857677644
 20
2.77678141206622
 30
0.0
 10
7.13034857677644
 20
2.77678141206622
 30
0.0
 10
7.13034857677644
 20
2.77678141206622
 30
0.0
 10
7.021139049894019
 20
2.77678141206622
 30
0.0
 10
7.021139049894019
 20
2.77678141206622
 30
0.0
 10
7.021139049894019
 20
2.77678141206622
 30
0.0
 10
7.021139049894019
 20
3.124701605121601
 30
0.0
 10
7.021139049894019
 20
3.124701605121601
 30
0.0
 10
7.021139049894019
 20
3.242799478355966
 30
0.0
 10
6.977972003463839
 20
3.313940700126374
 30
0.0
 10
6.887813854614851
 20
3.313940700126374
 30
0.0
 10
6.824320744821696
 20
3.313940700126374
 30
0.0
 10
6.774797497221229
 20
3.266949597707566
 30
0.0
 10
6.755746119187798
 20
3.212344834266358
 30
0.0
 10
6.750664603347054
 20
3.197083061266701
 30
0.0
 10
6.746857772835853
 20
3.176791448858578
 30
0.0
 10
6.746857772835853
 20
3.156465385495605
 30
0.0
 10
6.746857772835853
 20
3.156465385495605
 30
0.0
 10
6.746857772835853
 20
2.77678141206622
 30
0.0
 10
6.746857772835853
 20
2.77678141206622
 30
0.0
 10
6.746857772835853
 20
2.77678141206622
 30
0.0
 10
6.637648245953433
 20
2.77678141206622
 30
0.0
 10
6.637648245953433
 20
2.77678141206622
 30
0.0
 10
6.637648245953433
 20
2.77678141206622
 30
0.0
 10
6.637648245953433
 20
3.145027668484576
 30
0.0
 10
6.637648245953433
 20
3.145027668484576
 30
0.0
 10
6.637648245953433
 20
3.242799478355966
 30
0.0
 10
6.594481199523253
 20
3.313940700126374
 30
0.0
 10
6.509404566515008
 20
3.313940700126374
 30
0.0
 10
6.439555255551566
 20
3.313940700126374
 30
0.0
 10
6.388757322621559
 20
3.258061251355623
 30
0.0
 10
6.37098062991767
 20
3.20218180258487
 30
0.0
 10
6.364641654224809
 20
3.185679795210524
 30
0.0
 10
6.362092283565726
 20
3.166628417177091
 30
0.0
 10
6.362092283565726
 20
3.147577039143661
 30
0.0
 10
6.362092283565726
 20
3.147577039143661
 30
0.0
 10
6.362092283565726
 20
2.77678141206622
 30
0.0
 10
6.362092283565726
 20
2.77678141206622
 30
0.0
 10
6.362092283565726
 20
2.77678141206622
 30
0.0
 10
6.252882756683306
 20
2.77678141206622
 30
0.0
 10
6.252882756683306
 20
2.77678141206622
 30
0.0
 10
6.252882756683306
 20
2.77678141206622
 30
0.0
 10
6.252882756683306
 20
3.225022785652076
 30
0.0
 10
6.252882756683306
 20
3.225022785652076
 30
0.0
  0
HATCH
  5
D2
330
C4
100
AcDbEntity
  8
Livello 1
 62
    18
420
        0
440
 33554687
100
AcDbHatch
 10
0.0
 20
0.0
 30
0.0
210
0.0
220
0.0
230
1.0
  2
SOLID
 70
     1
 71
     1
 91
        1
 92
        1
 93
        1
 72
     4
 94
        3
 73
     0
 74
     0
 95
       80
 96
       76
 40
0.0
 40
0.0
 40
0.0
 40
0.0
 40
1.0
 40
1.0
 40
1.0
 40
2.0
 40
2.0
 40
2.0
 40
3.0
 40
3.0
 40
3.0
 40
4.0
 40
4.0
 40
4.0
 40
5.0
 40
5.0
 40
5.0
 40
6.0
 40
6.0
 40
6.0
 40
7.0
 40
7.0
 40
7.0
 40
8.0
 40
8.0
 40
8.0
 40
9.0
 40
9.0
 40
9.0
 40
10.0
 40
10.0
 40
10.0
 40
11.0
 40
11.0
 40
11.0
 40
12.0
 40
12.0
 40
12.0
 40
13.0
 40
13.0
 40
13.0
 40
14.0
 40
14.0
 40
14.0
 40
15.0
 40
15.0
 40
15.0
 40
16.0
 40
16.0
 40
16.0
 40
17.0
 40
17.0
 40
17.0
 40
18.0
 40
18.0
 40
18.0
 40
19.0
 40
19.0
 40
19.0
 40
20.0
 40
20.0
 40
20.0
 40
21.0
 40
21.0
 40
21.0
 40
22.0
 40
22.0
 40
22.0
 40
23.0
 40
23.0
 40
23.0
 40
24.0
 40
24.0
 40
24.0
 40
25.0
 40
25.0
 40
25.0
 40
25.0
 10
6.252882756683306
 20
3.225022785652076
 10
6.252882756683306
 20
3.288515895445231
 10
6.25162529683119
 20
3.340605739182208
 10
6.247818466319987
 20
3.391386446634792
 10
6.247818466319987
 20
3.391386446634792
 10
6.345590276191378
 20
3.391386446634792
 10
6.345590276191378
 20
3.391386446634792
 10
6.345590276191378
 20
3.391386446634792
 10
6.350671792032122
 20
3.292339951433858
 10
6.350671792032122
 20
3.292339951433858
 10
6.350671792032122
 20
3.292339951433858
 10
6.354478622543323
 20
3.292339951433858
 10
6.354478622543323
 20
3.292339951433858
 10
6.388757322621559
 20
3.350734319908843
 10
6.445911456721852
 20
3.405339083350053
 10
6.547490097104446
 20
3.405339083350053
 10
6.631309270260573
 20
3.405339083350053
 10
6.694802380053729
 20
3.354558375897471
 10
6.721467419109562
 20
3.282176919752371
 10
6.721467419109562
 20
3.282176919752371
 10
6.723999564291221
 20
3.282176919752371
 10
6.723999564291221
 20
3.282176919752371
 10
6.743050942324652
 20
3.316455619830607
 10
6.767183836198826
 20
3.343120658886441
 10
6.79257418992512
 20
3.362172036919872
 10
6.82940226066244
 20
3.390111761305248
 10
6.870037161910962
 20
3.405339083350053
 10
6.928448755863372
 20
3.405339083350053
 10
7.009718558360416
 20
3.405339083350053
 10
7.13034857677644
 20
3.352009005238386
 10
7.13034857677644
 20
3.138688692791716
 10
7.13034857677644
 20
3.138688692791716
 10
7.13034857677644
 20
2.77678141206622
 10
7.13034857677644
 20
2.77678141206622
 10
7.13034857677644
 20
2.77678141206622
 10
7.021139049894019
 20
2.77678141206622
 10
7.021139049894019
 20
2.77678141206622
 10
7.021139049894019
 20
2.77678141206622
 10
7.021139049894019
 20
3.124701605121601
 10
7.021139049894019
 20
3.124701605121601
 10
7.021139049894019
 20
3.242799478355966
 10
6.977972003463839
 20
3.313940700126374
 10
6.887813854614851
 20
3.313940700126374
 10
6.824320744821696
 20
3.313940700126374
 10
6.774797497221229
 20
3.266949597707566
 10
6.755746119187798
 20
3.212344834266358
 10
6.750664603347054
 20
3.197083061266701
 10
6.746857772835853
 20
3.176791448858578
 10
6.746857772835853
 20
3.156465385495605
 10
6.746857772835853
 20
3.156465385495605
 10
6.746857772835853
 20
2.77678141206622
 10
6.746857772835853
 20
2.77678141206622
 10
6.746857772835853
 20
2.77678141206622
 10
6.637648245953433
 20
2.77678141206622
 10
6.637648245953433
 20
2.77678141206622
 10
6.637648245953433
 20
2.77678141206622
 10
6.637648245953433
 20
3.145027668484576
 10
6.637648245953433
 20
3.145027668484576
 10
6.637648245953433
 20
3.242799478355966
 10
6.594481199523253
 20
3.313940700126374
 10
6.509404566515008
 20
3.313940700126374
 10
6.439555255551566
 20
3.313940700126374
 10
6.388757322621559
 20
3.258061251355623
 10
6.37098062991767
 20
3.20218180258487
 10
6.364641654224809
 20
3.185679795210524
 10
6.362092283565726
 20
3.166628417177091
 10
6.362092283565726
 20
3.147577039143661
 10
6.362092283565726
 20
3.147577039143661
 10
6.362092283565726
 20
2.77678141206622
 10
6.362092283565726
 20
2.77678141206622
 10
6.362092283565726
 20
2.77678141206622
 10
6.252882756683306
 20
2.77678141206622
 10
6.252882756683306
 20
2.77678141206622
 10
6.252882756683306
 20
2.77678141206622
 10
6.252882756683306
 20
3.225022785652076
 10
6.252882756683306
 20
3.225022785652076
 97
        1
330
D1
 75
     2
 76
     1
 98
        1
 10
0.0
 20
0.0
450
        0
451
        0
460
0.0
461
0.0
452
        0
462
0.0
453
        0
470

  0
SPLINE
  5
D3
330
C4
100
AcDbEntity
  8
Livello 1
100
AcDbSpline
210
0.0
220
0.0
230
1.0
 70
     9
 71
     3
 72
    80
 73
    76
 74
     0
 42
0.000000001
 43
0.0000000001
 40
0.0
 40
0.0
 40
0.0
 40
0.0
 40
1.0
 40
1.0
 40
1.0
 40
2.0
 40
2.0
 40
2.0
 40
3.0
 40
3.0
 40
3.0
 40
4.0
 40
4.0
 40
4.0
 40
5.0
 40
5.0
 40
5.0
 40
6.0
 40
6.0
 40
6.0
 40
7.0
 40
7.0
 40
7.0
 40
8.0
 40
8.0
 40
8.0
 40
9.0
 40
9.0
 40
9.0
 40
10.0
 40
10.0
 40
10.0
 40
11.0
 40
11.0
 40
11.0
 40
12.0
 40
12.0
 40
12.0
 40
13.0
 40
13.0
 40
13.0
 40
14.0
 40
14.0
 40
14.0
 40
15.0
 40
15.0
 40
15.0
 40
16.0
 40
16.0
 40
16.0
 40
17.0
 40
17.0
 40
17.0
 40
18.0
 40
18.0
 40
18.0
 40
19.0
 40
19.0
 40
19.0
 40
20.0
 40
20.0
 40
20.0
 40
21.0
 40
21.0
 40
21.0
 40
22.0
 40
22.0
 40
22.0
 40
23.0
 40
23.0
 40
23.0
 40
24.0
 40
24.0
 40
24.0
 40
25.0
 40
25.0
 40
25.0
 40
25.0
 10
7.312060138145942
 20
3.225022785652076
 30
0.0
 10
7.312060138145942
 20
3.288515895445231
 30
0.0
 10
7.310802678293826
 20
3.340605739182208
 30
0.0
 10
7.306995847782625
 20
3.391386446634792
 30
0.0
 10
7.306995847782625
 20
3.391386446634792
 30
0.0
 10
7.404767657654016
 20
3.391386446634792
 30
0.0
 10
7.404767657654016
 20
3.391386446634792
 30
0.0
 10
7.404767657654016
 20
3.391386446634792
 30
0.0
 10
7.409849173494758
 20
3.292339951433858
 30
0.0
 10
7.409849173494758
 20
3.292339951433858
 30
0.0
 10
7.409849173494758
 20
3.292339951433858
 30
0.0
 10
7.41365600400596
 20
3.292339951433858
 30
0.0
 10
7.41365600400596
 20
3.292339951433858
 30
0.0
 10
7.447934704084196
 20
3.350734319908843
 30
0.0
 10
7.505088838184491
 20
3.405339083350053
 30
0.0
 10
7.606667478567081
 20
3.405339083350053
 30
0.0
 10
7.69048665172321
 20
3.405339083350053
 30
0.0
 10
7.753979761516364
 20
3.354558375897471
 30
0.0
 10
7.780644800572198
 20
3.282176919752371
 30
0.0
 10
7.780644800572198
 20
3.282176919752371
 30
0.0
 10
7.783176945753856
 20
3.282176919752371
 30
0.0
 10
7.783176945753856
 20
3.282176919752371
 30
0.0
 10
7.802228323787288
 20
3.316455619830607
 30
0.0
 10
7.826361217661464
 20
3.343120658886441
 30
0.0
 10
7.851751571387755
 20
3.362172036919872
 30
0.0
 10
7.888579642125075
 20
3.390111761305248
 30
0.0
 10
7.929214543373597
 20
3.405339083350053
 30
0.0
 10
7.987626137326008
 20
3.405339083350053
 30
0.0
 10
8.068895939823052
 20
3.405339083350053
 30
0.0
 10
8.189525958239075
 20
3.352009005238386
 30
0.0
 10
8.189525958239075
 20
3.138688692791716
 30
0.0
 10
8.189525958239075
 20
3.138688692791716
 30
0.0
 10
8.189525958239075
 20
2.77678141206622
 30
0.0
 10
8.189525958239075
 20
2.77678141206622
 30
0.0
 10
8.189525958239075
 20
2.77678141206622
 30
0.0
 10
8.080316431356656
 20
2.77678141206622
 30
0.0
 10
8.080316431356656
 20
2.77678141206622
 30
0.0
 10
8.080316431356656
 20
2.77678141206622
 30
0.0
 10
8.080316431356656
 20
3.124701605121601
 30
0.0
 10
8.080316431356656
 20
3.124701605121601
 30
0.0
 10
8.080316431356656
 20
3.242799478355966
 30
0.0
 10
8.037149384926474
 20
3.313940700126374
 30
0.0
 10
7.946991236077487
 20
3.313940700126374
 30
0.0
 10
7.883498126284332
 20
3.313940700126374
 30
0.0
 10
7.833974878683866
 20
3.266949597707566
 30
0.0
 10
7.814923500650434
 20
3.212344834266358
 30
0.0
 10
7.809841984809692
 20
3.197083061266701
 30
0.0
 10
7.80603515429849
 20
3.176791448858578
 30
0.0
 10
7.80603515429849
 20
3.156465385495605
 30
0.0
 10
7.80603515429849
 20
3.156465385495605
 30
0.0
 10
7.80603515429849
 20
2.77678141206622
 30
0.0
 10
7.80603515429849
 20
2.77678141206622
 30
0.0
 10
7.80603515429849
 20
2.77678141206622
 30
0.0
 10
7.69682562741607
 20
2.77678141206622
 30
0.0
 10
7.69682562741607
 20
2.77678141206622
 30
0.0
 10
7.69682562741607
 20
2.77678141206622
 30
0.0
 10
7.69682562741607
 20
3.145027668484576
 30
0.0
 10
7.69682562741607
 20
3.145027668484576
 30
0.0
 10
7.69682562741607
 20
3.242799478355966
 30
0.0
 10
7.653658580985889
 20
3.313940700126374
 30
0.0
 10
7.568581947977643
 20
3.313940700126374
 30
0.0
 10
7.498732637014205
 20
3.313940700126374
 30
0.0
 10
7.447934704084196
 20
3.258061251355623
 30
0.0
 10
7.430158011380306
 20
3.20218180258487
 30
0.0
 10
7.423819035687447
 20
3.185679795210524
 30
0.0
 10
7.421269665028362
 20
3.166628417177091
 30
0.0
 10
7.421269665028362
 20
3.147577039143661
 30
0.0
 10
7.421269665028362
 20
3.147577039143661
 30
0.0
 10
7.421269665028362
 20
2.77678141206622
 30
0.0
 10
7.421269665028362
 20
2.77678141206622
 30
0.0
 10
7.421269665028362
 20
2.77678141206622
 30
0.0
 10
7.312060138145942
 20
2.77678141206622
 30
0.0
 10
7.312060138145942
 20
2.77678141206622
 30
0.0
 10
7.312060138145942
 20
2.77678141206622
 30
0.0
 10
7.312060138145942
 20
3.225022785652076
 30
0.0
 10
7.312060138145942
 20
3.225022785652076
 30
0.0
  0
HATCH
  5
D4
330
C4
100
AcDbEntity
  8
Livello 1
 62
    18
420
        0
440
 33554687
100
AcDbHatch
 10
0.0
 20
0.0
 30
0.0
210
0.0
220
0.0
230
1.0
  2
SOLID
 70
     1
 71
     1
 91
        1
 92
        1
 93
        1
 72
     4
 94
        3
 73
     0
 74
     0
 95
       80
 96
       76
 40
0.0
 40
0.0
 40
0.0
 40
0.0
 40
1.0
 40
1.0
 40
1.0
 40
2.0
 40
2.0
 40
2.0
 40
3.0
 40
3.0
 40
3.0
 40
4.0
 40
4.0
 40
4.0
 40
5.0
 40
5.0
 40
5.0
 40
6.0
 40
6.0
 40
6.0
 40
7.0
 40
7.0
 40
7.0
 40
8.0
 40
8.0
 40
8.0
 40
9.0
 40
9.0
 40
9.0
 40
10.0
 40
10.0
 40
10.0
 40
11.0
 40
11.0
 40
11.0
 40
12.0
 40
12.0
 40
12.0
 40
13.0
 40
13.0
 40
13.0
 40
14.0
 40
14.0
 40
14.0
 40
15.0
 40
15.0
 40
15.0
 40
16.0
 40
16.0
 40
16.0
 40
17.0
 40
17.0
 40
17.0
 40
18.0
 40
18.0
 40
18.0
 40
19.0
 40
19.0
 40
19.0
 40
20.0
 40
20.0
 40
20.0
 40
21.0
 40
21.0
 40
21.0
 40
22.0
 40
22.0
 40
22.0
 40
23.0
 40
23.0
 40
23.0
 40
24.0
 40
24.0
 40
24.0
 40
25.0
 40
25.0
 40
25.0
 40
25.0
 10
7.312060138145942
 20
3.225022785652076
 10
7.312060138145942
 20
3.288515895445231
 10
7.310802678293826
 20
3.340605739182208
 10
7.306995847782625
 20
3.391386446634792
 10
7.306995847782625
 20
3.391386446634792
 10
7.404767657654016
 20
3.391386446634792
 10
7.404767657654016
 20
3.391386446634792
 10
7.404767657654016
 20
3.391386446634792
 10
7.409849173494758
 20
3.292339951433858
 10
7.409849173494758
 20
3.292339951433858
 10
7.409849173494758
 20
3.292339951433858
 10
7.41365600400596
 20
3.292339951433858
 10
7.41365600400596
 20
3.292339951433858
 10
7.447934704084196
 20
3.350734319908843
 10
7.505088838184491
 20
3.405339083350053
 10
7.606667478567081
 20
3.405339083350053
 10
7.69048665172321
 20
3.405339083350053
 10
7.753979761516364
 20
3.354558375897471
 10
7.780644800572198
 20
3.282176919752371
 10
7.780644800572198
 20
3.282176919752371
 10
7.783176945753856
 20
3.282176919752371
 10
7.783176945753856
 20
3.282176919752371
 10
7.802228323787288
 20
3.316455619830607
 10
7.826361217661464
 20
3.343120658886441
 10
7.851751571387755
 20
3.362172036919872
 10
7.888579642125075
 20
3.390111761305248
 10
7.929214543373597
 20
3.405339083350053
 10
7.987626137326008
 20
3.405339083350053
 10
8.068895939823052
 20
3.405339083350053
 10
8.189525958239075
 20
3.352009005238386
 10
8.189525958239075
 20
3.138688692791716
 10
8.189525958239075
 20
3.138688692791716
 10
8.189525958239075
 20
2.77678141206622
 10
8.189525958239075
 20
2.77678141206622
 10
8.189525958239075
 20
2.77678141206622
 10
8.080316431356656
 20
2.77678141206622
 10
8.080316431356656
 20
2.77678141206622
 10
8.080316431356656
 20
2.77678141206622
 10
8.080316431356656
 20
3.124701605121601
 10
8.080316431356656
 20
3.124701605121601
 10
8.080316431356656
 20
3.242799478355966
 10
8.037149384926474
 20
3.313940700126374
 10
7.946991236077487
 20
3.313940700126374
 10
7.883498126284332
 20
3.313940700126374
 10
7.833974878683866
 20
3.266949597707566
 10
7.814923500650434
 20
3.212344834266358
 10
7.809841984809692
 20
3.197083061266701
 10
7.80603515429849
 20
3.176791448858578
 10
7.80603515429849
 20
3.156465385495605
 10
7.80603515429849
 20
3.156465385495605
 10
7.80603515429849
 20
2.77678141206622
 10
7.80603515429849
 20
2.77678141206622
 10
7.80603515429849
 20
2.77678141206622
 10
7.69682562741607
 20
2.77678141206622
 10
7.69682562741607
 20
2.77678141206622
 10
7.69682562741607
 20
2.77678141206622
 10
7.69682562741607
 20
3.145027668484576
 10
7.69682562741607
 20
3.145027668484576
 10
7.69682562741607
 20
3.242799478355966
 10
7.653658580985889
 20
3.313940700126374
 10
7.568581947977643
 20
3.313940700126374
 10
7.498732637014205
 20
3.313940700126374
 10
7.447934704084196
 20
3.258061251355623
 10
7.430158011380306
 20
3.20218180258487
 10
7.423819035687447
 20
3.185679795210524
 10
7.421269665028362
 20
3.166628417177091
 10
7.421269665028362
 20
3.147577039143661
 10
7.421269665028362
 20
3.147577039143661
 10
7.421269665028362
 20
2.77678141206622
 10
7.421269665028362
 20
2.77678141206622
 10
7.421269665028362
 20
2.77678141206622
 10
7.312060138145942
 20
2.77678141206622
 10
7.312060138145942
 20
2.77678141206622
 10
7.312060138145942
 20
2.77678141206622
 10
7.312060138145942
 20
3.225022785652076
 10
7.312060138145942
 20
3.225022785652076
 97
        1
330
D3
 75
     2
 76
     1
 98
        1
 10
0.0
 20
0.0
450
        0
451
        0
460
0.0
461
0.0
452
        0
462
0.0
453
        0
470

  0
ENDBLK
  5
C7
330
C4
100
AcDbEntity
  8
0
100
AcDbBlockEnd
  0
BLOCK
  5
D7
330
D5
100
AcDbEntity
  8
0
100
AcDbBlockBegin
  2
Block_2
 70
     0
 10
0.0
 20
0.0
 30
0.0
  3
Block_2
  1

  0
INSERT
  5
DA
330
D5
100
AcDbEntity
  8
Livello 1
100
AcDbBlockReference
  2
Block_3
 10
0.0
 20
0.0
 30
0.0
  0
ENDBLK
  5
D8
330
D5
100
AcDbEntity
  8
0
100
AcDbBlockEnd
  0
BLOCK
  5
DB
330
D9
100
AcDbEntity
  8
0
100
AcDbBlockBegin
  2
Block_3
 70
     0
 10
0.0
 20
0.0
 30
0.0
  3
Block_3
  1

  0
SPLINE
  5
DD
330
D9
100
AcDbEntity
  8
Livello 1
100
AcDbSpline
210
0.0
220
0.0
230
1.0
 70
    11
 71
     3
 72
    29
 73
    25
 74
     0
 42
0.000000001
 43
0.0000000001
 40
0.0
 40
0.0
 40
0.0
 40
0.0
 40
1.0
 40
1.0
 40
1.0
 40
2.0
 40
2.0
 40
2.0
 40
3.0
 40
3.0
 40
3.0
 40
4.0
 40
4.0
 40
4.0
 40
5.0
 40
5.0
 40
5.0
 40
6.0
 40
6.0
 40
6.0
 40
7.0
 40
7.0
 40
7.0
 40
8.0
 40
8.0
 40
8.0
 40
8.0
 10
16.55471733527104
 20
3.498046602858126
 30
0.0
 10
16.55471733527104
 20
3.498046602858126
 30
0.0
 10
16.55216796461196
 20
3.498046602858126
 30
0.0
 10
16.55216796461196
 20
3.498046602858126
 30
0.0
 10
16.55216796461196
 20
3.498046602858126
 30
0.0
 10
16.4086797376513
 20
3.42060085634971
 30
0.0
 10
16.4086797376513
 20
3.42060085634971
 30
0.0
 10
16.4086797376513
 20
3.42060085634971
 30
0.0
 10
16.38707898895878
 20
3.505660263880528
 30
0.0
 10
16.38707898895878
 20
3.505660263880528
 30
0.0
 10
16.38707898895878
 20
3.505660263880528
 30
0.0
 10
16.56739528665676
 20
3.602191839377228
 30
0.0
 10
16.56739528665676
 20
3.602191839377228
 30
0.0
 10
16.56739528665676
 20
3.602191839377228
 30
0.0
 10
16.66265217682392
 20
3.602191839377228
 30
0.0
 10
16.66265217682392
 20
3.602191839377228
 30
0.0
 10
16.66265217682392
 20
3.602191839377228
 30
0.0
 10
16.66265217682392
 20
2.77678141206622
 30
0.0
 10
16.66265217682392
 20
2.77678141206622
 30
0.0
 10
16.66265217682392
 20
2.77678141206622
 30
0.0
 10
16.55471733527104
 20
2.77678141206622
 30
0.0
 10
16.55471733527104
 20
2.77678141206622
 30
0.0
 10
16.55471733527104
 20
2.77678141206622
 30
0.0
 10
16.55471733527104
 20
3.498046602858126
 30
0.0
 10
16.55471733527104
 20
3.498046602858126
 30
0.0
  0
HATCH
  5
DE
330
D9
100
AcDbEntity
  8
Livello 1
 62
    18
420
        0
440
 33554687
100
AcDbHatch
 10
0.0
 20
0.0
 30
0.0
210
0.0
220
0.0
230
1.0
  2
SOLID
 70
     1
 71
     1
 91
        1
 92
        1
 93
        1
 72
     4
 94
        3
 73
     0
 74
     0
 95
       29
 96
       25
 40
0.0
 40
0.0
 40
0.0
 40
0.0
 40
1.0
 40
1.0
 40
1.0
 40
2.0
 40
2.0
 40
2.0
 40
3.0
 40
3.0
 40
3.0
 40
4.0
 40
4.0
 40
4.0
 40
5.0
 40
5.0
 40
5.0
 40
6.0
 40
6.0
 40
6.0
 40
7.0
 40
7.0
 40
7.0
 40
8.0
 40
8.0
 40
8.0
 40
8.0
 10
16.55471733527104
 20
3.498046602858126
 10
16.55471733527104
 20
3.498046602858126
 10
16.55216796461196
 20
3.498046602858126
 10
16.55216796461196
 20
3.498046602858126
 10
16.55216796461196
 20
3.498046602858126
 10
16.4086797376513
 20
3.42060085634971
 10
16.4086797376513
 20
3.42060085634971
 10
16.4086797376513
 20
3.42060085634971
 10
16.38707898895878
 20
3.505660263880528
 10
16.38707898895878
 20
3.505660263880528
 10
16.38707898895878
 20
3.505660263880528
 10
16.56739528665676
 20
3.602191839377228
 10
16.56739528665676
 20
3.602191839377228
 10
16.56739528665676
 20
3.602191839377228
 10
16.66265217682392
 20
3.602191839377228
 10
16.66265217682392
 20
3.602191839377228
 10
16.66265217682392
 20
3.602191839377228
 10
16.66265217682392
 20
2.77678141206622
 10
16.66265217682392
 20
2.77678141206622
 10
16.66265217682392
 20
2.77678141206622
 10
16.55471733527104
 20
2.77678141206622
 10
16.55471733527104
 20
2.77678141206622
 10
16.55471733527104
 20
2.77678141206622
 10
16.55471733527104
 20
3.498046602858126
 10
16.55471733527104
 20
3.498046602858126
 97
        1
330
DD
 75
     2
 76
     1
 98
        1
 10
0.0
 20
0.0
450
        0
451
        0
460
0.0
461
0.0
452
        0
462
0.0
453
        0
470

  0
SPLINE
  5
DF
330
D9
100
AcDbEntity
  8
Livello 1
100
AcDbSpline
210
0.0
220
0.0
230
1.0
 70
     9
 71
     3
 72
    17
 73
    13
 74
     0
 42
0.000000001
 43
0.0000000001
 40
0.0
 40
0.0
 40
0.0
 40
0.0
 40
1.0
 40
1.0
 40
1.0
 40
2.0
 40
2.0
 40
2.0
 40
3.0
 40
3.0
 40
3.0
 40
4.0
 40
4.0
 40
4.0
 40
4.0
 10
17.09063638895651
 20
3.404098848975364
 30
0.0
 10
17.09063638895651
 20
3.321554361148777
 30
0.0
 10
17.15285481342012
 20
3.277112629389053
 30
0.0
 10
17.24807725263242
 20
3.25168782470791
 30
0.0
 10
17.31921847440283
 20
3.275837944059511
 30
0.0
 10
17.37382323784404
 20
3.326618651512095
 30
0.0
 10
17.37382323784404
 20
3.401549478316279
 30
0.0
 10
17.37382323784404
 20
3.467557507813666
 30
0.0
 10
17.33444579644764
 20
3.53614935892499
 30
0.0
 10
17.23412461591716
 20
3.53614935892499
 30
0.0
 10
17.14141709640909
 20
3.53614935892499
 30
0.0
 10
17.09063638895651
 20
3.475205619790919
 30
0.0
 10
17.09063638895651
 20
3.404098848975364
 30
0.0
  0
SPLINE
  5
E0
330
D9
100
AcDbEntity
  8
Livello 1
100
AcDbSpline
210
0.0
220
0.0
230
1.0
 70
     9
 71
     3
 72
    17
 73
    13
 74
     0
 42
0.000000001
 43
0.0000000001
 40
0.0
 40
0.0
 40
0.0
 40
0.0
 40
1.0
 40
1.0
 40
1.0
 40
2.0
 40
2.0
 40
2.0
 40
3.0
 40
3.0
 40
3.0
 40
4.0
 40
4.0
 40
4.0
 40
4.0
 10
17.39793890624079
 20
2.991376409842433
 30
0.0
 10
17.39793890624079
 20
3.091697590372908
 30
0.0
 10
17.32810682075477
 20
3.139963378121258
 30
0.0
 10
17.21634792321327
 20
3.171692707540409
 30
0.0
 10
17.11985079867142
 20
3.143752983155033
 30
0.0
 10
17.06776095493444
 20
3.080259873361879
 30
0.0
 10
17.06776095493444
 20
3.001539441523919
 30
0.0
 10
17.06397134990067
 20
2.917720268367791
 30
0.0
 10
17.12746445969382
 20
2.844098577848003
 30
0.0
 10
17.23284993058762
 20
2.844098577848003
 30
0.0
 10
17.33317111111809
 20
2.844098577848003
 30
0.0
 10
17.39793890624079
 20
2.906317002311615
 30
0.0
 10
17.39793890624079
 20
2.991376409842433
 30
0.0
  0
SPLINE
  5
E1
330
D9
100
AcDbEntity
  8
Livello 1
100
AcDbSpline
210
0.0
220
0.0
230
1.0
 70
     9
 71
     3
 72
    35
 73
    31
 74
     0
 42
0.000000001
 43
0.0000000001
 40
0.0
 40
0.0
 40
0.0
 40
0.0
 40
1.0
 40
1.0
 40
1.0
 40
2.0
 40
2.0
 40
2.0
 40
3.0
 40
3.0
 40
3.0
 40
4.0
 40
4.0
 40
4.0
 40
5.0
 40
5.0
 40
5.0
 40
6.0
 40
6.0
 40
6.0
 40
7.0
 40
7.0
 40
7.0
 40
8.0
 40
8.0
 40
8.0
 40
9.0
 40
9.0
 40
9.0
 40
10.0
 40
10.0
 40
10.0
 40
10.0
 10
16.95348713768871
 20
2.986312119479116
 30
0.0
 10
16.95348713768871
 20
3.090422905043365
 30
0.0
 10
17.01570556215232
 20
3.164079046518006
 30
0.0
 10
17.11730142801234
 20
3.207246092948188
 30
0.0
 10
17.11730142801234
 20
3.207246092948188
 30
0.0
 10
17.1160267426828
 20
3.211070148936814
 30
0.0
 10
17.1160267426828
 20
3.211070148936814
 30
0.0
 10
17.02459390850427
 20
3.254237195366995
 30
0.0
 10
16.98525091806271
 20
3.325343966182551
 30
0.0
 10
16.98525091806271
 20
3.396450736998108
 30
0.0
 10
16.98525091806271
 20
3.527261012573045
 30
0.0
 10
17.09570067931982
 20
3.616144476092491
 30
0.0
 10
17.24046359161002
 20
3.616144476092491
 30
0.0
 10
17.40048827689988
 20
3.616144476092491
 30
0.0
 10
17.48048339406738
 20
3.515823295562016
 30
0.0
 10
17.48048339406738
 20
3.412987195327308
 30
0.0
 10
17.48048339406738
 20
3.343120658886441
 30
0.0
 10
17.44617024303429
 20
3.268224283037109
 30
0.0
 10
17.34460882812912
 20
3.219958495288759
 30
0.0
 10
17.34460882812912
 20
3.219958495288759
 30
0.0
 10
17.34460882812912
 20
3.216134439300131
 30
0.0
 10
17.34460882812912
 20
3.216134439300131
 30
0.0
 10
17.44744492836383
 20
3.175516763529037
 30
0.0
 10
17.51093803815698
 20
3.103135307383937
 30
0.0
 10
17.51093803815698
 20
3.002814126853461
 30
0.0
 10
17.51093803815698
 20
2.859325899892806
 30
0.0
 10
17.3877758745593
 20
2.762828775350958
 30
0.0
 10
17.23030055992853
 20
2.762828775350958
 30
0.0
 10
17.05763237420781
 20
2.762828775350958
 30
0.0
 10
16.95348713768871
 20
2.865664875585666
 30
0.0
 10
16.95348713768871
 20
2.986312119479116
 30
0.0
  0
HATCH
  5
E2
330
D9
100
AcDbEntity
  8
Livello 1
 62
    18
420
        0
440
 33554687
100
AcDbHatch
 10
0.0
 20
0.0
 30
0.0
210
0.0
220
0.0
230
1.0
  2
SOLID
 70
     1
 71
     1
 91
        3
 92
        1
 93
        1
 72
     4
 94
        3
 73
     0
 74
     0
 95
       17
 96
       13
 40
0.0
 40
0.0
 40
0.0
 40
0.0
 40
1.0
 40
1.0
 40
1.0
 40
2.0
 40
2.0
 40
2.0
 40
3.0
 40
3.0
 40
3.0
 40
4.0
 40
4.0
 40
4.0
 40
4.0
 10
17.09063638895651
 20
3.404098848975364
 10
17.09063638895651
 20
3.321554361148777
 10
17.15285481342012
 20
3.277112629389053
 10
17.24807725263242
 20
3.25168782470791
 10
17.31921847440283
 20
3.275837944059511
 10
17.37382323784404
 20
3.326618651512095
 10
17.37382323784404
 20
3.401549478316279
 10
17.37382323784404
 20
3.467557507813666
 10
17.33444579644764
 20
3.53614935892499
 10
17.23412461591716
 20
3.53614935892499
 10
17.14141709640909
 20
3.53614935892499
 10
17.09063638895651
 20
3.475205619790919
 10
17.09063638895651
 20
3.404098848975364
 97
        1
330
DF
 92
        1
 93
        1
 72
     4
 94
        3
 73
     0
 74
     0
 95
       17
 96
       13
 40
0.0
 40
0.0
 40
0.0
 40
0.0
 40
1.0
 40
1.0
 40
1.0
 40
2.0
 40
2.0
 40
2.0
 40
3.0
 40
3.0
 40
3.0
 40
4.0
 40
4.0
 40
4.0
 40
4.0
 10
17.39793890624079
 20
2.991376409842433
 10
17.39793890624079
 20
3.091697590372908
 10
17.32810682075477
 20
3.139963378121258
 10
17.21634792321327
 20
3.171692707540409
 10
17.11985079867142
 20
3.143752983155033
 10
17.06776095493444
 20
3.080259873361879
 10
17.06776095493444
 20
3.001539441523919
 10
17.06397134990067
 20
2.917720268367791
 10
17.12746445969382
 20
2.844098577848003
 10
17.23284993058762
 20
2.844098577848003
 10
17.33317111111809
 20
2.844098577848003
 10
17.39793890624079
 20
2.906317002311615
 10
17.39793890624079
 20
2.991376409842433
 97
        1
330
E0
 92
        1
 93
        1
 72
     4
 94
        3
 73
     0
 74
     0
 95
       35
 96
       31
 40
0.0
 40
0.0
 40
0.0
 40
0.0
 40
1.0
 40
1.0
 40
1.0
 40
2.0
 40
2.0
 40
2.0
 40
3.0
 40
3.0
 40
3.0
 40
4.0
 40
4.0
 40
4.0
 40
5.0
 40
5.0
 40
5.0
 40
6.0
 40
6.0
 40
6.0
 40
7.0
 40
7.0
 40
7.0
 40
8.0
 40
8.0
 40
8.0
 40
9.0
 40
9.0
 40
9.0
 40
10.0
 40
10.0
 40
10.0
 40
10.0
 10
16.95348713768871
 20
2.986312119479116
 10
16.95348713768871
 20
3.090422905043365
 10
17.01570556215232
 20
3.164079046518006
 10
17.11730142801234
 20
3.207246092948188
 10
17.11730142801234
 20
3.207246092948188
 10
17.1160267426828
 20
3.211070148936814
 10
17.1160267426828
 20
3.211070148936814
 10
17.02459390850427
 20
3.254237195366995
 10
16.98525091806271
 20
3.325343966182551
 10
16.98525091806271
 20
3.396450736998108
 10
16.98525091806271
 20
3.527261012573045
 10
17.09570067931982
 20
3.616144476092491
 10
17.24046359161002
 20
3.616144476092491
 10
17.40048827689988
 20
3.616144476092491
 10
17.48048339406738
 20
3.515823295562016
 10
17.48048339406738
 20
3.412987195327308
 10
17.48048339406738
 20
3.343120658886441
 10
17.44617024303429
 20
3.268224283037109
 10
17.34460882812912
 20
3.219958495288759
 10
17.34460882812912
 20
3.219958495288759
 10
17.34460882812912
 20
3.216134439300131
 10
17.34460882812912
 20
3.216134439300131
 10
17.44744492836383
 20
3.175516763529037
 10
17.51093803815698
 20
3.103135307383937
 10
17.51093803815698
 20
3.002814126853461
 10
17.51093803815698
 20
2.859325899892806
 10
17.3877758745593
 20
2.762828775350958
 10
17.23030055992853
 20
2.762828775350958
 10
17.05763237420781
 20
2.762828775350958
 10
16.95348713768871
 20
2.865664875585666
 10
16.95348713768871
 20
2.986312119479116
 97
        1
330
E1
 75
     2
 76
     1
 98
        1
 10
0.0
 20
0.0
450
        0
451
        0
460
0.0
461
0.0
452
        0
462
0.0
453
        0
470

  0
SPLINE
  5
E3
330
D9
100
AcDbEntity
  8
Livello 1
100
AcDbSpline
210
0.0
220
0.0
230
1.0
 70
     9
 71
     3
 72
    17
 73
    13
 74
     0
 42
0.000000001
 43
0.0000000001
 40
0.0
 40
0.0
 40
0.0
 40
0.0
 40
1.0
 40
1.0
 40
1.0
 40
2.0
 40
2.0
 40
2.0
 40
3.0
 40
3.0
 40
3.0
 40
4.0
 40
4.0
 40
4.0
 40
4.0
 10
17.71547335711627
 20
3.185679795210524
 30
0.0
 10
17.71547335711627
 20
2.971050346479458
 30
0.0
 10
17.78151583756851
 20
2.849162868211319
 30
0.0
 10
17.88307725247367
 20
2.849162868211319
 30
0.0
 10
17.99738552067426
 20
2.849162868211319
 30
0.0
 10
18.05199028411547
 20
2.982488063490488
 30
0.0
 10
18.05199028411547
 20
3.193293456232926
 30
0.0
 10
18.05199028411547
 20
3.396450736998108
 30
0.0
 10
17.9999004403785
 20
3.529810383232129
 30
0.0
 10
17.88435193780322
 20
3.529810383232129
 30
0.0
 10
17.78658012793183
 20
3.529810383232129
 30
0.0
 10
17.71547335711627
 20
3.410437824668223
 30
0.0
 10
17.71547335711627
 20
3.185679795210524
 30
0.0
  0
SPLINE
  5
E4
330
D9
100
AcDbEntity
  8
Livello 1
100
AcDbSpline
210
0.0
220
0.0
230
1.0
 70
     9
 71
     3
 72
    17
 73
    13
 74
     0
 42
0.000000001
 43
0.0000000001
 40
0.0
 40
0.0
 40
0.0
 40
0.0
 40
1.0
 40
1.0
 40
1.0
 40
2.0
 40
2.0
 40
2.0
 40
3.0
 40
3.0
 40
3.0
 40
4.0
 40
4.0
 40
4.0
 40
4.0
 10
18.16371473070212
 20
3.198357746596243
 30
0.0
 10
18.16371473070212
 20
2.917720268367791
 30
0.0
 10
18.05960394513787
 20
2.762828775350958
 30
0.0
 10
17.87673827678081
 20
2.762828775350958
 30
0.0
 10
17.71547335711627
 20
2.762828775350958
 30
0.0
 10
17.60626383023385
 20
2.913930663334016
 30
0.0
 10
17.60371445957476
 20
3.186954480540066
 30
0.0
 10
17.60371445957476
 20
3.463767902779891
 30
0.0
 10
17.72308701813867
 20
3.616144476092491
 30
0.0
 10
17.89069091349607
 20
3.616144476092491
 30
0.0
 10
18.06466823550119
 20
3.616144476092491
 30
0.0
 10
18.16371473070212
 20
3.461218532120805
 30
0.0
 10
18.16371473070212
 20
3.198357746596243
 30
0.0
  0
HATCH
  5
E5
330
D9
100
AcDbEntity
  8
Livello 1
 62
    18
420
        0
440
 33554687
100
AcDbHatch
 10
0.0
 20
0.0
 30
0.0
210
0.0
220
0.0
230
1.0
  2
SOLID
 70
     1
 71
     1
 91
        2
 92
        1
 93
        1
 72
     4
 94
        3
 73
     0
 74
     0
 95
       17
 96
       13
 40
0.0
 40
0.0
 40
0.0
 40
0.0
 40
1.0
 40
1.0
 40
1.0
 40
2.0
 40
2.0
 40
2.0
 40
3.0
 40
3.0
 40
3.0
 40
4.0
 40
4.0
 40
4.0
 40
4.0
 10
17.71547335711627
 20
3.185679795210524
 10
17.71547335711627
 20
2.971050346479458
 10
17.78151583756851
 20
2.849162868211319
 10
17.88307725247367
 20
2.849162868211319
 10
17.99738552067426
 20
2.849162868211319
 10
18.05199028411547
 20
2.982488063490488
 10
18.05199028411547
 20
3.193293456232926
 10
18.05199028411547
 20
3.396450736998108
 10
17.9999004403785
 20
3.529810383232129
 10
17.88435193780322
 20
3.529810383232129
 10
17.78658012793183
 20
3.529810383232129
 10
17.71547335711627
 20
3.410437824668223
 10
17.71547335711627
 20
3.185679795210524
 97
        1
330
E3
 92
        1
 93
        1
 72
     4
 94
        3
 73
     0
 74
     0
 95
       17
 96
       13
 40
0.0
 40
0.0
 40
0.0
 40
0.0
 40
1.0
 40
1.0
 40
1.0
 40
2.0
 40
2.0
 40
2.0
 40
3.0
 40
3.0
 40
3.0
 40
4.0
 40
4.0
 40
4.0
 40
4.0
 10
18.16371473070212
 20
3.198357746596243
 10
18.16371473070212
 20
2.917720268367791
 10
18.05960394513787
 20
2.762828775350958
 10
17.87673827678081
 20
2.762828775350958
 10
17.71547335711627
 20
2.762828775350958
 10
17.60626383023385
 20
2.913930663334016
 10
17.60371445957476
 20
3.186954480540066
 10
17.60371445957476
 20
3.463767902779891
 10
17.72308701813867
 20
3.616144476092491
 10
17.89069091349607
 20
3.616144476092491
 10
18.06466823550119
 20
3.616144476092491
 10
18.16371473070212
 20
3.461218532120805
 10
18.16371473070212
 20
3.198357746596243
 97
        1
330
E4
 75
     2
 76
     1
 98
        1
 10
0.0
 20
0.0
450
        0
451
        0
460
0.0
461
0.0
452
        0
462
0.0
453
        0
470

  0
SPLINE
  5
E6
330
D9
100
AcDbEntity
  8
Livello 1
100
AcDbSpline
210
0.0
220
0.0
230
1.0
 70
     9
 71
     3
 72
    80
 73
    76
 74
     0
 42
0.000000001
 43
0.0000000001
 40
0.0
 40
0.0
 40
0.0
 40
0.0
 40
1.0
 40
1.0
 40
1.0
 40
2.0
 40
2.0
 40
2.0
 40
3.0
 40
3.0
 40
3.0
 40
4.0
 40
4.0
 40
4.0
 40
5.0
 40
5.0
 40
5.0
 40
6.0
 40
6.0
 40
6.0
 40
7.0
 40
7.0
 40
7.0
 40
8.0
 40
8.0
 40
8.0
 40
9.0
 40
9.0
 40
9.0
 40
10.0
 40
10.0
 40
10.0
 40
11.0
 40
11.0
 40
11.0
 40
12.0
 40
12.0
 40
12.0
 40
13.0
 40
13.0
 40
13.0
 40
14.0
 40
14.0
 40
14.0
 40
15.0
 40
15.0
 40
15.0
 40
16.0
 40
16.0
 40
16.0
 40
17.0
 40
17.0
 40
17.0
 40
18.0
 40
18.0
 40
18.0
 40
19.0
 40
19.0
 40
19.0
 40
20.0
 40
20.0
 40
20.0
 40
21.0
 40
21.0
 40
21.0
 40
22.0
 40
22.0
 40
22.0
 40
23.0
 40
23.0
 40
23.0
 40
24.0
 40
24.0
 40
24.0
 40
25.0
 40
25.0
 40
25.0
 40
25.0
 10
18.57140733042659
 20
3.225022785652076
 30
0.0
 10
18.57140733042659
 20
3.288515895445231
 30
0.0
 10
18.5701670960519
 20
3.340605739182208
 30
0.0
 10
18.56634304006327
 20
3.391386446634792
 30
0.0
 10
18.56634304006327
 20
3.391386446634792
 30
0.0
 10
18.66411484993466
 20
3.391386446634792
 30
0.0
 10
18.66411484993466
 20
3.391386446634792
 30
0.0
 10
18.66411484993466
 20
3.391386446634792
 30
0.0
 10
18.66921359125283
 20
3.292339951433858
 30
0.0
 10
18.66921359125283
 20
3.292339951433858
 30
0.0
 10
18.66921359125283
 20
3.292339951433858
 30
0.0
 10
18.67300319628661
 20
3.292339951433858
 30
0.0
 10
18.67300319628661
 20
3.292339951433858
 30
0.0
 10
18.70728189636484
 20
3.350734319908843
 30
0.0
 10
18.76443603046514
 20
3.405339083350053
 30
0.0
 10
18.86603189632516
 20
3.405339083350053
 30
0.0
 10
18.94985106948128
 20
3.405339083350053
 30
0.0
 10
19.01334417927444
 20
3.354558375897471
 30
0.0
 10
19.04000921833027
 20
3.282176919752371
 30
0.0
 10
19.04000921833027
 20
3.282176919752371
 30
0.0
 10
19.0425241380345
 20
3.282176919752371
 30
0.0
 10
19.0425241380345
 20
3.282176919752371
 30
0.0
 10
19.06157551606793
 20
3.316455619830607
 30
0.0
 10
19.08572563541954
 20
3.343120658886441
 30
0.0
 10
19.11111598914582
 20
3.362172036919872
 30
0.0
 10
19.14794405988315
 20
3.390111761305248
 30
0.0
 10
19.18856173565425
 20
3.405339083350053
 30
0.0
 10
19.24699055508408
 20
3.405339083350053
 30
0.0
 10
19.32826035758113
 20
3.405339083350053
 30
0.0
 10
19.44887315051972
 20
3.352009005238386
 30
0.0
 10
19.44887315051972
 20
3.138688692791716
 30
0.0
 10
19.44887315051972
 20
3.138688692791716
 30
0.0
 10
19.44887315051972
 20
2.77678141206622
 30
0.0
 10
19.44887315051972
 20
2.77678141206622
 30
0.0
 10
19.44887315051972
 20
2.77678141206622
 30
0.0
 10
19.3396636236373
 20
2.77678141206622
 30
0.0
 10
19.3396636236373
 20
2.77678141206622
 30
0.0
 10
19.3396636236373
 20
2.77678141206622
 30
0.0
 10
19.3396636236373
 20
3.124701605121601
 30
0.0
 10
19.3396636236373
 20
3.124701605121601
 30
0.0
 10
19.3396636236373
 20
3.242799478355966
 30
0.0
 10
19.29649657720712
 20
3.313940700126374
 30
0.0
 10
19.20633842835814
 20
3.313940700126374
 30
0.0
 10
19.14284531856498
 20
3.313940700126374
 30
0.0
 10
19.09333929644194
 20
3.266949597707566
 30
0.0
 10
19.07428791840851
 20
3.212344834266358
 30
0.0
 10
19.06918917709034
 20
3.197083061266701
 30
0.0
 10
19.06539957205657
 20
3.176791448858578
 30
0.0
 10
19.06539957205657
 20
3.156465385495605
 30
0.0
 10
19.06539957205657
 20
3.156465385495605
 30
0.0
 10
19.06539957205657
 20
2.77678141206622
 30
0.0
 10
19.06539957205657
 20
2.77678141206622
 30
0.0
 10
19.06539957205657
 20
2.77678141206622
 30
0.0
 10
18.95619004517415
 20
2.77678141206622
 30
0.0
 10
18.95619004517415
 20
2.77678141206622
 30
0.0
 10
18.95619004517415
 20
2.77678141206622
 30
0.0
 10
18.95619004517415
 20
3.145027668484576
 30
0.0
 10
18.95619004517415
 20
3.145027668484576
 30
0.0
 10
18.95619004517415
 20
3.242799478355966
 30
0.0
 10
18.91302299874396
 20
3.313940700126374
 30
0.0
 10
18.82792914025829
 20
3.313940700126374
 30
0.0
 10
18.75809705477228
 20
3.313940700126374
 30
0.0
 10
18.70728189636484
 20
3.258061251355623
 30
0.0
 10
18.68950520366096
 20
3.20218180258487
 30
0.0
 10
18.68316622796809
 20
3.185679795210524
 30
0.0
 10
18.68061685730901
 20
3.166628417177091
 30
0.0
 10
18.68061685730901
 20
3.147577039143661
 30
0.0
 10
18.68061685730901
 20
3.147577039143661
 30
0.0
 10
18.68061685730901
 20
2.77678141206622
 30
0.0
 10
18.68061685730901
 20
2.77678141206622
 30
0.0
 10
18.68061685730901
 20
2.77678141206622
 30
0.0
 10
18.57140733042659
 20
2.77678141206622
 30
0.0
 10
18.57140733042659
 20
2.77678141206622
 30
0.0
 10
18.57140733042659
 20
2.77678141206622
 30
0.0
 10
18.57140733042659
 20
3.225022785652076
 30
0.0
 10
18.57140733042659
 20
3.225022785652076
 30
0.0
  0
HATCH
  5
E7
330
D9
100
AcDbEntity
  8
Livello 1
 62
    18
420
        0
440
 33554687
100
AcDbHatch
 10
0.0
 20
0.0
 30
0.0
210
0.0
220
0.0
230
1.0
  2
SOLID
 70
     1
 71
     1
 91
        1
 92
        1
 93
        1
 72
     4
 94
        3
 73
     0
 74
     0
 95
       80
 96
       76
 40
0.0
 40
0.0
 40
0.0
 40
0.0
 40
1.0
 40
1.0
 40
1.0
 40
2.0
 40
2.0
 40
2.0
 40
3.0
 40
3.0
 40
3.0
 40
4.0
 40
4.0
 40
4.0
 40
5.0
 40
5.0
 40
5.0
 40
6.0
 40
6.0
 40
6.0
 40
7.0
 40
7.0
 40
7.0
 40
8.0
 40
8.0
 40
8.0
 40
9.0
 40
9.0
 40
9.0
 40
10.0
 40
10.0
 40
10.0
 40
11.0
 40
11.0
 40
11.0
 40
12.0
 40
12.0
 40
12.0
 40
13.0
 40
13.0
 40
13.0
 40
14.0
 40
14.0
 40
14.0
 40
15.0
 40
15.0
 40
15.0
 40
16.0
 40
16.0
 40
16.0
 40
17.0
 40
17.0
 40
17.0
 40
18.0
 40
18.0
 40
18.0
 40
19.0
 40
19.0
 40
19.0
 40
20.0
 40
20.0
 40
20.0
 40
21.0
 40
21.0
 40
21.0
 40
22.0
 40
22.0
 40
22.0
 40
23.0
 40
23.0
 40
23.0
 40
24.0
 40
24.0
 40
24.0
 40
25.0
 40
25.0
 40
25.0
 40
25.0
 10
18.57140733042659
 20
3.225022785652076
 10
18.57140733042659
 20
3.288515895445231
 10
18.5701670960519
 20
3.340605739182208
 10
18.56634304006327
 20
3.391386446634792
 10
18.56634304006327
 20
3.391386446634792
 10
18.66411484993466
 20
3.391386446634792
 10
18.66411484993466
 20
3.391386446634792
 10
18.66411484993466
 20
3.391386446634792
 10
18.66921359125283
 20
3.292339951433858
 10
18.66921359125283
 20
3.292339951433858
 10
18.66921359125283
 20
3.292339951433858
 10
18.67300319628661
 20
3.292339951433858
 10
18.67300319628661
 20
3.292339951433858
 10
18.70728189636484
 20
3.350734319908843
 10
18.76443603046514
 20
3.405339083350053
 10
18.86603189632516
 20
3.405339083350053
 10
18.94985106948128
 20
3.405339083350053
 10
19.01334417927444
 20
3.354558375897471
 10
19.04000921833027
 20
3.282176919752371
 10
19.04000921833027
 20
3.282176919752371
 10
19.0425241380345
 20
3.282176919752371
 10
19.0425241380345
 20
3.282176919752371
 10
19.06157551606793
 20
3.316455619830607
 10
19.08572563541954
 20
3.343120658886441
 10
19.11111598914582
 20
3.362172036919872
 10
19.14794405988315
 20
3.390111761305248
 10
19.18856173565425
 20
3.405339083350053
 10
19.24699055508408
 20
3.405339083350053
 10
19.32826035758113
 20
3.405339083350053
 10
19.44887315051972
 20
3.352009005238386
 10
19.44887315051972
 20
3.138688692791716
 10
19.44887315051972
 20
3.138688692791716
 10
19.44887315051972
 20
2.77678141206622
 10
19.44887315051972
 20
2.77678141206622
 10
19.44887315051972
 20
2.77678141206622
 10
19.3396636236373
 20
2.77678141206622
 10
19.3396636236373
 20
2.77678141206622
 10
19.3396636236373
 20
2.77678141206622
 10
19.3396636236373
 20
3.124701605121601
 10
19.3396636236373
 20
3.124701605121601
 10
19.3396636236373
 20
3.242799478355966
 10
19.29649657720712
 20
3.313940700126374
 10
19.20633842835814
 20
3.313940700126374
 10
19.14284531856498
 20
3.313940700126374
 10
19.09333929644194
 20
3.266949597707566
 10
19.07428791840851
 20
3.212344834266358
 10
19.06918917709034
 20
3.197083061266701
 10
19.06539957205657
 20
3.176791448858578
 10
19.06539957205657
 20
3.156465385495605
 10
19.06539957205657
 20
3.156465385495605
 10
19.06539957205657
 20
2.77678141206622
 10
19.06539957205657
 20
2.77678141206622
 10
19.06539957205657
 20
2.77678141206622
 10
18.95619004517415
 20
2.77678141206622
 10
18.95619004517415
 20
2.77678141206622
 10
18.95619004517415
 20
2.77678141206622
 10
18.95619004517415
 20
3.145027668484576
 10
18.95619004517415
 20
3.145027668484576
 10
18.95619004517415
 20
3.242799478355966
 10
18.91302299874396
 20
3.313940700126374
 10
18.82792914025829
 20
3.313940700126374
 10
18.75809705477228
 20
3.313940700126374
 10
18.70728189636484
 20
3.258061251355623
 10
18.68950520366096
 20
3.20218180258487
 10
18.68316622796809
 20
3.185679795210524
 10
18.68061685730901
 20
3.166628417177091
 10
18.68061685730901
 20
3.147577039143661
 10
18.68061685730901
 20
3.147577039143661
 10
18.68061685730901
 20
2.77678141206622
 10
18.68061685730901
 20
2.77678141206622
 10
18.68061685730901
 20
2.77678141206622
 10
18.57140733042659
 20
2.77678141206622
 10
18.57140733042659
 20
2.77678141206622
 10
18.57140733042659
 20
2.77678141206622
 10
18.57140733042659
 20
3.225022785652076
 10
18.57140733042659
 20
3.225022785652076
 97
        1
330
E6
 75
     2
 76
     1
 98
        1
 10
0.0
 20
0.0
450
        0
451
        0
460
0.0
461
0.0
452
        0
462
0.0
453
        0
470

  0
SPLINE
  5
E8
330
D9
100
AcDbEntity
  8
Livello 1
100
AcDbSpline
210
0.0
220
0.0
230
1.0
 70
     9
 71
     3
 72
    80
 73
    76
 74
     0
 42
0.000000001
 43
0.0000000001
 40
0.0
 40
0.0
 40
0.0
 40
0.0
 40
1.0
 40
1.0
 40
1.0
 40
2.0
 40
2.0
 40
2.0
 40
3.0
 40
3.0
 40
3.0
 40
4.0
 40
4.0
 40
4.0
 40
5.0
 40
5.0
 40
5.0
 40
6.0
 40
6.0
 40
6.0
 40
7.0
 40
7.0
 40
7.0
 40
8.0
 40
8.0
 40
8.0
 40
9.0
 40
9.0
 40
9.0
 40
10.0
 40
10.0
 40
10.0
 40
11.0
 40
11.0
 40
11.0
 40
12.0
 40
12.0
 40
12.0
 40
13.0
 40
13.0
 40
13.0
 40
14.0
 40
14.0
 40
14.0
 40
15.0
 40
15.0
 40
15.0
 40
16.0
 40
16.0
 40
16.0
 40
17.0
 40
17.0
 40
17.0
 40
18.0
 40
18.0
 40
18.0
 40
19.0
 40
19.0
 40
19.0
 40
20.0
 40
20.0
 40
20.0
 40
21.0
 40
21.0
 40
21.0
 40
22.0
 40
22.0
 40
22.0
 40
23.0
 40
23.0
 40
23.0
 40
24.0
 40
24.0
 40
24.0
 40
25.0
 40
25.0
 40
25.0
 40
25.0
 10
19.63060193736665
 20
3.225022785652076
 30
0.0
 10
19.63060193736665
 20
3.288515895445231
 30
0.0
 10
19.62932725203711
 20
3.340605739182208
 30
0.0
 10
19.62553764700334
 20
3.391386446634792
 30
0.0
 10
19.62553764700334
 20
3.391386446634792
 30
0.0
 10
19.72330945687472
 20
3.391386446634792
 30
0.0
 10
19.72330945687472
 20
3.391386446634792
 30
0.0
 10
19.72330945687472
 20
3.391386446634792
 30
0.0
 10
19.72837374723804
 20
3.292339951433858
 30
0.0
 10
19.72837374723804
 20
3.292339951433858
 30
0.0
 10
19.72837374723804
 20
3.292339951433858
 30
0.0
 10
19.73219780322667
 20
3.292339951433858
 30
0.0
 10
19.73219780322667
 20
3.292339951433858
 30
0.0
 10
19.76647650330491
 20
3.350734319908843
 30
0.0
 10
19.8236306374052
 20
3.405339083350053
 30
0.0
 10
19.92519205231037
 20
3.405339083350053
 30
0.0
 10
20.00901122546649
 20
3.405339083350053
 30
0.0
 10
20.07250433525965
 20
3.354558375897471
 30
0.0
 10
20.09916937431548
 20
3.282176919752371
 30
0.0
 10
20.09916937431548
 20
3.282176919752371
 30
0.0
 10
20.10171874497457
 20
3.282176919752371
 30
0.0
 10
20.10171874497457
 20
3.282176919752371
 30
0.0
 10
20.120770123008
 20
3.316455619830607
 30
0.0
 10
20.14488579140475
 20
3.343120658886441
 30
0.0
 10
20.17027614513104
 20
3.362172036919872
 30
0.0
 10
20.20710421586836
 20
3.390111761305248
 30
0.0
 10
20.24775634259431
 20
3.405339083350053
 30
0.0
 10
20.30615071106929
 20
3.405339083350053
 30
0.0
 10
20.38742051356634
 20
3.405339083350053
 30
0.0
 10
20.50806775745979
 20
3.352009005238386
 30
0.0
 10
20.50806775745979
 20
3.138688692791716
 30
0.0
 10
20.50806775745979
 20
3.138688692791716
 30
0.0
 10
20.50806775745979
 20
2.77678141206622
 30
0.0
 10
20.50806775745979
 20
2.77678141206622
 30
0.0
 10
20.50806775745979
 20
2.77678141206622
 30
0.0
 10
20.39885823057737
 20
2.77678141206622
 30
0.0
 10
20.39885823057737
 20
2.77678141206622
 30
0.0
 10
20.39885823057737
 20
2.77678141206622
 30
0.0
 10
20.39885823057737
 20
3.124701605121601
 30
0.0
 10
20.39885823057737
 20
3.124701605121601
 30
0.0
 10
20.39885823057737
 20
3.242799478355966
 30
0.0
 10
20.35569118414719
 20
3.313940700126374
 30
0.0
 10
20.2655330352982
 20
3.313940700126374
 30
0.0
 10
20.20203992550504
 20
3.313940700126374
 30
0.0
 10
20.15249945242715
 20
3.266949597707566
 30
0.0
 10
20.13344807439372
 20
3.212344834266358
 30
0.0
 10
20.1283837840304
 20
3.197083061266701
 30
0.0
 10
20.12455972804177
 20
3.176791448858578
 30
0.0
 10
20.12455972804177
 20
3.156465385495605
 30
0.0
 10
20.12455972804177
 20
3.156465385495605
 30
0.0
 10
20.12455972804177
 20
2.77678141206622
 30
0.0
 10
20.12455972804177
 20
2.77678141206622
 30
0.0
 10
20.12455972804177
 20
2.77678141206622
 30
0.0
 10
20.01535020115936
 20
2.77678141206622
 30
0.0
 10
20.01535020115936
 20
2.77678141206622
 30
0.0
 10
20.01535020115936
 20
2.77678141206622
 30
0.0
 10
20.01535020115936
 20
3.145027668484576
 30
0.0
 10
20.01535020115936
 20
3.145027668484576
 30
0.0
 10
20.01535020115936
 20
3.242799478355966
 30
0.0
 10
19.97218315472917
 20
3.313940700126374
 30
0.0
 10
19.88712374719835
 20
3.313940700126374
 30
0.0
 10
19.81725721075749
 20
3.313940700126374
 30
0.0
 10
19.76647650330491
 20
3.258061251355623
 30
0.0
 10
19.74869981060102
 20
3.20218180258487
 30
0.0
 10
19.74236083490816
 20
3.185679795210524
 30
0.0
 10
19.73981146424907
 20
3.166628417177091
 30
0.0
 10
19.73981146424907
 20
3.147577039143661
 30
0.0
 10
19.73981146424907
 20
3.147577039143661
 30
0.0
 10
19.73981146424907
 20
2.77678141206622
 30
0.0
 10
19.73981146424907
 20
2.77678141206622
 30
0.0
 10
19.73981146424907
 20
2.77678141206622
 30
0.0
 10
19.63060193736665
 20
2.77678141206622
 30
0.0
 10
19.63060193736665
 20
2.77678141206622
 30
0.0
 10
19.63060193736665
 20
2.77678141206622
 30
0.0
 10
19.63060193736665
 20
3.225022785652076
 30
0.0
 10
19.63060193736665
 20
3.225022785652076
 30
0.0
  0
HATCH
  5
E9
330
D9
100
AcDbEntity
  8
Livello 1
 62
    18
420
        0
440
 33554687
100
AcDbHatch
 10
0.0
 20
0.0
 30
0.0
210
0.0
220
0.0
230
1.0
  2
SOLID
 70
     1
 71
     1
 91
        1
 92
        1
 93
        1
 72
     4
 94
        3
 73
     0
 74
     0
 95
       80
 96
       76
 40
0.0
 40
0.0
 40
0.0
 40
0.0
 40
1.0
 40
1.0
 40
1.0
 40
2.0
 40
2.0
 40
2.0
 40
3.0
 40
3.0
 40
3.0
 40
4.0
 40
4.0
 40
4.0
 40
5.0
 40
5.0
 40
5.0
 40
6.0
 40
6.0
 40
6.0
 40
7.0
 40
7.0
 40
7.0
 40
8.0
 40
8.0
 40
8.0
 40
9.0
 40
9.0
 40
9.0
 40
10.0
 40
10.0
 40
10.0
 40
11.0
 40
11.0
 40
11.0
 40
12.0
 40
12.0
 40
12.0
 40
13.0
 40
13.0
 40
13.0
 40
14.0
 40
14.0
 40
14.0
 40
15.0
 40
15.0
 40
15.0
 40
16.0
 40
16.0
 40
16.0
 40
17.0
 40
17.0
 40
17.0
 40
18.0
 40
18.0
 40
18.0
 40
19.0
 40
19.0
 40
19.0
 40
20.0
 40
20.0
 40
20.0
 40
21.0
 40
21.0
 40
21.0
 40
22.0
 40
22.0
 40
22.0
 40
23.0
 40
23.0
 40
23.0
 40
24.0
 40
24.0
 40
24.0
 40
25.0
 40
25.0
 40
25.0
 40
25.0
 10
19.63060193736665
 20
3.225022785652076
 10
19.63060193736665
 20
3.288515895445231
 10
19.62932725203711
 20
3.340605739182208
 10
19.62553764700334
 20
3.391386446634792
 10
19.62553764700334
 20
3.391386446634792
 10
19.72330945687472
 20
3.391386446634792
 10
19.72330945687472
 20
3.391386446634792
 10
19.72330945687472
 20
3.391386446634792
 10
19.72837374723804
 20
3.292339951433858
 10
19.72837374723804
 20
3.292339951433858
 10
19.72837374723804
 20
3.292339951433858
 10
19.73219780322667
 20
3.292339951433858
 10
19.73219780322667
 20
3.292339951433858
 10
19.76647650330491
 20
3.350734319908843
 10
19.8236306374052
 20
3.405339083350053
 10
19.92519205231037
 20
3.405339083350053
 10
20.00901122546649
 20
3.405339083350053
 10
20.07250433525965
 20
3.354558375897471
 10
20.09916937431548
 20
3.282176919752371
 10
20.09916937431548
 20
3.282176919752371
 10
20.10171874497457
 20
3.282176919752371
 10
20.10171874497457
 20
3.282176919752371
 10
20.120770123008
 20
3.316455619830607
 10
20.14488579140475
 20
3.343120658886441
 10
20.17027614513104
 20
3.362172036919872
 10
20.20710421586836
 20
3.390111761305248
 10
20.24775634259431
 20
3.405339083350053
 10
20.30615071106929
 20
3.405339083350053
 10
20.38742051356634
 20
3.405339083350053
 10
20.50806775745979
 20
3.352009005238386
 10
20.50806775745979
 20
3.138688692791716
 10
20.50806775745979
 20
3.138688692791716
 10
20.50806775745979
 20
2.77678141206622
 10
20.50806775745979
 20
2.77678141206622
 10
20.50806775745979
 20
2.77678141206622
 10
20.39885823057737
 20
2.77678141206622
 10
20.39885823057737
 20
2.77678141206622
 10
20.39885823057737
 20
2.77678141206622
 10
20.39885823057737
 20
3.124701605121601
 10
20.39885823057737
 20
3.124701605121601
 10
20.39885823057737
 20
3.242799478355966
 10
20.35569118414719
 20
3.313940700126374
 10
20.2655330352982
 20
3.313940700126374
 10
20.20203992550504
 20
3.313940700126374
 10
20.15249945242715
 20
3.266949597707566
 10
20.13344807439372
 20
3.212344834266358
 10
20.1283837840304
 20
3.197083061266701
 10
20.12455972804177
 20
3.176791448858578
 10
20.12455972804177
 20
3.156465385495605
 10
20.12455972804177
 20
3.156465385495605
 10
20.12455972804177
 20
2.77678141206622
 10
20.12455972804177
 20
2.77678141206622
 10
20.12455972804177
 20
2.77678141206622
 10
20.01535020115936
 20
2.77678141206622
 10
20.01535020115936
 20
2.77678141206622
 10
20.01535020115936
 20
2.77678141206622
 10
20.01535020115936
 20
3.145027668484576
 10
20.01535020115936
 20
3.145027668484576
 10
20.01535020115936
 20
3.242799478355966
 10
19.97218315472917
 20
3.313940700126374
 10
19.88712374719835
 20
3.313940700126374
 10
19.81725721075749
 20
3.313940700126374
 10
19.76647650330491
 20
3.258061251355623
 10
19.74869981060102
 20
3.20218180258487
 10
19.74236083490816
 20
3.185679795210524
 10
19.73981146424907
 20
3.166628417177091
 10
19.73981146424907
 20
3.147577039143661
 10
19.73981146424907
 20
3.147577039143661
 10
19.73981146424907
 20
2.77678141206622
 10
19.73981146424907
 20
2.77678141206622
 10
19.73981146424907
 20
2.77678141206622
 10
19.63060193736665
 20
2.77678141206622
 10
19.63060193736665
 20
2.77678141206622
 10
19.63060193736665
 20
2.77678141206622
 10
19.63060193736665
 20
3.225022785652076
 10
19.63060193736665
 20
3.225022785652076
 97
        1
330
E8
 75
     2
 76
     1
 98
        1
 10
0.0
 20
0.0
450
        0
451
        0
460
0.0
461
0.0
452
        0
462
0.0
453
        0
470

  0
ENDBLK
  5
DC
330
D9
100
AcDbEntity
  8
0
100
AcDbBlockEnd
  0
BLOCK
  5
EC
330
EA
100
AcDbEntity
  8
0
100
AcDbBlockBegin
  2
Block_4
 70
     0
 10
0.0
 20
0.0
 30
0.0
  3
Block_4
  1

  0
INSERT
  5
EF
330
EA
100
AcDbEntity
  8
Livello 1
100
AcDbBlockReference
  2
Block_5
 10
0.0
 20
0.0
 30
0.0
  0
ENDBLK
  5
ED
330
EA
100
AcDbEntity
  8
0
100
AcDbBlockEnd
  0
BLOCK
  5
F0
330
EE
100
AcDbEntity
  8
0
100
AcDbBlockBegin
  2
Block_5
 70
     0
 10
0.0
 20
0.0
 30
0.0
  3
Block_5
  1

  0
SPLINE
  5
F2
330
EE
100
AcDbEntity
  8
Livello 1
100
AcDbSpline
210
0.0
220
0.0
230
1.0
 70
    11
 71
     3
 72
    20
 73
    16
 74
     0
 42
0.000000001
 43
0.0000000001
 40
0.0
 40
0.0
 40
0.0
 40
0.0
 40
1.0
 40
1.0
 40
1.0
 40
2.0
 40
2.0
 40
2.0
 40
3.0
 40
3.0
 40
3.0
 40
4.0
 40
4.0
 40
4.0
 40
5.0
 40
5.0
 40
5.0
 40
5.0
 10
24.825668125304
 20
21.1556423558222
 30
0.0
 10
24.825668125304
 20
21.27374022905657
 30
0.0
 10
24.75838541047707
 20
21.34484699987212
 30
0.0
 10
24.65551485928751
 20
21.34484699987212
 30
0.0
 10
24.58823214446058
 20
21.34484699987212
 30
0.0
 10
24.52597926904211
 20
21.30295463877148
 30
0.0
 10
24.49552462495252
 20
21.2432511340121
 30
0.0
 10
24.48791096393011
 20
21.23057318262638
 30
0.0
 10
24.48281222261194
 20
21.21407117525204
 30
0.0
 10
24.48281222261194
 20
21.19374511188906
 30
0.0
 10
24.48536159327102
 20
21.05787054595081
 30
0.0
 10
24.54758001773463
 20
20.95754936542034
 30
0.0
 10
24.66440320563946
 20
20.95754936542034
 30
0.0
 10
24.76090033018131
 20
20.95754936542034
 30
0.0
 10
24.825668125304
 20
21.03754448258783
 30
0.0
 10
24.825668125304
 20
21.1556423558222
 30
0.0
  0
SPLINE
  5
F3
330
EE
100
AcDbEntity
  8
Livello 1
100
AcDbSpline
210
0.0
220
0.0
230
1.0
 70
     9
 71
     3
 72
    38
 73
    34
 74
     0
 42
0.000000001
 43
0.0000000001
 40
0.0
 40
0.0
 40
0.0
 40
0.0
 40
1.0
 40
1.0
 40
1.0
 40
2.0
 40
2.0
 40
2.0
 40
3.0
 40
3.0
 40
3.0
 40
4.0
 40
4.0
 40
4.0
 40
5.0
 40
5.0
 40
5.0
 40
6.0
 40
6.0
 40
6.0
 40
7.0
 40
7.0
 40
7.0
 40
8.0
 40
8.0
 40
8.0
 40
9.0
 40
9.0
 40
9.0
 40
10.0
 40
10.0
 40
10.0
 40
11.0
 40
11.0
 40
11.0
 40
11.0
 10
24.857431905678
 20
21.63182345379343
 30
0.0
 10
24.83455647165595
 20
21.63309813912297
 30
0.0
 10
24.80537651289588
 20
21.63182345379343
 30
0.0
 10
24.77361273252187
 20
21.62675916343012
 30
0.0
 10
24.59836072518721
 20
21.59754475371519
 30
0.0
 10
24.50568765663399
 20
21.46928384879934
 30
0.0
 10
24.48663627860056
 20
21.33340928286109
 30
0.0
 10
24.48663627860056
 20
21.33340928286109
 30
0.0
 10
24.49042588363434
 20
21.33340928286109
 30
0.0
 10
24.49042588363434
 20
21.33340928286109
 30
0.0
 10
24.52980332503074
 20
21.38549912659807
 30
0.0
 10
24.59836072518721
 20
21.42866617302825
 30
0.0
 10
24.68979355936574
 20
21.42866617302825
 30
0.0
 10
24.83583115698549
 20
21.42866617302825
 30
0.0
 10
24.93870170817505
 20
21.32324625117961
 30
0.0
 10
24.93870170817505
 20
21.16198133151506
 30
0.0
 10
24.93870170817505
 20
21.010879443532
 30
0.0
 10
24.83583115698549
 20
20.87121527255997
 30
0.0
 10
24.66440320563946
 20
20.87121527255997
 30
0.0
 10
24.48791096393011
 20
20.87121527255997
 30
0.0
 10
24.37232801039997
 20
21.00833007287292
 30
0.0
 10
24.37232801039997
 20
21.22295952160398
 30
0.0
 10
24.37232801039997
 20
21.38549912659807
 30
0.0
 10
24.43075682982981
 20
21.51372558055907
 30
0.0
 10
24.51202663232685
 20
21.59499538305611
 30
0.0
 10
24.58058403248332
 20
21.66231254883789
 30
0.0
 10
24.67201686666186
 20
21.70420490993853
 30
0.0
 10
24.77616210318096
 20
21.7169173122791
 30
0.0
 10
24.80916611792965
 20
21.72198160264242
 30
0.0
 10
24.83710584231503
 20
21.72325628797196
 30
0.0
 10
24.857431905678
 20
21.72325628797196
 30
0.0
 10
24.857431905678
 20
21.72325628797196
 30
0.0
 10
24.857431905678
 20
21.63182345379343
 30
0.0
 10
24.857431905678
 20
21.63182345379343
 30
0.0
  0
HATCH
  5
F4
330
EE
100
AcDbEntity
  8
Livello 1
 62
    18
420
        0
440
 33554687
100
AcDbHatch
 10
0.0
 20
0.0
 30
0.0
210
0.0
220
0.0
230
1.0
  2
SOLID
 70
     1
 71
     1
 91
        2
 92
        1
 93
        1
 72
     4
 94
        3
 73
     0
 74
     0
 95
       20
 96
       16
 40
0.0
 40
0.0
 40
0.0
 40
0.0
 40
1.0
 40
1.0
 40
1.0
 40
2.0
 40
2.0
 40
2.0
 40
3.0
 40
3.0
 40
3.0
 40
4.0
 40
4.0
 40
4.0
 40
5.0
 40
5.0
 40
5.0
 40
5.0
 10
24.825668125304
 20
21.1556423558222
 10
24.825668125304
 20
21.27374022905657
 10
24.75838541047707
 20
21.34484699987212
 10
24.65551485928751
 20
21.34484699987212
 10
24.58823214446058
 20
21.34484699987212
 10
24.52597926904211
 20
21.30295463877148
 10
24.49552462495252
 20
21.2432511340121
 10
24.48791096393011
 20
21.23057318262638
 10
24.48281222261194
 20
21.21407117525204
 10
24.48281222261194
 20
21.19374511188906
 10
24.48536159327102
 20
21.05787054595081
 10
24.54758001773463
 20
20.95754936542034
 10
24.66440320563946
 20
20.95754936542034
 10
24.76090033018131
 20
20.95754936542034
 10
24.825668125304
 20
21.03754448258783
 10
24.825668125304
 20
21.1556423558222
 97
        1
330
F2
 92
        1
 93
        1
 72
     4
 94
        3
 73
     0
 74
     0
 95
       38
 96
       34
 40
0.0
 40
0.0
 40
0.0
 40
0.0
 40
1.0
 40
1.0
 40
1.0
 40
2.0
 40
2.0
 40
2.0
 40
3.0
 40
3.0
 40
3.0
 40
4.0
 40
4.0
 40
4.0
 40
5.0
 40
5.0
 40
5.0
 40
6.0
 40
6.0
 40
6.0
 40
7.0
 40
7.0
 40
7.0
 40
8.0
 40
8.0
 40
8.0
 40
9.0
 40
9.0
 40
9.0
 40
10.0
 40
10.0
 40
10.0
 40
11.0
 40
11.0
 40
11.0
 40
11.0
 10
24.857431905678
 20
21.63182345379343
 10
24.83455647165595
 20
21.63309813912297
 10
24.80537651289588
 20
21.63182345379343
 10
24.77361273252187
 20
21.62675916343012
 10
24.59836072518721
 20
21.59754475371519
 10
24.50568765663399
 20
21.46928384879934
 10
24.48663627860056
 20
21.33340928286109
 10
24.48663627860056
 20
21.33340928286109
 10
24.49042588363434
 20
21.33340928286109
 10
24.49042588363434
 20
21.33340928286109
 10
24.52980332503074
 20
21.38549912659807
 10
24.59836072518721
 20
21.42866617302825
 10
24.68979355936574
 20
21.42866617302825
 10
24.83583115698549
 20
21.42866617302825
 10
24.93870170817505
 20
21.32324625117961
 10
24.93870170817505
 20
21.16198133151506
 10
24.93870170817505
 20
21.010879443532
 10
24.83583115698549
 20
20.87121527255997
 10
24.66440320563946
 20
20.87121527255997
 10
24.48791096393011
 20
20.87121527255997
 10
24.37232801039997
 20
21.00833007287292
 10
24.37232801039997
 20
21.22295952160398
 10
24.37232801039997
 20
21.38549912659807
 10
24.43075682982981
 20
21.51372558055907
 10
24.51202663232685
 20
21.59499538305611
 10
24.58058403248332
 20
21.66231254883789
 10
24.67201686666186
 20
21.70420490993853
 10
24.77616210318096
 20
21.7169173122791
 10
24.80916611792965
 20
21.72198160264242
 10
24.83710584231503
 20
21.72325628797196
 10
24.857431905678
 20
21.72325628797196
 10
24.857431905678
 20
21.72325628797196
 10
24.857431905678
 20
21.63182345379343
 10
24.857431905678
 20
21.63182345379343
 97
        1
330
F3
 75
     2
 76
     1
 98
        1
 10
0.0
 20
0.0
450
        0
451
        0
460
0.0
461
0.0
452
        0
462
0.0
453
        0
470

  0
SPLINE
  5
F5
330
EE
100
AcDbEntity
  8
Livello 1
100
AcDbSpline
210
0.0
220
0.0
230
1.0
 70
    11
 71
     3
 72
    50
 73
    46
 74
     0
 42
0.000000001
 43
0.0000000001
 40
0.0
 40
0.0
 40
0.0
 40
0.0
 40
1.0
 40
1.0
 40
1.0
 40
2.0
 40
2.0
 40
2.0
 40
3.0
 40
3.0
 40
3.0
 40
4.0
 40
4.0
 40
4.0
 40
5.0
 40
5.0
 40
5.0
 40
6.0
 40
6.0
 40
6.0
 40
7.0
 40
7.0
 40
7.0
 40
8.0
 40
8.0
 40
8.0
 40
9.0
 40
9.0
 40
9.0
 40
10.0
 40
10.0
 40
10.0
 40
11.0
 40
11.0
 40
11.0
 40
12.0
 40
12.0
 40
12.0
 40
13.0
 40
13.0
 40
13.0
 40
14.0
 40
14.0
 40
14.0
 40
15.0
 40
15.0
 40
15.0
 40
15.0
 10
25.53050021063127
 20
21.61659613174863
 30
0.0
 10
25.53050021063127
 20
21.61659613174863
 30
0.0
 10
25.21558403232458
 20
21.61659613174863
 30
0.0
 10
25.21558403232458
 20
21.61659613174863
 30
0.0
 10
25.21558403232458
 20
21.61659613174863
 30
0.0
 10
25.18382025195057
 20
21.40451605367665
 30
0.0
 10
25.18382025195057
 20
21.40451605367665
 30
0.0
 10
25.202871629984
 20
21.40706542433573
 30
0.0
 10
25.22064832268789
 20
21.40961479499482
 30
0.0
 10
25.25113741773235
 20
21.40961479499482
 30
0.0
 10
25.31463052752551
 20
21.40961479499482
 30
0.0
 10
25.37812363731867
 20
21.3956277073247
 30
0.0
 10
25.42890434477124
 20
21.3651730632351
 30
0.0
 10
25.49367213989394
 20
21.32834499249777
 30
0.0
 10
25.54700221800561
 20
21.25723822168222
 30
0.0
 10
25.54700221800561
 20
21.15309298516311
 30
0.0
 10
25.54700221800561
 20
20.99182806549857
 30
0.0
 10
25.41874131308976
 20
20.87121527255997
 30
0.0
 10
25.23969970072132
 20
20.87121527255997
 30
0.0
 10
25.14954155187234
 20
20.87121527255997
 30
0.0
 10
25.07333603973861
 20
20.89660562628626
 30
0.0
 10
25.03399304929706
 20
20.92199598001255
 30
0.0
 10
25.03399304929706
 20
20.92199598001255
 30
0.0
 10
25.06193277368244
 20
21.00708983849822
 30
0.0
 10
25.06193277368244
 20
21.00708983849822
 30
0.0
 10
25.09621147376067
 20
20.98676377513525
 30
0.0
 10
25.1634941885876
 20
20.96137342140896
 30
0.0
 10
25.23842501539178
 20
20.96137342140896
 30
0.0
 10
25.34384493724043
 20
20.96137342140896
 30
0.0
 10
25.43400308608942
 20
21.02993082156543
 30
0.0
 10
25.43400308608942
 20
21.14041503377739
 30
0.0
 10
25.43272840075987
 20
21.24707519000073
 30
0.0
 10
25.36162162994432
 20
21.32324625117961
 30
0.0
 10
25.19653265429115
 20
21.32324625117961
 30
0.0
 10
25.14954155187234
 20
21.32324625117961
 30
0.0
 10
25.11271348113501
 20
21.31818196081629
 30
0.0
 10
25.08222438609055
 20
21.31435790482766
 30
0.0
 10
25.08222438609055
 20
21.31435790482766
 30
0.0
 10
25.13558891515707
 20
21.71057833658624
 30
0.0
 10
25.13558891515707
 20
21.71057833658624
 30
0.0
 10
25.13558891515707
 20
21.71057833658624
 30
0.0
 10
25.53050021063127
 20
21.71057833658624
 30
0.0
 10
25.53050021063127
 20
21.71057833658624
 30
0.0
 10
25.53050021063127
 20
21.71057833658624
 30
0.0
 10
25.53050021063127
 20
21.61659613174863
 30
0.0
 10
25.53050021063127
 20
21.61659613174863
 30
0.0
  0
HATCH
  5
F6
330
EE
100
AcDbEntity
  8
Livello 1
 62
    18
420
        0
440
 33554687
100
AcDbHatch
 10
0.0
 20
0.0
 30
0.0
210
0.0
220
0.0
230
1.0
  2
SOLID
 70
     1
 71
     1
 91
        1
 92
        1
 93
        1
 72
     4
 94
        3
 73
     0
 74
     0
 95
       50
 96
       46
 40
0.0
 40
0.0
 40
0.0
 40
0.0
 40
1.0
 40
1.0
 40
1.0
 40
2.0
 40
2.0
 40
2.0
 40
3.0
 40
3.0
 40
3.0
 40
4.0
 40
4.0
 40
4.0
 40
5.0
 40
5.0
 40
5.0
 40
6.0
 40
6.0
 40
6.0
 40
7.0
 40
7.0
 40
7.0
 40
8.0
 40
8.0
 40
8.0
 40
9.0
 40
9.0
 40
9.0
 40
10.0
 40
10.0
 40
10.0
 40
11.0
 40
11.0
 40
11.0
 40
12.0
 40
12.0
 40
12.0
 40
13.0
 40
13.0
 40
13.0
 40
14.0
 40
14.0
 40
14.0
 40
15.0
 40
15.0
 40
15.0
 40
15.0
 10
25.53050021063127
 20
21.61659613174863
 10
25.53050021063127
 20
21.61659613174863
 10
25.21558403232458
 20
21.61659613174863
 10
25.21558403232458
 20
21.61659613174863
 10
25.21558403232458
 20
21.61659613174863
 10
25.18382025195057
 20
21.40451605367665
 10
25.18382025195057
 20
21.40451605367665
 10
25.202871629984
 20
21.40706542433573
 10
25.22064832268789
 20
21.40961479499482
 10
25.25113741773235
 20
21.40961479499482
 10
25.31463052752551
 20
21.40961479499482
 10
25.37812363731867
 20
21.3956277073247
 10
25.42890434477124
 20
21.3651730632351
 10
25.49367213989394
 20
21.32834499249777
 10
25.54700221800561
 20
21.25723822168222
 10
25.54700221800561
 20
21.15309298516311
 10
25.54700221800561
 20
20.99182806549857
 10
25.41874131308976
 20
20.87121527255997
 10
25.23969970072132
 20
20.87121527255997
 10
25.14954155187234
 20
20.87121527255997
 10
25.07333603973861
 20
20.89660562628626
 10
25.03399304929706
 20
20.92199598001255
 10
25.03399304929706
 20
20.92199598001255
 10
25.06193277368244
 20
21.00708983849822
 10
25.06193277368244
 20
21.00708983849822
 10
25.09621147376067
 20
20.98676377513525
 10
25.1634941885876
 20
20.96137342140896
 10
25.23842501539178
 20
20.96137342140896
 10
25.34384493724043
 20
20.96137342140896
 10
25.43400308608942
 20
21.02993082156543
 10
25.43400308608942
 20
21.14041503377739
 10
25.43272840075987
 20
21.24707519000073
 10
25.36162162994432
 20
21.32324625117961
 10
25.19653265429115
 20
21.32324625117961
 10
25.14954155187234
 20
21.32324625117961
 10
25.11271348113501
 20
21.31818196081629
 10
25.08222438609055
 20
21.31435790482766
 10
25.08222438609055
 20
21.31435790482766
 10
25.13558891515707
 20
21.71057833658624
 10
25.13558891515707
 20
21.71057833658624
 10
25.13558891515707
 20
21.71057833658624
 10
25.53050021063127
 20
21.71057833658624
 10
25.53050021063127
 20
21.71057833658624
 10
25.53050021063127
 20
21.71057833658624
 10
25.53050021063127
 20
21.61659613174863
 10
25.53050021063127
 20
21.61659613174863
 97
        1
330
F5
 75
     2
 76
     1
 98
        1
 10
0.0
 20
0.0
450
        0
451
        0
460
0.0
461
0.0
452
        0
462
0.0
453
        0
470

  0
SPLINE
  5
F7
330
EE
100
AcDbEntity
  8
Livello 1
100
AcDbSpline
210
0.0
220
0.0
230
1.0
 70
     9
 71
     3
 72
    17
 73
    13
 74
     0
 42
0.000000001
 43
0.0000000001
 40
0.0
 40
0.0
 40
0.0
 40
0.0
 40
1.0
 40
1.0
 40
1.0
 40
2.0
 40
2.0
 40
2.0
 40
3.0
 40
3.0
 40
3.0
 40
4.0
 40
4.0
 40
4.0
 40
4.0
 10
25.78960584207691
 20
21.29406629241954
 30
0.0
 10
25.78960584207691
 20
21.07943684368847
 30
0.0
 10
25.85564832252914
 20
20.95754936542034
 30
0.0
 10
25.95724418838916
 20
20.95754936542034
 30
0.0
 10
26.0715180056349
 20
20.95754936542034
 30
0.0
 10
26.1261227690761
 20
21.0908745606995
 30
0.0
 10
26.1261227690761
 20
21.30167995344194
 30
0.0
 10
26.1261227690761
 20
21.50483723420713
 30
0.0
 10
26.07406737629399
 20
21.63819688044114
 30
0.0
 10
25.9585188737187
 20
21.63819688044114
 30
0.0
 10
25.86071261289246
 20
21.63819688044114
 30
0.0
 10
25.78960584207691
 20
21.51882432187724
 30
0.0
 10
25.78960584207691
 20
21.29406629241954
 30
0.0
  0
SPLINE
  5
F8
330
EE
100
AcDbEntity
  8
Livello 1
100
AcDbSpline
210
0.0
220
0.0
230
1.0
 70
     9
 71
     3
 72
    17
 73
    13
 74
     0
 42
0.000000001
 43
0.0000000001
 40
0.0
 40
0.0
 40
0.0
 40
0.0
 40
1.0
 40
1.0
 40
1.0
 40
2.0
 40
2.0
 40
2.0
 40
3.0
 40
3.0
 40
3.0
 40
4.0
 40
4.0
 40
4.0
 40
4.0
 10
26.23788166661761
 20
21.30674424380526
 30
0.0
 10
26.23788166661761
 20
21.02610676557681
 30
0.0
 10
26.13373643009851
 20
20.87121527255997
 30
0.0
 10
25.95087076174145
 20
20.87121527255997
 30
0.0
 10
25.78960584207691
 20
20.87121527255997
 30
0.0
 10
25.68039631519448
 20
21.02231716054303
 30
0.0
 10
25.67788139549025
 20
21.29534097774908
 30
0.0
 10
25.67788139549025
 20
21.5721543999889
 30
0.0
 10
25.7972195030993
 20
21.72453097330151
 30
0.0
 10
25.96485784941156
 20
21.72453097330151
 30
0.0
 10
26.13883517141668
 20
21.72453097330151
 30
0.0
 10
26.23788166661761
 20
21.56960502932982
 30
0.0
 10
26.23788166661761
 20
21.30674424380526
 30
0.0
  0
HATCH
  5
F9
330
EE
100
AcDbEntity
  8
Livello 1
 62
    18
420
        0
440
 33554687
100
AcDbHatch
 10
0.0
 20
0.0
 30
0.0
210
0.0
220
0.0
230
1.0
  2
SOLID
 70
     1
 71
     1
 91
        2
 92
        1
 93
        1
 72
     4
 94
        3
 73
     0
 74
     0
 95
       17
 96
       13
 40
0.0
 40
0.0
 40
0.0
 40
0.0
 40
1.0
 40
1.0
 40
1.0
 40
2.0
 40
2.0
 40
2.0
 40
3.0
 40
3.0
 40
3.0
 40
4.0
 40
4.0
 40
4.0
 40
4.0
 10
25.78960584207691
 20
21.29406629241954
 10
25.78960584207691
 20
21.07943684368847
 10
25.85564832252914
 20
20.95754936542034
 10
25.95724418838916
 20
20.95754936542034
 10
26.0715180056349
 20
20.95754936542034
 10
26.1261227690761
 20
21.0908745606995
 10
26.1261227690761
 20
21.30167995344194
 10
26.1261227690761
 20
21.50483723420713
 10
26.07406737629399
 20
21.63819688044114
 10
25.9585188737187
 20
21.63819688044114
 10
25.86071261289246
 20
21.63819688044114
 10
25.78960584207691
 20
21.51882432187724
 10
25.78960584207691
 20
21.29406629241954
 97
        1
330
F7
 92
        1
 93
        1
 72
     4
 94
        3
 73
     0
 74
     0
 95
       17
 96
       13
 40
0.0
 40
0.0
 40
0.0
 40
0.0
 40
1.0
 40
1.0
 40
1.0
 40
2.0
 40
2.0
 40
2.0
 40
3.0
 40
3.0
 40
3.0
 40
4.0
 40
4.0
 40
4.0
 40
4.0
 10
26.23788166661761
 20
21.30674424380526
 10
26.23788166661761
 20
21.02610676557681
 10
26.13373643009851
 20
20.87121527255997
 10
25.95087076174145
 20
20.87121527255997
 10
25.78960584207691
 20
20.87121527255997
 10
25.68039631519448
 20
21.02231716054303
 10
25.67788139549025
 20
21.29534097774908
 10
25.67788139549025
 20
21.5721543999889
 10
25.7972195030993
 20
21.72453097330151
 10
25.96485784941156
 20
21.72453097330151
 10
26.13883517141668
 20
21.72453097330151
 10
26.23788166661761
 20
21.56960502932982
 10
26.23788166661761
 20
21.30674424380526
 97
        1
330
F8
 75
     2
 76
     1
 98
        1
 10
0.0
 20
0.0
450
        0
451
        0
460
0.0
461
0.0
452
        0
462
0.0
453
        0
470

  0
SPLINE
  5
FA
330
EE
100
AcDbEntity
  8
Livello 1
100
AcDbSpline
210
0.0
220
0.0
230
1.0
 70
     9
 71
     3
 72
    80
 73
    76
 74
     0
 42
0.000000001
 43
0.0000000001
 40
0.0
 40
0.0
 40
0.0
 40
0.0
 40
1.0
 40
1.0
 40
1.0
 40
2.0
 40
2.0
 40
2.0
 40
3.0
 40
3.0
 40
3.0
 40
4.0
 40
4.0
 40
4.0
 40
5.0
 40
5.0
 40
5.0
 40
6.0
 40
6.0
 40
6.0
 40
7.0
 40
7.0
 40
7.0
 40
8.0
 40
8.0
 40
8.0
 40
9.0
 40
9.0
 40
9.0
 40
10.0
 40
10.0
 40
10.0
 40
11.0
 40
11.0
 40
11.0
 40
12.0
 40
12.0
 40
12.0
 40
13.0
 40
13.0
 40
13.0
 40
14.0
 40
14.0
 40
14.0
 40
15.0
 40
15.0
 40
15.0
 40
16.0
 40
16.0
 40
16.0
 40
17.0
 40
17.0
 40
17.0
 40
18.0
 40
18.0
 40
18.0
 40
19.0
 40
19.0
 40
19.0
 40
20.0
 40
20.0
 40
20.0
 40
21.0
 40
21.0
 40
21.0
 40
22.0
 40
22.0
 40
22.0
 40
23.0
 40
23.0
 40
23.0
 40
24.0
 40
24.0
 40
24.0
 40
25.0
 40
25.0
 40
25.0
 40
25.0
 10
26.64557426634208
 20
21.33340928286109
 30
0.0
 10
26.64557426634208
 20
21.39690239265425
 30
0.0
 10
26.64429958101254
 20
21.44899223639121
 30
0.0
 10
26.64050997597876
 20
21.49977294384381
 30
0.0
 10
26.64050997597876
 20
21.49977294384381
 30
0.0
 10
26.73828178585015
 20
21.49977294384381
 30
0.0
 10
26.73828178585015
 20
21.49977294384381
 30
0.0
 10
26.73828178585015
 20
21.49977294384381
 30
0.0
 10
26.74334607621347
 20
21.40072644864287
 30
0.0
 10
26.74334607621347
 20
21.40072644864287
 30
0.0
 10
26.74334607621347
 20
21.40072644864287
 30
0.0
 10
26.7471701322021
 20
21.40072644864287
 30
0.0
 10
26.7471701322021
 20
21.40072644864287
 30
0.0
 10
26.78144883228033
 20
21.45912081711786
 30
0.0
 10
26.83860296638063
 20
21.51372558055907
 30
0.0
 10
26.94016438128579
 20
21.51372558055907
 30
0.0
 10
27.02398355444192
 20
21.51372558055907
 30
0.0
 10
27.08747666423507
 20
21.46294487310648
 30
0.0
 10
27.11414170329091
 20
21.39056341696139
 30
0.0
 10
27.11414170329091
 20
21.39056341696139
 30
0.0
 10
27.11669107394999
 20
21.39056341696139
 30
0.0
 10
27.11669107394999
 20
21.39056341696139
 30
0.0
 10
27.13574245198342
 20
21.42484211703962
 30
0.0
 10
27.15985812038017
 20
21.45150715609545
 30
0.0
 10
27.18524847410646
 20
21.47055853412889
 30
0.0
 10
27.22207654484379
 20
21.49849825851426
 30
0.0
 10
27.26272867156974
 20
21.51372558055907
 30
0.0
 10
27.32112304004472
 20
21.51372558055907
 30
0.0
 10
27.40239284254176
 20
21.51372558055907
 30
0.0
 10
27.52304008643521
 20
21.4603955024474
 30
0.0
 10
27.52304008643521
 20
21.24707519000073
 30
0.0
 10
27.52304008643521
 20
21.24707519000073
 30
0.0
 10
27.52304008643521
 20
20.88516790927524
 30
0.0
 10
27.52304008643521
 20
20.88516790927524
 30
0.0
 10
27.52304008643521
 20
20.88516790927524
 30
0.0
 10
27.41383055955279
 20
20.88516790927524
 30
0.0
 10
27.41383055955279
 20
20.88516790927524
 30
0.0
 10
27.41383055955279
 20
20.88516790927524
 30
0.0
 10
27.41383055955279
 20
21.23308810233062
 30
0.0
 10
27.41383055955279
 20
21.23308810233062
 30
0.0
 10
27.41383055955279
 20
21.35118597556498
 30
0.0
 10
27.37066351312261
 20
21.42232719733539
 30
0.0
 10
27.28050536427363
 20
21.42232719733539
 30
0.0
 10
27.21701225448047
 20
21.42232719733539
 30
0.0
 10
27.16747178140258
 20
21.37533609491658
 30
0.0
 10
27.14842040336915
 20
21.32073133147537
 30
0.0
 10
27.14335611300583
 20
21.30546955847572
 30
0.0
 10
27.1395320570172
 20
21.28517794606759
 30
0.0
 10
27.1395320570172
 20
21.26485188270462
 30
0.0
 10
27.1395320570172
 20
21.26485188270462
 30
0.0
 10
27.1395320570172
 20
20.88516790927524
 30
0.0
 10
27.1395320570172
 20
20.88516790927524
 30
0.0
 10
27.1395320570172
 20
20.88516790927524
 30
0.0
 10
27.03032253013478
 20
20.88516790927524
 30
0.0
 10
27.03032253013478
 20
20.88516790927524
 30
0.0
 10
27.03032253013478
 20
20.88516790927524
 30
0.0
 10
27.03032253013478
 20
21.25341416569359
 30
0.0
 10
27.03032253013478
 20
21.25341416569359
 30
0.0
 10
27.03032253013478
 20
21.35118597556498
 30
0.0
 10
26.9871554837046
 20
21.42232719733539
 30
0.0
 10
26.90209607617378
 20
21.42232719733539
 30
0.0
 10
26.83222953973293
 20
21.42232719733539
 30
0.0
 10
26.78144883228033
 20
21.36644774856463
 30
0.0
 10
26.76367213957644
 20
21.31056829979389
 30
0.0
 10
26.75733316388358
 20
21.29406629241954
 30
0.0
 10
26.7547837932245
 20
21.27501491438611
 30
0.0
 10
26.7547837932245
 20
21.25596353635267
 30
0.0
 10
26.7547837932245
 20
21.25596353635267
 30
0.0
 10
26.7547837932245
 20
20.88516790927524
 30
0.0
 10
26.7547837932245
 20
20.88516790927524
 30
0.0
 10
26.7547837932245
 20
20.88516790927524
 30
0.0
 10
26.64557426634208
 20
20.88516790927524
 30
0.0
 10
26.64557426634208
 20
20.88516790927524
 30
0.0
 10
26.64557426634208
 20
20.88516790927524
 30
0.0
 10
26.64557426634208
 20
21.33340928286109
 30
0.0
 10
26.64557426634208
 20
21.33340928286109
 30
0.0
  0
HATCH
  5
FB
330
EE
100
AcDbEntity
  8
Livello 1
 62
    18
420
        0
440
 33554687
100
AcDbHatch
 10
0.0
 20
0.0
 30
0.0
210
0.0
220
0.0
230
1.0
  2
SOLID
 70
     1
 71
     1
 91
        1
 92
        1
 93
        1
 72
     4
 94
        3
 73
     0
 74
     0
 95
       80
 96
       76
 40
0.0
 40
0.0
 40
0.0
 40
0.0
 40
1.0
 40
1.0
 40
1.0
 40
2.0
 40
2.0
 40
2.0
 40
3.0
 40
3.0
 40
3.0
 40
4.0
 40
4.0
 40
4.0
 40
5.0
 40
5.0
 40
5.0
 40
6.0
 40
6.0
 40
6.0
 40
7.0
 40
7.0
 40
7.0
 40
8.0
 40
8.0
 40
8.0
 40
9.0
 40
9.0
 40
9.0
 40
10.0
 40
10.0
 40
10.0
 40
11.0
 40
11.0
 40
11.0
 40
12.0
 40
12.0
 40
12.0
 40
13.0
 40
13.0
 40
13.0
 40
14.0
 40
14.0
 40
14.0
 40
15.0
 40
15.0
 40
15.0
 40
16.0
 40
16.0
 40
16.0
 40
17.0
 40
17.0
 40
17.0
 40
18.0
 40
18.0
 40
18.0
 40
19.0
 40
19.0
 40
19.0
 40
20.0
 40
20.0
 40
20.0
 40
21.0
 40
21.0
 40
21.0
 40
22.0
 40
22.0
 40
22.0
 40
23.0
 40
23.0
 40
23.0
 40
24.0
 40
24.0
 40
24.0
 40
25.0
 40
25.0
 40
25.0
 40
25.0
 10
26.64557426634208
 20
21.33340928286109
 10
26.64557426634208
 20
21.39690239265425
 10
26.64429958101254
 20
21.44899223639121
 10
26.64050997597876
 20
21.49977294384381
 10
26.64050997597876
 20
21.49977294384381
 10
26.73828178585015
 20
21.49977294384381
 10
26.73828178585015
 20
21.49977294384381
 10
26.73828178585015
 20
21.49977294384381
 10
26.74334607621347
 20
21.40072644864287
 10
26.74334607621347
 20
21.40072644864287
 10
26.74334607621347
 20
21.40072644864287
 10
26.7471701322021
 20
21.40072644864287
 10
26.7471701322021
 20
21.40072644864287
 10
26.78144883228033
 20
21.45912081711786
 10
26.83860296638063
 20
21.51372558055907
 10
26.94016438128579
 20
21.51372558055907
 10
27.02398355444192
 20
21.51372558055907
 10
27.08747666423507
 20
21.46294487310648
 10
27.11414170329091
 20
21.39056341696139
 10
27.11414170329091
 20
21.39056341696139
 10
27.11669107394999
 20
21.39056341696139
 10
27.11669107394999
 20
21.39056341696139
 10
27.13574245198342
 20
21.42484211703962
 10
27.15985812038017
 20
21.45150715609545
 10
27.18524847410646
 20
21.47055853412889
 10
27.22207654484379
 20
21.49849825851426
 10
27.26272867156974
 20
21.51372558055907
 10
27.32112304004472
 20
21.51372558055907
 10
27.40239284254176
 20
21.51372558055907
 10
27.52304008643521
 20
21.4603955024474
 10
27.52304008643521
 20
21.24707519000073
 10
27.52304008643521
 20
21.24707519000073
 10
27.52304008643521
 20
20.88516790927524
 10
27.52304008643521
 20
20.88516790927524
 10
27.52304008643521
 20
20.88516790927524
 10
27.41383055955279
 20
20.88516790927524
 10
27.41383055955279
 20
20.88516790927524
 10
27.41383055955279
 20
20.88516790927524
 10
27.41383055955279
 20
21.23308810233062
 10
27.41383055955279
 20
21.23308810233062
 10
27.41383055955279
 20
21.35118597556498
 10
27.37066351312261
 20
21.42232719733539
 10
27.28050536427363
 20
21.42232719733539
 10
27.21701225448047
 20
21.42232719733539
 10
27.16747178140258
 20
21.37533609491658
 10
27.14842040336915
 20
21.32073133147537
 10
27.14335611300583
 20
21.30546955847572
 10
27.1395320570172
 20
21.28517794606759
 10
27.1395320570172
 20
21.26485188270462
 10
27.1395320570172
 20
21.26485188270462
 10
27.1395320570172
 20
20.88516790927524
 10
27.1395320570172
 20
20.88516790927524
 10
27.1395320570172
 20
20.88516790927524
 10
27.03032253013478
 20
20.88516790927524
 10
27.03032253013478
 20
20.88516790927524
 10
27.03032253013478
 20
20.88516790927524
 10
27.03032253013478
 20
21.25341416569359
 10
27.03032253013478
 20
21.25341416569359
 10
27.03032253013478
 20
21.35118597556498
 10
26.9871554837046
 20
21.42232719733539
 10
26.90209607617378
 20
21.42232719733539
 10
26.83222953973293
 20
21.42232719733539
 10
26.78144883228033
 20
21.36644774856463
 10
26.76367213957644
 20
21.31056829979389
 10
26.75733316388358
 20
21.29406629241954
 10
26.7547837932245
 20
21.27501491438611
 10
26.7547837932245
 20
21.25596353635267
 10
26.7547837932245
 20
21.25596353635267
 10
26.7547837932245
 20
20.88516790927524
 10
26.7547837932245
 20
20.88516790927524
 10
26.7547837932245
 20
20.88516790927524
 10
26.64557426634208
 20
20.88516790927524
 10
26.64557426634208
 20
20.88516790927524
 10
26.64557426634208
 20
20.88516790927524
 10
26.64557426634208
 20
21.33340928286109
 10
26.64557426634208
 20
21.33340928286109
 97
        1
330
FA
 75
     2
 76
     1
 98
        1
 10
0.0
 20
0.0
450
        0
451
        0
460
0.0
461
0.0
452
        0
462
0.0
453
        0
470

  0
SPLINE
  5
FC
330
EE
100
AcDbEntity
  8
Livello 1
100
AcDbSpline
210
0.0
220
0.0
230
1.0
 70
     9
 71
     3
 72
    80
 73
    76
 74
     0
 42
0.000000001
 43
0.0000000001
 40
0.0
 40
0.0
 40
0.0
 40
0.0
 40
1.0
 40
1.0
 40
1.0
 40
2.0
 40
2.0
 40
2.0
 40
3.0
 40
3.0
 40
3.0
 40
4.0
 40
4.0
 40
4.0
 40
5.0
 40
5.0
 40
5.0
 40
6.0
 40
6.0
 40
6.0
 40
7.0
 40
7.0
 40
7.0
 40
8.0
 40
8.0
 40
8.0
 40
9.0
 40
9.0
 40
9.0
 40
10.0
 40
10.0
 40
10.0
 40
11.0
 40
11.0
 40
11.0
 40
12.0
 40
12.0
 40
12.0
 40
13.0
 40
13.0
 40
13.0
 40
14.0
 40
14.0
 40
14.0
 40
15.0
 40
15.0
 40
15.0
 40
16.0
 40
16.0
 40
16.0
 40
17.0
 40
17.0
 40
17.0
 40
18.0
 40
18.0
 40
18.0
 40
19.0
 40
19.0
 40
19.0
 40
20.0
 40
20.0
 40
20.0
 40
21.0
 40
21.0
 40
21.0
 40
22.0
 40
22.0
 40
22.0
 40
23.0
 40
23.0
 40
23.0
 40
24.0
 40
24.0
 40
24.0
 40
25.0
 40
25.0
 40
25.0
 40
25.0
 10
27.70473442232729
 20
21.33340928286109
 30
0.0
 10
27.70473442232729
 20
21.39690239265425
 30
0.0
 10
27.7034941879526
 20
21.44899223639121
 30
0.0
 10
27.69967013196397
 20
21.49977294384381
 30
0.0
 10
27.69967013196397
 20
21.49977294384381
 30
0.0
 10
27.79744194183536
 20
21.49977294384381
 30
0.0
 10
27.79744194183536
 20
21.49977294384381
 30
0.0
 10
27.79744194183536
 20
21.49977294384381
 30
0.0
 10
27.80254068315353
 20
21.40072644864287
 30
0.0
 10
27.80254068315353
 20
21.40072644864287
 30
0.0
 10
27.80254068315353
 20
21.40072644864287
 30
0.0
 10
27.8063302881873
 20
21.40072644864287
 30
0.0
 10
27.8063302881873
 20
21.40072644864287
 30
0.0
 10
27.84060898826554
 20
21.45912081711786
 30
0.0
 10
27.89776312236583
 20
21.51372558055907
 30
0.0
 10
27.99935898822586
 20
21.51372558055907
 30
0.0
 10
28.08317816138198
 20
21.51372558055907
 30
0.0
 10
28.14667127117514
 20
21.46294487310648
 30
0.0
 10
28.17333631023097
 20
21.39056341696139
 30
0.0
 10
28.17333631023097
 20
21.39056341696139
 30
0.0
 10
28.1758512299352
 20
21.39056341696139
 30
0.0
 10
28.1758512299352
 20
21.39056341696139
 30
0.0
 10
28.19490260796863
 20
21.42484211703962
 30
0.0
 10
28.21905272732024
 20
21.45150715609545
 30
0.0
 10
28.24444308104652
 20
21.47055853412889
 30
0.0
 10
28.28127115178385
 20
21.49849825851426
 30
0.0
 10
28.32188882755494
 20
21.51372558055907
 30
0.0
 10
28.38031764698478
 20
21.51372558055907
 30
0.0
 10
28.46158744948182
 20
21.51372558055907
 30
0.0
 10
28.58220024242042
 20
21.4603955024474
 30
0.0
 10
28.58220024242042
 20
21.24707519000073
 30
0.0
 10
28.58220024242042
 20
21.24707519000073
 30
0.0
 10
28.58220024242042
 20
20.88516790927524
 30
0.0
 10
28.58220024242042
 20
20.88516790927524
 30
0.0
 10
28.58220024242042
 20
20.88516790927524
 30
0.0
 10
28.472990715538
 20
20.88516790927524
 30
0.0
 10
28.472990715538
 20
20.88516790927524
 30
0.0
 10
28.472990715538
 20
20.88516790927524
 30
0.0
 10
28.472990715538
 20
21.23308810233062
 30
0.0
 10
28.472990715538
 20
21.23308810233062
 30
0.0
 10
28.472990715538
 20
21.35118597556498
 30
0.0
 10
28.42982366910782
 20
21.42232719733539
 30
0.0
 10
28.33966552025883
 20
21.42232719733539
 30
0.0
 10
28.27617241046567
 20
21.42232719733539
 30
0.0
 10
28.22666638834263
 20
21.37533609491658
 30
0.0
 10
28.20761501030921
 20
21.32073133147537
 30
0.0
 10
28.20251626899104
 20
21.30546955847572
 30
0.0
 10
28.19872666395726
 20
21.28517794606759
 30
0.0
 10
28.19872666395726
 20
21.26485188270462
 30
0.0
 10
28.19872666395726
 20
21.26485188270462
 30
0.0
 10
28.19872666395726
 20
20.88516790927524
 30
0.0
 10
28.19872666395726
 20
20.88516790927524
 30
0.0
 10
28.19872666395726
 20
20.88516790927524
 30
0.0
 10
28.08951713707484
 20
20.88516790927524
 30
0.0
 10
28.08951713707484
 20
20.88516790927524
 30
0.0
 10
28.08951713707484
 20
20.88516790927524
 30
0.0
 10
28.08951713707484
 20
21.25341416569359
 30
0.0
 10
28.08951713707484
 20
21.25341416569359
 30
0.0
 10
28.08951713707484
 20
21.35118597556498
 30
0.0
 10
28.04635009064466
 20
21.42232719733539
 30
0.0
 10
27.96125623215899
 20
21.42232719733539
 30
0.0
 10
27.89142414667298
 20
21.42232719733539
 30
0.0
 10
27.84060898826554
 20
21.36644774856463
 30
0.0
 10
27.82283229556165
 20
21.31056829979389
 30
0.0
 10
27.81649331986879
 20
21.29406629241954
 30
0.0
 10
27.81394394920971
 20
21.27501491438611
 30
0.0
 10
27.81394394920971
 20
21.25596353635267
 30
0.0
 10
27.81394394920971
 20
21.25596353635267
 30
0.0
 10
27.81394394920971
 20
20.88516790927524
 30
0.0
 10
27.81394394920971
 20
20.88516790927524
 30
0.0
 10
27.81394394920971
 20
20.88516790927524
 30
0.0
 10
27.70473442232729
 20
20.88516790927524
 30
0.0
 10
27.70473442232729
 20
20.88516790927524
 30
0.0
 10
27.70473442232729
 20
20.88516790927524
 30
0.0
 10
27.70473442232729
 20
21.33340928286109
 30
0.0
 10
27.70473442232729
 20
21.33340928286109
 30
0.0
  0
HATCH
  5
FD
330
EE
100
AcDbEntity
  8
Livello 1
 62
    18
420
        0
440
 33554687
100
AcDbHatch
 10
0.0
 20
0.0
 30
0.0
210
0.0
220
0.0
230
1.0
  2
SOLID
 70
     1
 71
     1
 91
        1
 92
        1
 93
        1
 72
     4
 94
        3
 73
     0
 74
     0
 95
       80
 96
       76
 40
0.0
 40
0.0
 40
0.0
 40
0.0
 40
1.0
 40
1.0
 40
1.0
 40
2.0
 40
2.0
 40
2.0
 40
3.0
 40
3.0
 40
3.0
 40
4.0
 40
4.0
 40
4.0
 40
5.0
 40
5.0
 40
5.0
 40
6.0
 40
6.0
 40
6.0
 40
7.0
 40
7.0
 40
7.0
 40
8.0
 40
8.0
 40
8.0
 40
9.0
 40
9.0
 40
9.0
 40
10.0
 40
10.0
 40
10.0
 40
11.0
 40
11.0
 40
11.0
 40
12.0
 40
12.0
 40
12.0
 40
13.0
 40
13.0
 40
13.0
 40
14.0
 40
14.0
 40
14.0
 40
15.0
 40
15.0
 40
15.0
 40
16.0
 40
16.0
 40
16.0
 40
17.0
 40
17.0
 40
17.0
 40
18.0
 40
18.0
 40
18.0
 40
19.0
 40
19.0
 40
19.0
 40
20.0
 40
20.0
 40
20.0
 40
21.0
 40
21.0
 40
21.0
 40
22.0
 40
22.0
 40
22.0
 40
23.0
 40
23.0
 40
23.0
 40
24.0
 40
24.0
 40
24.0
 40
25.0
 40
25.0
 40
25.0
 40
25.0
 10
27.70473442232729
 20
21.33340928286109
 10
27.70473442232729
 20
21.39690239265425
 10
27.7034941879526
 20
21.44899223639121
 10
27.69967013196397
 20
21.49977294384381
 10
27.69967013196397
 20
21.49977294384381
 10
27.79744194183536
 20
21.49977294384381
 10
27.79744194183536
 20
21.49977294384381
 10
27.79744194183536
 20
21.49977294384381
 10
27.80254068315353
 20
21.40072644864287
 10
27.80254068315353
 20
21.40072644864287
 10
27.80254068315353
 20
21.40072644864287
 10
27.8063302881873
 20
21.40072644864287
 10
27.8063302881873
 20
21.40072644864287
 10
27.84060898826554
 20
21.45912081711786
 10
27.89776312236583
 20
21.51372558055907
 10
27.99935898822586
 20
21.51372558055907
 10
28.08317816138198
 20
21.51372558055907
 10
28.14667127117514
 20
21.46294487310648
 10
28.17333631023097
 20
21.39056341696139
 10
28.17333631023097
 20
21.39056341696139
 10
28.1758512299352
 20
21.39056341696139
 10
28.1758512299352
 20
21.39056341696139
 10
28.19490260796863
 20
21.42484211703962
 10
28.21905272732024
 20
21.45150715609545
 10
28.24444308104652
 20
21.47055853412889
 10
28.28127115178385
 20
21.49849825851426
 10
28.32188882755494
 20
21.51372558055907
 10
28.38031764698478
 20
21.51372558055907
 10
28.46158744948182
 20
21.51372558055907
 10
28.58220024242042
 20
21.4603955024474
 10
28.58220024242042
 20
21.24707519000073
 10
28.58220024242042
 20
21.24707519000073
 10
28.58220024242042
 20
20.88516790927524
 10
28.58220024242042
 20
20.88516790927524
 10
28.58220024242042
 20
20.88516790927524
 10
28.472990715538
 20
20.88516790927524
 10
28.472990715538
 20
20.88516790927524
 10
28.472990715538
 20
20.88516790927524
 10
28.472990715538
 20
21.23308810233062
 10
28.472990715538
 20
21.23308810233062
 10
28.472990715538
 20
21.35118597556498
 10
28.42982366910782
 20
21.42232719733539
 10
28.33966552025883
 20
21.42232719733539
 10
28.27617241046567
 20
21.42232719733539
 10
28.22666638834263
 20
21.37533609491658
 10
28.20761501030921
 20
21.32073133147537
 10
28.20251626899104
 20
21.30546955847572
 10
28.19872666395726
 20
21.28517794606759
 10
28.19872666395726
 20
21.26485188270462
 10
28.19872666395726
 20
21.26485188270462
 10
28.19872666395726
 20
20.88516790927524
 10
28.19872666395726
 20
20.88516790927524
 10
28.19872666395726
 20
20.88516790927524
 10
28.08951713707484
 20
20.88516790927524
 10
28.08951713707484
 20
20.88516790927524
 10
28.08951713707484
 20
20.88516790927524
 10
28.08951713707484
 20
21.25341416569359
 10
28.08951713707484
 20
21.25341416569359
 10
28.08951713707484
 20
21.35118597556498
 10
28.04635009064466
 20
21.42232719733539
 10
27.96125623215899
 20
21.42232719733539
 10
27.89142414667298
 20
21.42232719733539
 10
27.84060898826554
 20
21.36644774856463
 10
27.82283229556165
 20
21.31056829979389
 10
27.81649331986879
 20
21.29406629241954
 10
27.81394394920971
 20
21.27501491438611
 10
27.81394394920971
 20
21.25596353635267
 10
27.81394394920971
 20
21.25596353635267
 10
27.81394394920971
 20
20.88516790927524
 10
27.81394394920971
 20
20.88516790927524
 10
27.81394394920971
 20
20.88516790927524
 10
27.70473442232729
 20
20.88516790927524
 10
27.70473442232729
 20
20.88516790927524
 10
27.70473442232729
 20
20.88516790927524
 10
27.70473442232729
 20
21.33340928286109
 10
27.70473442232729
 20
21.33340928286109
 97
        1
330
FC
 75
     2
 76
     1
 98
        1
 10
0.0
 20
0.0
450
        0
451
        0
460
0.0
461
0.0
452
        0
462
0.0
453
        0
470

  0
ENDBLK
  5
F1
330
EE
100
AcDbEntity
  8
0
100
AcDbBlockEnd
  0
ENDSEC
  0
SECTION
  2
ENTITIES
  0
LINE
  5
79
330
70
100
AcDbEntity
  8
Livello 1
100
AcDbLine
 10
9.493250212945154
 20
35.86480050779822
 30
0.0
 11
3.327399988402226
 21
35.86480050779822
 31
0.0
  0
LINE
  5
7A
330
70
100
AcDbEntity
  8
Livello 1
100
AcDbLine
 10
3.333749999166562
 20
33.52164895809095
 30
0.0
 11
3.333749999166562
 21
6.165849955394842
 31
0.0
  0
LINE
  5
7B
330
70
100
AcDbEntity
  8
Livello 1
100
AcDbLine
 10
3.289299923816209
 20
33.94074913024094
 30
0.0
 11
3.289299923816209
 21
33.94074913024094
 31
0.0
  0
LINE
  5
7C
330
70
100
AcDbEntity
  8
Livello 1
100
AcDbLine
 10
11.0998005139894
 20
35.22980050795687
 30
0.0
 11
11.08709995416453
 21
35.858450766182
 31
0.0
  0
LINE
  5
7D
330
70
100
AcDbEntity
  8
Livello 1
100
AcDbLine
 10
1.733549978034764
 20
35.858450766182
 30
0.0
 11
1.720849956506093
 21
35.22980050795687
 31
0.0
  0
LINE
  5
7E
330
70
100
AcDbEntity
  8
Livello 1
100
AcDbLine
 10
1.841500026454433
 20
35.22980050795687
 30
0.0
 11
1.854200047983104
 21
34.6583000774628
 31
0.0
  0
LINE
  5
7F
330
70
100
AcDbEntity
  8
Livello 1
100
AcDbLine
 10
10.9664494804941
 20
34.6583000774628
 30
0.0
 11
10.9791500403189
 21
35.22980050795687
 31
0.0
  0
LINE
  5
80
330
70
100
AcDbEntity
  8
Livello 1
100
AcDbLine
 10
3.308349956109217
 20
5.905499783205156
 30
0.0
 11
3.308349956109217
 21
6.165849955394842
 31
0.0
  0
LINE
  5
83
330
70
100
AcDbEntity
  8
Livello 1
100
AcDbLine
 10
3.359150042223904
 20
6.165849955394842
 30
0.0
 11
3.359150042223904
 21
5.905499783205156
 31
0.0
  0
LINE
  5
86
330
70
100
AcDbEntity
  8
Livello 1
100
AcDbLine
 10
9.493250212945154
 20
35.858450766182
 30
0.0
 11
9.493250212945154
 21
35.86480050779822
 31
0.0
  0
LINE
  5
88
330
70
100
AcDbEntity
  8
Livello 1
100
AcDbLine
 10
3.32104997763789
 20
35.858450766182
 30
0.0
 11
3.327399988402226
 21
35.86480050779822
 31
0.0
  0
LINE
  5
89
330
70
100
AcDbEntity
  8
Livello 1
100
AcDbLine
 10
3.282949913051875
 20
33.52164895809095
 30
0.0
 11
3.301999945344881
 21
34.63289895781314
 31
0.0
  0
LINE
  5
8A
330
70
100
AcDbEntity
  8
Livello 1
100
AcDbLine
 10
1.854200047983104
 20
34.6583000774628
 30
0.0
 11
10.9664494804941
 21
34.6583000774628
 31
0.0
  0
LINE
  5
8B
330
70
100
AcDbEntity
  8
Livello 1
100
AcDbLine
 10
1.879599956466406
 20
34.63289895781314
 30
0.0
 11
10.94105051402909
 21
34.63289895781314
 31
0.0
  0
LINE
  5
8C
330
70
100
AcDbEntity
  8
Livello 1
100
AcDbLine
 10
1.733549978034764
 20
35.858450766182
 30
0.0
 11
11.08709995416453
 21
35.858450766182
 31
0.0
  0
LINE
  5
8D
330
70
100
AcDbEntity
  8
Livello 1
100
AcDbLine
 10
11.0998005139894
 20
35.22980050795687
 30
0.0
 11
1.720849956506093
 21
35.22980050795687
 31
0.0
  0
LINE
  5
8E
330
70
100
AcDbEntity
  8
Livello 1
100
AcDbLine
 10
15.05232303666932
 20
33.52164895809095
 30
0.0
 11
15.05232303666932
 21
6.165849955394842
 31
0.0
  0
LINE
  5
8F
330
70
100
AcDbEntity
  8
Livello 1
100
AcDbLine
 10
22.67232195817198
 20
35.22980050795687
 30
0.0
 11
22.65962247493948
 21
35.858450766182
 31
0.0
  0
LINE
  5
90
330
70
100
AcDbEntity
  8
Livello 1
100
AcDbLine
 10
22.53897307786135
 20
34.6583000774628
 30
0.0
 11
22.55167256109385
 21
35.22980050795687
 31
0.0
  0
LINE
  5
91
330
70
100
AcDbEntity
  8
Livello 1
100
AcDbLine
 10
14.0744229938501
 20
33.17240025008906
 30
0.0
 11
14.01092234791057
 21
33.13429964720687
 31
0.0
  0
LINE
  5
93
330
70
100
AcDbEntity
  8
Livello 1
100
AcDbLine
 10
13.94742277856338
 20
6.438900149113202
 30
0.0
 11
13.94742277856338
 21
6.515099739989062
 31
0.0
  0
LINE
  5
94
330
70
100
AcDbEntity
  8
Livello 1
100
AcDbLine
 10
14.0744229938501
 20
6.515099739989062
 30
0.0
 11
14.0744229938501
 21
6.438900149113202
 31
0.0
  0
LINE
  5
95
330
70
100
AcDbEntity
  8
Livello 1
100
AcDbLine
 10
14.01092234791057
 20
6.400800084527186
 30
0.0
 11
13.94742277856338
 21
6.438900149113202
 31
0.0
  0
LINE
  5
96
330
70
100
AcDbEntity
  8
Livello 1
100
AcDbLine
 10
14.01092234791057
 20
6.553199804575077
 30
0.0
 11
14.0744229938501
 21
6.515099739989062
 31
0.0
  0
LINE
  5
97
330
70
100
AcDbEntity
  8
Livello 1
100
AcDbLine
 10
14.0744229938501
 20
6.438900149113202
 30
0.0
 11
14.01092234791057
 21
6.400800084527186
 31
0.0
  0
LINE
  5
98
330
70
100
AcDbEntity
  8
Livello 1
100
AcDbLine
 10
13.94742277856338
 20
6.515099739989062
 30
0.0
 11
14.01092234791057
 21
6.553199804575077
 31
0.0
  0
LINE
  5
99
330
70
100
AcDbEntity
  8
Livello 1
100
AcDbLine
 10
13.95377252017963
 20
33.87089981927751
 30
0.0
 11
14.01727316611916
 21
33.9090004221597
 31
0.0
  0
LINE
  5
9B
330
70
100
AcDbEntity
  8
Livello 1
100
AcDbLine
 10
14.97612290749729
 20
5.905499783205156
 30
0.0
 11
14.97612290749729
 21
6.165849955394842
 31
0.0
  0
LINE
  5
9E
330
70
100
AcDbEntity
  8
Livello 1
100
AcDbLine
 10
12.9949227788015
 20
5.905499783205156
 30
0.0
 11
12.9949227788015
 21
6.165849955394842
 31
0.0
  0
LINE
  5
9F
330
70
100
AcDbEntity
  8
Livello 1
100
AcDbLine
 10
15.02692299361197
 20
6.165849955394842
 30
0.0
 11
15.02692299361197
 21
5.905499783205156
 31
0.0
  0
LINE
  5
A0
330
70
100
AcDbEntity
  8
Livello 1
100
AcDbLine
 10
15.00152295055463
 20
6.165849955394842
 30
0.0
 11
13.02032282185885
 21
6.165849955394842
 31
0.0
  0
LINE
  5
A1
330
70
100
AcDbEntity
  8
Livello 1
100
AcDbLine
 10
12.96952273574416
 20
6.165849955394842
 30
0.0
 11
12.96952273574416
 21
33.52164895809095
 31
0.0
  0
LINE
  5
A2
330
70
100
AcDbEntity
  8
Livello 1
100
AcDbLine
 10
13.02032282185885
 20
33.52164895809095
 30
0.0
 11
13.02032282185885
 21
6.165849955394842
 31
0.0
  0
LINE
  5
A3
330
70
100
AcDbEntity
  8
Livello 1
100
AcDbLine
 10
15.00152295055463
 20
6.165849955394842
 30
0.0
 11
15.00152295055463
 21
33.52164895809095
 31
0.0
  0
LINE
  5
A4
330
70
100
AcDbEntity
  8
Livello 1
100
AcDbLine
 10
12.96952273574416
 20
33.52164895809095
 30
0.0
 11
13.02032282185885
 21
33.52164895809095
 31
0.0
  0
LINE
  5
A5
330
70
100
AcDbEntity
  8
Livello 1
100
AcDbLine
 10
15.00152295055463
 20
33.52164895809095
 30
0.0
 11
15.05232303666932
 21
33.52164895809095
 31
0.0
  0
LINE
  5
A6
330
70
100
AcDbEntity
  8
Livello 1
100
AcDbLine
 10
15.05232303666932
 20
6.165849955394842
 30
0.0
 11
15.00152295055463
 21
6.165849955394842
 31
0.0
  0
LINE
  5
A7
330
70
100
AcDbEntity
  8
Livello 1
100
AcDbLine
 10
15.00152295055463
 20
33.52164895809095
 30
0.0
 11
13.02032282185885
 21
33.52164895809095
 31
0.0
  0
LINE
  5
A8
330
70
100
AcDbEntity
  8
Livello 1
100
AcDbLine
 10
13.02032282185885
 20
6.165849955394842
 30
0.0
 11
12.96952273574416
 21
6.165849955394842
 31
0.0
  0
LINE
  5
A9
330
70
100
AcDbEntity
  8
Livello 1
100
AcDbLine
 10
12.96952273574416
 20
33.52164895809095
 30
0.0
 11
15.12217234763276
 21
33.52164895809095
 31
0.0
  0
LINE
  5
AB
330
70
100
AcDbEntity
  8
Livello 1
100
AcDbLine
 10
15.12217234763276
 20
33.52164895809095
 30
0.0
 11
15.09677230457541
 21
35.22980050795687
 31
0.0
  0
LINE
  5
AC
330
70
100
AcDbEntity
  8
Livello 1
100
AcDbLine
 10
22.53897307786135
 20
34.6583000774628
 30
0.0
 11
15.12217234763276
 21
34.6583000774628
 31
0.0
  0
LINE
  5
AD
330
70
100
AcDbEntity
  8
Livello 1
100
AcDbLine
 10
22.51357195821167
 20
34.63289895781314
 30
0.0
 11
15.1348729074576
 21
34.63289895781314
 31
0.0
  0
LINE
  5
AE
330
70
100
AcDbEntity
  8
Livello 1
100
AcDbLine
 10
22.65962247493948
 20
35.858450766182
 30
0.0
 11
14.46812312294275
 21
35.858450766182
 31
0.0
  0
LINE
  5
AF
330
70
100
AcDbEntity
  8
Livello 1
100
AcDbLine
 10
14.45542256311791
 20
35.22980050795687
 30
0.0
 11
22.67232195817198
 21
35.22980050795687
 31
0.0
  0
LINE
  5
B0
330
70
100
AcDbEntity
  8
Livello 1
100
AcDbLine
 10
1.854200047983104
 20
34.6583000774628
 30
0.0
 11
1.879599956466406
 21
34.63289895781314
 31
0.0
  0
LINE
  5
B1
330
70
100
AcDbEntity
  8
Livello 1
100
AcDbLine
 10
10.94105051402909
 20
34.63289895781314
 30
0.0
 11
10.9664494804941
 21
34.6583000774628
 31
0.0
  0
LINE
  5
B2
330
70
100
AcDbEntity
  8
Livello 1
100
AcDbLine
 10
22.51357195821167
 20
34.63289895781314
 30
0.0
 11
22.53897307786135
 21
34.6583000774628
 31
0.0
  0
LINE
  5
B5
330
70
100
AcDbEntity
  8
Livello 1
100
AcDbLine
 10
15.10947286440026
 20
34.6583000774628
 30
0.0
 11
15.1348729074576
 21
34.63289895781314
 31
0.0
  0
LINE
  5
BA
330
70
100
AcDbEntity
  8
Livello 1
100
AcDbLine
 10
15.10947286440026
 20
34.6583000774628
 30
0.0
 11
15.103123122784
 21
35.22980050795687
 31
0.0
  0
LINE
  5
BB
330
70
100
AcDbEntity
  8
Livello 1
100
AcDbLine
 10
15.10947286440026
 20
35.22980050795687
 30
0.0
 11
15.12217234763276
 21
34.6583000774628
 31
0.0
  0
LINE
  5
BC
330
70
100
AcDbEntity
  8
Livello 1
100
AcDbLine
 10
14.46812312294275
 20
35.858450766182
 30
0.0
 11
14.46177230473416
 21
35.54730050787759
 31
0.0
  0
LINE
  5
BD
330
70
100
AcDbEntity
  8
Livello 1
100
AcDbLine
 10
1.733549978034764
 20
4.231832150242325
 30
0.0
 11
11.0998005139894
 21
4.231832150242325
 31
0.0
  0
LINE
  5
BE
330
70
100
AcDbEntity
  8
Livello 1
100
AcDbLine
 10
12.96952273574416
 20
4.231832150242325
 30
0.0
 11
22.55167256109385
 21
4.231832150242325
 31
0.0
  0
LINE
  5
BF
330
70
100
AcDbEntity
  8
Livello 1
100
AcDbLine
 10
23.6848995212656
 20
35.86480050779822
 30
0.0
 11
23.6848995212656
 21
5.905499783205156
 31
0.0
  0
LINE
  5
144
330
70
100
AcDbEntity
  8
Livello 1
100
AcDbLine
 10
9.455149610062965
 20
5.905499783205156
 30
0.0
 11
9.512300514386279
 21
5.905499783205156
 31
0.0
  0
LINE
  5
145
330
70
100
AcDbEntity
  8
Livello 1
100
AcDbLine
 10
9.512300514386279
 20
5.905499783205156
 30
0.0
 11
9.512300514386279
 21
6.165849955394842
 31
0.0
  0
LINE
  5
146
330
70
100
AcDbEntity
  8
Livello 1
100
AcDbLine
 10
3.308349956109217
 20
5.905499783205156
 30
0.0
 11
3.359150042223904
 21
5.905499783205156
 31
0.0
  0
LINE
  5
147
330
70
100
AcDbEntity
  8
Livello 1
100
AcDbLine
 10
3.359150042223904
 20
5.905499783205156
 30
0.0
 11
9.455149610062965
 21
5.905499783205156
 31
0.0
  0
LINE
  5
148
330
70
100
AcDbEntity
  8
Livello 1
100
AcDbLine
 10
9.455149610062965
 20
5.905499783205156
 30
0.0
 11
9.455149610062965
 21
6.165849955394842
 31
0.0
  0
LINE
  5
149
330
70
100
AcDbEntity
  8
Livello 1
100
AcDbLine
 10
9.480549653120313
 20
6.165849955394842
 30
0.0
 11
9.537699480851282
 21
6.165849955394842
 31
0.0
  0
LINE
  5
14A
330
70
100
AcDbEntity
  8
Livello 1
100
AcDbLine
 10
9.537699480851282
 20
6.165849955394842
 30
0.0
 11
9.537699480851282
 21
33.52164895809095
 31
0.0
  0
LINE
  5
14B
330
70
100
AcDbEntity
  8
Livello 1
100
AcDbLine
 10
9.480549653120313
 20
33.52164895809095
 30
0.0
 11
9.480549653120313
 21
6.165849955394842
 31
0.0
  0
LINE
  5
14C
330
70
100
AcDbEntity
  8
Livello 1
100
AcDbLine
 10
9.480549653120313
 20
6.165849955394842
 30
0.0
 11
3.333749999166562
 21
6.165849955394842
 31
0.0
  0
LINE
  5
14D
330
70
100
AcDbEntity
  8
Livello 1
100
AcDbLine
 10
3.333749999166562
 20
6.165849955394842
 30
0.0
 11
3.282949913051875
 21
6.165849955394842
 31
0.0
  0
LINE
  5
14E
330
70
100
AcDbEntity
  8
Livello 1
100
AcDbLine
 10
3.282949913051875
 20
6.165849955394842
 30
0.0
 11
3.282949913051875
 21
33.52164895809095
 31
0.0
  0
LINE
  5
14F
330
70
100
AcDbEntity
  8
Livello 1
100
AcDbLine
 10
3.282949913051875
 20
33.52164895809095
 30
0.0
 11
9.537699480851282
 21
33.52164895809095
 31
0.0
  0
LINE
  5
150
330
70
100
AcDbEntity
  8
Livello 1
100
AcDbLine
 10
9.537699480851282
 20
33.52164895809095
 30
0.0
 11
9.518650256002498
 21
34.63289895781314
 31
0.0
  0
LINE
  5
151
330
70
100
AcDbEntity
  8
Livello 1
100
AcDbLine
 10
14.01092234791057
 20
33.13429964720687
 30
0.0
 11
13.94742277856338
 21
33.17240025008906
 31
0.0
  0
LINE
  5
152
330
70
100
AcDbEntity
  8
Livello 1
100
AcDbLine
 10
13.94742277856338
 20
33.17240025008906
 30
0.0
 11
13.94742277856338
 21
33.24859930266875
 31
0.0
  0
LINE
  5
153
330
70
100
AcDbEntity
  8
Livello 1
100
AcDbLine
 10
13.94742277856338
 20
33.24859930266875
 30
0.0
 11
14.01092234791057
 21
33.28669990555094
 31
0.0
  0
LINE
  5
154
330
70
100
AcDbEntity
  8
Livello 1
100
AcDbLine
 10
14.01092234791057
 20
33.28669990555094
 30
0.0
 11
14.0744229938501
 21
33.24859930266875
 31
0.0
  0
LINE
  5
155
330
70
100
AcDbEntity
  8
Livello 1
100
AcDbLine
 10
14.0744229938501
 20
33.24859930266875
 30
0.0
 11
14.0744229938501
 21
33.17240025008906
 31
0.0
  0
LINE
  5
156
330
70
100
AcDbEntity
  8
Livello 1
100
AcDbLine
 10
13.95377252017963
 20
33.87089981927751
 30
0.0
 11
13.95377252017963
 21
33.79470076669781
 31
0.0
  0
LINE
  5
157
330
70
100
AcDbEntity
  8
Livello 1
100
AcDbLine
 10
13.95377252017963
 20
33.79470076669781
 30
0.0
 11
14.01727316611916
 21
33.75660016381562
 31
0.0
  0
LINE
  5
158
330
70
100
AcDbEntity
  8
Livello 1
100
AcDbLine
 10
14.01727316611916
 20
33.75660016381562
 30
0.0
 11
14.0871224770826
 21
33.79470076669781
 31
0.0
  0
LINE
  5
159
330
70
100
AcDbEntity
  8
Livello 1
100
AcDbLine
 10
14.0871224770826
 20
33.79470076669781
 30
0.0
 11
14.0871224770826
 21
33.87089981927751
 31
0.0
  0
LINE
  5
15A
330
70
100
AcDbEntity
  8
Livello 1
100
AcDbLine
 10
14.0871224770826
 20
33.87089981927751
 30
0.0
 11
14.01727316611916
 21
33.9090004221597
 31
0.0
  0
LINE
  5
15B
330
70
100
AcDbEntity
  8
Livello 1
100
AcDbLine
 10
12.9949227788015
 20
5.905499783205156
 30
0.0
 11
13.04572286491619
 21
5.905499783205156
 31
0.0
  0
LINE
  5
15C
330
70
100
AcDbEntity
  8
Livello 1
100
AcDbLine
 10
13.04572286491619
 20
5.905499783205156
 30
0.0
 11
13.04572286491619
 21
6.165849955394842
 31
0.0
  0
LINE
  5
15D
330
70
100
AcDbEntity
  8
Livello 1
100
AcDbLine
 10
15.02692299361197
 20
5.905499783205156
 30
0.0
 11
14.97612290749729
 21
5.905499783205156
 31
0.0
  0
LINE
  5
15E
330
70
100
AcDbEntity
  8
Livello 1
100
AcDbLine
 10
14.97612290749729
 20
5.905499783205156
 30
0.0
 11
13.04572286491619
 21
5.905499783205156
 31
0.0
  0
LINE
  5
15F
330
70
100
AcDbEntity
  8
Livello 1
100
AcDbLine
 10
14.46812312294275
 20
35.24249999118936
 30
0.0
 11
14.45542256311791
 21
35.86480050779822
 31
0.0
  0
LINE
  5
160
330
70
100
AcDbEntity
  8
Livello 1
100
AcDbLine
 10
14.45542256311791
 20
35.86480050779822
 30
0.0
 11
13.00762226203401
 21
35.86480050779822
 31
0.0
  0
LINE
  5
161
330
70
100
AcDbEntity
  8
Livello 1
100
AcDbLine
 10
13.00762226203401
 20
35.86480050779822
 30
0.0
 11
12.96952273574416
 21
33.52164895809095
 31
0.0
  0
LINE
  5
162
330
70
100
AcDbEntity
  8
Livello 1
100
AcDbLine
 10
14.01092234791057
 20
33.10255093912562
 30
0.0
 11
14.055372692409
 21
33.10890068074188
 31
0.0
  0
LINE
  5
163
330
70
100
AcDbEntity
  8
Livello 1
100
AcDbLine
 10
14.055372692409
 20
33.10890068074188
 30
0.0
 11
14.0871224770826
 21
33.13429964720687
 31
0.0
  0
LINE
  5
164
330
70
100
AcDbEntity
  8
Livello 1
100
AcDbLine
 10
14.0871224770826
 20
33.13429964720687
 30
0.0
 11
14.11252252013994
 21
33.16605050847281
 31
0.0
  0
LINE
  5
165
330
70
100
AcDbEntity
  8
Livello 1
100
AcDbLine
 10
14.11252252013994
 20
33.16605050847281
 30
0.0
 11
14.11887226175619
 21
33.21050085297124
 31
0.0
  0
LINE
  5
166
330
70
100
AcDbEntity
  8
Livello 1
100
AcDbLine
 10
14.11887226175619
 20
33.21050085297124
 30
0.0
 11
14.11252252013994
 21
33.254949044285
 31
0.0
  0
LINE
  5
167
330
70
100
AcDbEntity
  8
Livello 1
100
AcDbLine
 10
14.11252252013994
 20
33.254949044285
 30
0.0
 11
14.0871224770826
 21
33.28669990555094
 31
0.0
  0
LINE
  5
168
330
70
100
AcDbEntity
  8
Livello 1
100
AcDbLine
 10
14.0871224770826
 20
33.28669990555094
 30
0.0
 11
14.055372692409
 21
33.31210102520062
 31
0.0
  0
LINE
  5
169
330
70
100
AcDbEntity
  8
Livello 1
100
AcDbLine
 10
14.055372692409
 20
33.31210102520062
 30
0.0
 11
14.01092234791057
 21
33.31845076681687
 31
0.0
  0
LINE
  5
16A
330
70
100
AcDbEntity
  8
Livello 1
100
AcDbLine
 10
14.01092234791057
 20
33.31845076681687
 30
0.0
 11
13.96647308000447
 21
33.31210102520062
 31
0.0
  0
LINE
  5
16B
330
70
100
AcDbEntity
  8
Livello 1
100
AcDbLine
 10
13.96647308000447
 20
33.31210102520062
 30
0.0
 11
13.93472221873854
 21
33.28669990555094
 31
0.0
  0
LINE
  5
16C
330
70
100
AcDbEntity
  8
Livello 1
100
AcDbLine
 10
13.93472221873854
 20
33.28669990555094
 30
0.0
 11
13.90932325227353
 21
33.254949044285
 31
0.0
  0
LINE
  5
16D
330
70
100
AcDbEntity
  8
Livello 1
100
AcDbLine
 10
13.90932325227353
 20
33.254949044285
 30
0.0
 11
13.90297243406494
 21
33.21050085297124
 31
0.0
  0
LINE
  5
16E
330
70
100
AcDbEntity
  8
Livello 1
100
AcDbLine
 10
13.90297243406494
 20
33.21050085297124
 30
0.0
 11
13.90932325227353
 21
33.16605050847281
 31
0.0
  0
LINE
  5
16F
330
70
100
AcDbEntity
  8
Livello 1
100
AcDbLine
 10
13.90932325227353
 20
33.16605050847281
 30
0.0
 11
13.93472221873854
 21
33.13429964720687
 31
0.0
  0
LINE
  5
170
330
70
100
AcDbEntity
  8
Livello 1
100
AcDbLine
 10
13.93472221873854
 20
33.13429964720687
 30
0.0
 11
13.96647308000447
 21
33.10890068074188
 31
0.0
  0
LINE
  5
171
330
70
100
AcDbEntity
  8
Livello 1
100
AcDbLine
 10
13.96647308000447
 20
33.10890068074188
 30
0.0
 11
14.01092234791057
 21
33.10255093912562
 31
0.0
  0
LINE
  5
172
330
70
100
AcDbEntity
  8
Livello 1
100
AcDbLine
 10
14.01092234791057
 20
6.369049761557422
 30
0.0
 11
14.055372692409
 21
6.375400041469842
 31
0.0
  0
LINE
  5
173
330
70
100
AcDbEntity
  8
Livello 1
100
AcDbLine
 10
14.055372692409
 20
6.375400041469842
 30
0.0
 11
14.0871224770826
 21
6.400800084527186
 31
0.0
  0
LINE
  5
174
330
70
100
AcDbEntity
  8
Livello 1
100
AcDbLine
 10
14.0871224770826
 20
6.400800084527186
 30
0.0
 11
14.11252252013994
 21
6.432549869200781
 31
0.0
  0
LINE
  5
175
330
70
100
AcDbEntity
  8
Livello 1
100
AcDbLine
 10
14.11252252013994
 20
6.432549869200781
 30
0.0
 11
14.11887226175619
 21
6.477000213699217
 31
0.0
  0
LINE
  5
176
330
70
100
AcDbEntity
  8
Livello 1
100
AcDbLine
 10
14.11887226175619
 20
6.477000213699217
 30
0.0
 11
14.11252252013994
 21
6.521450019901481
 31
0.0
  0
LINE
  5
177
330
70
100
AcDbEntity
  8
Livello 1
100
AcDbLine
 10
14.11252252013994
 20
6.521450019901481
 30
0.0
 11
14.0871224770826
 21
6.553199804575077
 31
0.0
  0
LINE
  5
178
330
70
100
AcDbEntity
  8
Livello 1
100
AcDbLine
 10
14.0871224770826
 20
6.553199804575077
 30
0.0
 11
14.055372692409
 21
6.578599847632421
 31
0.0
  0
LINE
  5
179
330
70
100
AcDbEntity
  8
Livello 1
100
AcDbLine
 10
14.055372692409
 20
6.578599847632421
 30
0.0
 11
14.01092234791057
 21
6.584950127544843
 31
0.0
  0
LINE
  5
17A
330
70
100
AcDbEntity
  8
Livello 1
100
AcDbLine
 10
14.01092234791057
 20
6.584950127544843
 30
0.0
 11
13.96647308000447
 21
6.578599847632421
 31
0.0
  0
LINE
  5
17B
330
70
100
AcDbEntity
  8
Livello 1
100
AcDbLine
 10
13.96647308000447
 20
6.578599847632421
 30
0.0
 11
13.93472221873854
 21
6.553199804575077
 31
0.0
  0
LINE
  5
17C
330
70
100
AcDbEntity
  8
Livello 1
100
AcDbLine
 10
13.93472221873854
 20
6.553199804575077
 30
0.0
 11
13.90932325227353
 21
6.521450019901481
 31
0.0
  0
LINE
  5
17D
330
70
100
AcDbEntity
  8
Livello 1
100
AcDbLine
 10
13.90932325227353
 20
6.521450019901481
 30
0.0
 11
13.90297243406494
 21
6.477000213699217
 31
0.0
  0
LINE
  5
17E
330
70
100
AcDbEntity
  8
Livello 1
100
AcDbLine
 10
13.90297243406494
 20
6.477000213699217
 30
0.0
 11
13.90932325227353
 21
6.432549869200781
 31
0.0
  0
LINE
  5
17F
330
70
100
AcDbEntity
  8
Livello 1
100
AcDbLine
 10
13.90932325227353
 20
6.432549869200781
 30
0.0
 11
13.93472221873854
 21
6.400800084527186
 31
0.0
  0
LINE
  5
180
330
70
100
AcDbEntity
  8
Livello 1
100
AcDbLine
 10
13.93472221873854
 20
6.400800084527186
 30
0.0
 11
13.96647308000447
 21
6.375400041469842
 31
0.0
  0
LINE
  5
181
330
70
100
AcDbEntity
  8
Livello 1
100
AcDbLine
 10
13.96647308000447
 20
6.375400041469842
 30
0.0
 11
14.01092234791057
 21
6.369049761557422
 31
0.0
  0
LINE
  5
182
330
70
100
AcDbEntity
  8
Livello 1
100
AcDbLine
 10
15.10947286440026
 20
34.6583000774628
 30
0.0
 11
15.11582260601651
 21
34.6583000774628
 31
0.0
  0
LINE
  5
183
330
70
100
AcDbEntity
  8
Livello 1
100
AcDbLine
 10
15.11582260601651
 20
34.6583000774628
 30
0.0
 11
15.12217234763276
 21
34.6583000774628
 31
0.0
  0
LINE
  5
184
330
70
100
AcDbEntity
  8
Livello 1
100
AcDbLine
 10
15.12217234763276
 20
34.6583000774628
 30
0.0
 11
15.12217234763276
 21
34.65195033584656
 31
0.0
  0
LINE
  5
185
330
70
100
AcDbEntity
  8
Livello 1
100
AcDbLine
 10
15.12217234763276
 20
34.65195033584656
 30
0.0
 11
15.12217234763276
 21
34.64560059423031
 31
0.0
  0
LINE
  5
186
330
70
100
AcDbEntity
  8
Livello 1
100
AcDbLine
 10
15.12217234763276
 20
34.64560059423031
 30
0.0
 11
15.12852316584135
 21
34.63925085261406
 31
0.0
  0
LINE
  5
187
330
70
100
AcDbEntity
  8
Livello 1
100
AcDbLine
 10
15.12852316584135
 20
34.63925085261406
 30
0.0
 11
15.12852316584135
 21
34.63289895781314
 31
0.0
  0
LINE
  5
188
330
70
100
AcDbEntity
  8
Livello 1
100
AcDbLine
 10
15.12852316584135
 20
34.63289895781314
 30
0.0
 11
15.1348729074576
 21
34.63289895781314
 31
0.0
  0
LINE
  5
189
330
70
100
AcDbEntity
  8
Livello 1
100
AcDbLine
 10
13.90297243406494
 20
33.21050085297124
 30
0.0
 11
13.90932325227353
 21
33.24859930266875
 31
0.0
  0
LINE
  5
18A
330
70
100
AcDbEntity
  8
Livello 1
100
AcDbLine
 10
13.90932325227353
 20
33.24859930266875
 30
0.0
 11
13.93472221873854
 21
33.28669990555094
 31
0.0
  0
LINE
  5
18B
330
70
100
AcDbEntity
  8
Livello 1
100
AcDbLine
 10
13.93472221873854
 20
33.28669990555094
 30
0.0
 11
13.96647308000447
 21
33.30574913039969
 31
0.0
  0
LINE
  5
18C
330
70
100
AcDbEntity
  8
Livello 1
100
AcDbLine
 10
13.96647308000447
 20
33.30574913039969
 30
0.0
 11
14.01092234791057
 21
33.31845076681687
 31
0.0
  0
LINE
  5
18D
330
70
100
AcDbEntity
  8
Livello 1
100
AcDbLine
 10
14.01092234791057
 20
33.31845076681687
 30
0.0
 11
14.04902295079275
 21
33.30574913039969
 31
0.0
  0
LINE
  5
18E
330
70
100
AcDbEntity
  8
Livello 1
100
AcDbLine
 10
14.04902295079275
 20
33.30574913039969
 30
0.0
 11
14.0871224770826
 21
33.28669990555094
 31
0.0
  0
LINE
  5
18F
330
70
100
AcDbEntity
  8
Livello 1
100
AcDbLine
 10
14.0871224770826
 20
33.28669990555094
 30
0.0
 11
14.11252252013994
 21
33.24859930266875
 31
0.0
  0
LINE
  5
190
330
70
100
AcDbEntity
  8
Livello 1
100
AcDbLine
 10
14.11252252013994
 20
33.24859930266875
 30
0.0
 11
14.11887226175619
 21
33.21050085297124
 31
0.0
  0
LINE
  5
191
330
70
100
AcDbEntity
  8
Livello 1
100
AcDbLine
 10
14.11887226175619
 20
33.21050085297124
 30
0.0
 11
14.11252252013994
 21
33.16605050847281
 31
0.0
  0
LINE
  5
192
330
70
100
AcDbEntity
  8
Livello 1
100
AcDbLine
 10
14.11252252013994
 20
33.16605050847281
 30
0.0
 11
14.0871224770826
 21
33.13429964720687
 31
0.0
  0
LINE
  5
193
330
70
100
AcDbEntity
  8
Livello 1
100
AcDbLine
 10
14.0871224770826
 20
33.13429964720687
 30
0.0
 11
14.04902295079275
 21
33.10890068074188
 31
0.0
  0
LINE
  5
194
330
70
100
AcDbEntity
  8
Livello 1
100
AcDbLine
 10
14.04902295079275
 20
33.10890068074188
 30
0.0
 11
14.01092234791057
 21
33.10255093912562
 31
0.0
  0
LINE
  5
195
330
70
100
AcDbEntity
  8
Livello 1
100
AcDbLine
 10
14.01092234791057
 20
33.10255093912562
 30
0.0
 11
13.96647308000447
 21
33.10890068074188
 31
0.0
  0
LINE
  5
196
330
70
100
AcDbEntity
  8
Livello 1
100
AcDbLine
 10
13.96647308000447
 20
33.10890068074188
 30
0.0
 11
13.93472221873854
 21
33.13429964720687
 31
0.0
  0
LINE
  5
197
330
70
100
AcDbEntity
  8
Livello 1
100
AcDbLine
 10
13.93472221873854
 20
33.13429964720687
 30
0.0
 11
13.90932325227353
 21
33.16605050847281
 31
0.0
  0
LINE
  5
198
330
70
100
AcDbEntity
  8
Livello 1
100
AcDbLine
 10
13.90932325227353
 20
33.16605050847281
 30
0.0
 11
13.90297243406494
 21
33.21050085297124
 31
0.0
  0
LINE
  5
199
330
70
100
AcDbEntity
  8
Livello 1
100
AcDbLine
 10
13.90297243406494
 20
6.477000213699217
 30
0.0
 11
13.90932325227353
 21
6.521450019901481
 31
0.0
  0
LINE
  5
19A
330
70
100
AcDbEntity
  8
Livello 1
100
AcDbLine
 10
13.90932325227353
 20
6.521450019901481
 30
0.0
 11
13.93472221873854
 21
6.553199804575077
 31
0.0
  0
LINE
  5
19B
330
70
100
AcDbEntity
  8
Livello 1
100
AcDbLine
 10
13.93472221873854
 20
6.553199804575077
 30
0.0
 11
13.96647308000447
 21
6.578599847632421
 31
0.0
  0
LINE
  5
19C
330
70
100
AcDbEntity
  8
Livello 1
100
AcDbLine
 10
13.96647308000447
 20
6.578599847632421
 30
0.0
 11
14.01092234791057
 21
6.584950127544843
 31
0.0
  0
LINE
  5
19D
330
70
100
AcDbEntity
  8
Livello 1
100
AcDbLine
 10
14.01092234791057
 20
6.584950127544843
 30
0.0
 11
14.04902295079275
 21
6.578599847632421
 31
0.0
  0
LINE
  5
19E
330
70
100
AcDbEntity
  8
Livello 1
100
AcDbLine
 10
14.04902295079275
 20
6.578599847632421
 30
0.0
 11
14.0871224770826
 21
6.553199804575077
 31
0.0
  0
LINE
  5
19F
330
70
100
AcDbEntity
  8
Livello 1
100
AcDbLine
 10
14.0871224770826
 20
6.553199804575077
 30
0.0
 11
14.11252252013994
 21
6.521450019901481
 31
0.0
  0
LINE
  5
1A0
330
70
100
AcDbEntity
  8
Livello 1
100
AcDbLine
 10
14.11252252013994
 20
6.521450019901481
 30
0.0
 11
14.11887226175619
 21
6.477000213699217
 31
0.0
  0
LINE
  5
1A1
330
70
100
AcDbEntity
  8
Livello 1
100
AcDbLine
 10
14.11887226175619
 20
6.477000213699217
 30
0.0
 11
14.11252252013994
 21
6.438900149113202
 31
0.0
  0
LINE
  5
1A2
330
70
100
AcDbEntity
  8
Livello 1
100
AcDbLine
 10
14.11252252013994
 20
6.438900149113202
 30
0.0
 11
14.0871224770826
 21
6.400800084527186
 31
0.0
  0
LINE
  5
1A3
330
70
100
AcDbEntity
  8
Livello 1
100
AcDbLine
 10
14.0871224770826
 20
6.400800084527186
 30
0.0
 11
14.04902295079275
 21
6.381749783086092
 31
0.0
  0
LINE
  5
1A4
330
70
100
AcDbEntity
  8
Livello 1
100
AcDbLine
 10
14.04902295079275
 20
6.381749783086092
 30
0.0
 11
14.01092234791057
 21
6.369049761557422
 31
0.0
  0
LINE
  5
1A5
330
70
100
AcDbEntity
  8
Livello 1
100
AcDbLine
 10
14.01092234791057
 20
6.369049761557422
 30
0.0
 11
13.96647308000447
 21
6.381749783086092
 31
0.0
  0
LINE
  5
1A6
330
70
100
AcDbEntity
  8
Livello 1
100
AcDbLine
 10
13.96647308000447
 20
6.381749783086092
 30
0.0
 11
13.93472221873854
 21
6.400800084527186
 31
0.0
  0
LINE
  5
1A7
330
70
100
AcDbEntity
  8
Livello 1
100
AcDbLine
 10
13.93472221873854
 20
6.400800084527186
 30
0.0
 11
13.90932325227353
 21
6.438900149113202
 31
0.0
  0
LINE
  5
1A8
330
70
100
AcDbEntity
  8
Livello 1
100
AcDbLine
 10
13.90932325227353
 20
6.438900149113202
 30
0.0
 11
13.90297243406494
 21
6.477000213699217
 31
0.0
  0
LINE
  5
1A9
330
70
100
AcDbEntity
  8
Livello 1
100
AcDbLine
 10
13.90932325227353
 20
33.83279921639533
 30
0.0
 11
13.91567299388978
 21
33.8455008528125
 31
0.0
  0
LINE
  5
1AA
330
70
100
AcDbEntity
  8
Livello 1
100
AcDbLine
 10
13.91567299388978
 20
33.8455008528125
 30
0.0
 11
13.91567299388978
 21
33.85820033604499
 31
0.0
  0
LINE
  5
1AB
330
70
100
AcDbEntity
  8
Livello 1
100
AcDbLine
 10
13.91567299388978
 20
33.85820033604499
 30
0.0
 11
13.91567299388978
 21
33.86455007766125
 31
0.0
  0
LINE
  5
1AC
330
70
100
AcDbEntity
  8
Livello 1
100
AcDbLine
 10
13.91567299388978
 20
33.86455007766125
 30
0.0
 11
13.92202273550604
 21
33.87724956089375
 31
0.0
  0
LINE
  5
1AD
330
70
100
AcDbEntity
  8
Livello 1
100
AcDbLine
 10
13.92202273550604
 20
33.87724956089375
 30
0.0
 11
13.92202273550604
 21
33.88359930251
 31
0.0
  0
LINE
  5
1AE
330
70
100
AcDbEntity
  8
Livello 1
100
AcDbLine
 10
13.92202273550604
 20
33.88359930251
 30
0.0
 11
13.92837247712229
 21
33.89630093892718
 31
0.0
  0
LINE
  5
1AF
330
70
100
AcDbEntity
  8
Livello 1
100
AcDbLine
 10
13.92837247712229
 20
33.89630093892718
 30
0.0
 11
13.93472221873854
 21
33.90265068054343
 31
0.0
  0
LINE
  5
1B0
330
70
100
AcDbEntity
  8
Livello 1
100
AcDbLine
 10
13.93472221873854
 20
33.90265068054343
 30
0.0
 11
13.94107303694713
 21
33.9090004221597
 31
0.0
  0
LINE
  5
1B1
330
70
100
AcDbEntity
  8
Livello 1
100
AcDbLine
 10
13.94107303694713
 20
33.9090004221597
 30
0.0
 11
13.95377252017963
 21
33.91535016377594
 31
0.0
  0
LINE
  5
1B2
330
70
100
AcDbEntity
  8
Livello 1
100
AcDbLine
 10
13.95377252017963
 20
33.91535016377594
 30
0.0
 11
13.96012226179588
 21
33.92169990539219
 31
0.0
  0
LINE
  5
1B3
330
70
100
AcDbEntity
  8
Livello 1
100
AcDbLine
 10
13.96012226179588
 20
33.92169990539219
 30
0.0
 11
13.96647308000447
 21
33.92804964700844
 31
0.0
  0
LINE
  5
1B4
330
70
100
AcDbEntity
  8
Livello 1
100
AcDbLine
 10
13.96647308000447
 20
33.92804964700844
 30
0.0
 11
13.97917256323698
 21
33.93439938862469
 31
0.0
  0
LINE
  5
1B5
330
70
100
AcDbEntity
  8
Livello 1
100
AcDbLine
 10
13.97917256323698
 20
33.93439938862469
 30
0.0
 11
13.98552230485323
 21
33.94074913024094
 31
0.0
  0
LINE
  5
1B6
330
70
100
AcDbEntity
  8
Livello 1
100
AcDbLine
 10
13.98552230485323
 20
33.94074913024094
 30
0.0
 11
13.99822286467807
 21
33.94074913024094
 31
0.0
  0
LINE
  5
1B7
330
70
100
AcDbEntity
  8
Livello 1
100
AcDbLine
 10
13.99822286467807
 20
33.94074913024094
 30
0.0
 11
14.01092234791057
 21
33.94074913024094
 31
0.0
  0
LINE
  5
1B8
330
70
100
AcDbEntity
  8
Livello 1
100
AcDbLine
 10
14.01092234791057
 20
33.94074913024094
 30
0.0
 11
14.01727316611916
 21
33.94074913024094
 31
0.0
  0
LINE
  5
1B9
330
70
100
AcDbEntity
  8
Livello 1
100
AcDbLine
 10
14.01727316611916
 20
33.94074913024094
 30
0.0
 11
14.02997264935166
 21
33.94074913024094
 31
0.0
  0
LINE
  5
1BA
330
70
100
AcDbEntity
  8
Livello 1
100
AcDbLine
 10
14.02997264935166
 20
33.94074913024094
 30
0.0
 11
14.0426732091765
 21
33.94074913024094
 31
0.0
  0
LINE
  5
1BB
330
70
100
AcDbEntity
  8
Livello 1
100
AcDbLine
 10
14.0426732091765
 20
33.94074913024094
 30
0.0
 11
14.04902295079275
 21
33.94074913024094
 31
0.0
  0
LINE
  5
1BC
330
70
100
AcDbEntity
  8
Livello 1
100
AcDbLine
 10
14.04902295079275
 20
33.94074913024094
 30
0.0
 11
14.06172243402526
 21
33.93439938862469
 31
0.0
  0
LINE
  5
1BD
330
70
100
AcDbEntity
  8
Livello 1
100
AcDbLine
 10
14.06172243402526
 20
33.93439938862469
 30
0.0
 11
14.06807325223384
 21
33.92804964700844
 31
0.0
  0
LINE
  5
1BE
330
70
100
AcDbEntity
  8
Livello 1
100
AcDbLine
 10
14.06807325223384
 20
33.92804964700844
 30
0.0
 11
14.08077273546635
 21
33.92169990539219
 31
0.0
  0
LINE
  5
1BF
330
70
100
AcDbEntity
  8
Livello 1
100
AcDbLine
 10
14.08077273546635
 20
33.92169990539219
 30
0.0
 11
14.0871224770826
 21
33.91535016377594
 31
0.0
  0
LINE
  5
1C0
330
70
100
AcDbEntity
  8
Livello 1
100
AcDbLine
 10
14.0871224770826
 20
33.91535016377594
 30
0.0
 11
14.09347221869885
 21
33.9090004221597
 31
0.0
  0
LINE
  5
1C1
330
70
100
AcDbEntity
  8
Livello 1
100
AcDbLine
 10
14.09347221869885
 20
33.9090004221597
 30
0.0
 11
14.09982303690744
 21
33.90265068054343
 31
0.0
  0
LINE
  5
1C2
330
70
100
AcDbEntity
  8
Livello 1
100
AcDbLine
 10
14.09982303690744
 20
33.90265068054343
 30
0.0
 11
14.10617277852369
 21
33.89630093892718
 31
0.0
  0
LINE
  5
1C3
330
70
100
AcDbEntity
  8
Livello 1
100
AcDbLine
 10
14.10617277852369
 20
33.89630093892718
 30
0.0
 11
14.11252252013994
 21
33.88359930251
 31
0.0
  0
LINE
  5
1C4
330
70
100
AcDbEntity
  8
Livello 1
100
AcDbLine
 10
14.11252252013994
 20
33.88359930251
 30
0.0
 11
14.11887226175619
 21
33.87724956089375
 31
0.0
  0
LINE
  5
1C5
330
70
100
AcDbEntity
  8
Livello 1
100
AcDbLine
 10
14.11887226175619
 20
33.87724956089375
 30
0.0
 11
14.12522307996479
 21
33.86455007766125
 31
0.0
  0
LINE
  5
1C6
330
70
100
AcDbEntity
  8
Livello 1
100
AcDbLine
 10
14.12522307996479
 20
33.86455007766125
 30
0.0
 11
14.12522307996479
 21
33.85820033604499
 31
0.0
  0
LINE
  5
1C7
330
70
100
AcDbEntity
  8
Livello 1
100
AcDbLine
 10
14.12522307996479
 20
33.85820033604499
 30
0.0
 11
14.12522307996479
 21
33.8455008528125
 31
0.0
  0
LINE
  5
1C8
330
70
100
AcDbEntity
  8
Livello 1
100
AcDbLine
 10
14.12522307996479
 20
33.8455008528125
 30
0.0
 11
14.12522307996479
 21
33.83279921639533
 31
0.0
  0
LINE
  5
1C9
330
70
100
AcDbEntity
  8
Livello 1
100
AcDbLine
 10
14.12522307996479
 20
33.83279921639533
 30
0.0
 11
14.12522307996479
 21
33.82644947477906
 31
0.0
  0
LINE
  5
1CA
330
70
100
AcDbEntity
  8
Livello 1
100
AcDbLine
 10
14.12522307996479
 20
33.82644947477906
 30
0.0
 11
14.12522307996479
 21
33.81374999154656
 31
0.0
  0
LINE
  5
1CB
330
70
100
AcDbEntity
  8
Livello 1
100
AcDbLine
 10
14.12522307996479
 20
33.81374999154656
 30
0.0
 11
14.12522307996479
 21
33.80105050831406
 31
0.0
  0
LINE
  5
1CC
330
70
100
AcDbEntity
  8
Livello 1
100
AcDbLine
 10
14.12522307996479
 20
33.80105050831406
 30
0.0
 11
14.11887226175619
 21
33.79470076669781
 31
0.0
  0
LINE
  5
1CD
330
70
100
AcDbEntity
  8
Livello 1
100
AcDbLine
 10
14.11887226175619
 20
33.79470076669781
 30
0.0
 11
14.11252252013994
 21
33.78199913028062
 31
0.0
  0
LINE
  5
1CE
330
70
100
AcDbEntity
  8
Livello 1
100
AcDbLine
 10
14.11252252013994
 20
33.78199913028062
 30
0.0
 11
14.10617277852369
 21
33.77564938866438
 31
0.0
  0
LINE
  5
1CF
330
70
100
AcDbEntity
  8
Livello 1
100
AcDbLine
 10
14.10617277852369
 20
33.77564938866438
 30
0.0
 11
14.09982303690744
 21
33.76929964704812
 31
0.0
  0
LINE
  5
1D0
330
70
100
AcDbEntity
  8
Livello 1
100
AcDbLine
 10
14.09982303690744
 20
33.76929964704812
 30
0.0
 11
14.09347221869885
 21
33.75660016381562
 31
0.0
  0
LINE
  5
1D1
330
70
100
AcDbEntity
  8
Livello 1
100
AcDbLine
 10
14.09347221869885
 20
33.75660016381562
 30
0.0
 11
14.0871224770826
 21
33.75025042219937
 31
0.0
  0
LINE
  5
1D2
330
70
100
AcDbEntity
  8
Livello 1
100
AcDbLine
 10
14.0871224770826
 20
33.75025042219937
 30
0.0
 11
14.08077273546635
 21
33.74390068058312
 31
0.0
  0
LINE
  5
1D3
330
70
100
AcDbEntity
  8
Livello 1
100
AcDbLine
 10
14.08077273546635
 20
33.74390068058312
 30
0.0
 11
14.06807325223384
 21
33.73755093896687
 31
0.0
  0
LINE
  5
1D4
330
70
100
AcDbEntity
  8
Livello 1
100
AcDbLine
 10
14.06807325223384
 20
33.73755093896687
 30
0.0
 11
14.06172243402526
 21
33.73755093896687
 31
0.0
  0
LINE
  5
1D5
330
70
100
AcDbEntity
  8
Livello 1
100
AcDbLine
 10
14.06172243402526
 20
33.73755093896687
 30
0.0
 11
14.04902295079275
 21
33.73119904416594
 31
0.0
  0
LINE
  5
1D6
330
70
100
AcDbEntity
  8
Livello 1
100
AcDbLine
 10
14.04902295079275
 20
33.73119904416594
 30
0.0
 11
14.0426732091765
 21
33.73119904416594
 31
0.0
  0
LINE
  5
1D7
330
70
100
AcDbEntity
  8
Livello 1
100
AcDbLine
 10
14.0426732091765
 20
33.73119904416594
 30
0.0
 11
14.02997264935166
 21
33.72484930254969
 31
0.0
  0
LINE
  5
1D8
330
70
100
AcDbEntity
  8
Livello 1
100
AcDbLine
 10
14.02997264935166
 20
33.72484930254969
 30
0.0
 11
14.01727316611916
 21
33.72484930254969
 31
0.0
  0
LINE
  5
1D9
330
70
100
AcDbEntity
  8
Livello 1
100
AcDbLine
 10
14.01727316611916
 20
33.72484930254969
 30
0.0
 11
14.01092234791057
 21
33.72484930254969
 31
0.0
  0
LINE
  5
1DA
330
70
100
AcDbEntity
  8
Livello 1
100
AcDbLine
 10
14.01092234791057
 20
33.72484930254969
 30
0.0
 11
13.99822286467807
 21
33.73119904416594
 31
0.0
  0
LINE
  5
1DB
330
70
100
AcDbEntity
  8
Livello 1
100
AcDbLine
 10
13.99822286467807
 20
33.73119904416594
 30
0.0
 11
13.98552230485323
 21
33.73119904416594
 31
0.0
  0
LINE
  5
1DC
330
70
100
AcDbEntity
  8
Livello 1
100
AcDbLine
 10
13.98552230485323
 20
33.73119904416594
 30
0.0
 11
13.97917256323698
 21
33.73755093896687
 31
0.0
  0
LINE
  5
1DD
330
70
100
AcDbEntity
  8
Livello 1
100
AcDbLine
 10
13.97917256323698
 20
33.73755093896687
 30
0.0
 11
13.96647308000447
 21
33.73755093896687
 31
0.0
  0
LINE
  5
1DE
330
70
100
AcDbEntity
  8
Livello 1
100
AcDbLine
 10
13.96647308000447
 20
33.73755093896687
 30
0.0
 11
13.96012226179588
 21
33.74390068058312
 31
0.0
  0
LINE
  5
1DF
330
70
100
AcDbEntity
  8
Livello 1
100
AcDbLine
 10
13.96012226179588
 20
33.74390068058312
 30
0.0
 11
13.95377252017963
 21
33.75025042219937
 31
0.0
  0
LINE
  5
1E0
330
70
100
AcDbEntity
  8
Livello 1
100
AcDbLine
 10
13.95377252017963
 20
33.75025042219937
 30
0.0
 11
13.94107303694713
 21
33.75660016381562
 31
0.0
  0
LINE
  5
1E1
330
70
100
AcDbEntity
  8
Livello 1
100
AcDbLine
 10
13.94107303694713
 20
33.75660016381562
 30
0.0
 11
13.93472221873854
 21
33.76929964704812
 31
0.0
  0
LINE
  5
1E2
330
70
100
AcDbEntity
  8
Livello 1
100
AcDbLine
 10
13.93472221873854
 20
33.76929964704812
 30
0.0
 11
13.92837247712229
 21
33.77564938866438
 31
0.0
  0
LINE
  5
1E3
330
70
100
AcDbEntity
  8
Livello 1
100
AcDbLine
 10
13.92837247712229
 20
33.77564938866438
 30
0.0
 11
13.92202273550604
 21
33.78199913028062
 31
0.0
  0
LINE
  5
1E4
330
70
100
AcDbEntity
  8
Livello 1
100
AcDbLine
 10
13.92202273550604
 20
33.78199913028062
 30
0.0
 11
13.92202273550604
 21
33.79470076669781
 31
0.0
  0
LINE
  5
1E5
330
70
100
AcDbEntity
  8
Livello 1
100
AcDbLine
 10
13.92202273550604
 20
33.79470076669781
 30
0.0
 11
13.91567299388978
 21
33.80105050831406
 31
0.0
  0
LINE
  5
1E6
330
70
100
AcDbEntity
  8
Livello 1
100
AcDbLine
 10
13.91567299388978
 20
33.80105050831406
 30
0.0
 11
13.91567299388978
 21
33.81374999154656
 31
0.0
  0
LINE
  5
1E7
330
70
100
AcDbEntity
  8
Livello 1
100
AcDbLine
 10
13.91567299388978
 20
33.81374999154656
 30
0.0
 11
13.91567299388978
 21
33.82644947477906
 31
0.0
  0
LINE
  5
1E8
330
70
100
AcDbEntity
  8
Livello 1
100
AcDbLine
 10
13.91567299388978
 20
33.82644947477906
 30
0.0
 11
13.90932325227353
 21
33.83279921639533
 31
0.0
  0
MTEXT
  5
1EE
330
70
100
AcDbEntity
  8
0
100
AcDbMText
 10
3.892605704291515
 20
2.356331575358449
 30
0.0
 40
1.0
 41
47.05872043824243
 46
0.0
 71
     1
 72
     5
  1
180 mm
 73
     1
 44
1.0
1001
ACAD
1000
ACAD_MTEXT_COLUMN_INFO_BEGIN
1070
    75
1070
     2
1070
    79
1070
     0
1070
    76
1070
     1
1070
    78
1070
     0
1070
    48
1040
47.05872043824243
1070
    49
1040
5.0
1070
    50
1070
     1
1040
0.0
1000
ACAD_MTEXT_COLUMN_INFO_END
  0
MTEXT
  5
1F7
330
70
100
AcDbEntity
  8
0
100
AcDbMText
 10
14.79651056891807
 20
2.205289187951645
 30
0.0
 40
1.0
 41
47.05872043824243
 46
0.0
 71
     1
 72
     5
  1
180 mm
 73
     1
 44
1.0
1001
ACAD
1000
ACAD_MTEXT_COLUMN_INFO_BEGIN
1070
    75
1070
     2
1070
    79
1070
     0
1070
    76
1070
     1
1070
    78
1070
     0
1070
    48
1040
47.05872043824243
1070
    49
1040
5.0
1070
    50
1070
     1
1040
0.0
1000
ACAD_MTEXT_COLUMN_INFO_END
  0
MTEXT
  5
1FF
330
70
100
AcDbEntity
  8
0
100
AcDbMText
 10
24.14054118494686
 20
20.55734227838607
 30
0.0
 40
1.0
 41
47.05872043824243
 46
0.0
 71
     1
 72
     5
  1
650 mm
 73
     1
 44
1.0
1001
ACAD
1000
ACAD_MTEXT_COLUMN_INFO_BEGIN
1070
    75
1070
     2
1070
    79
1070
     0
1070
    76
1070
     1
1070
    78
1070
     0
1070
    48
1040
47.05872043824243
1070
    49
1040
5.0
1070
    50
1070
     1
1040
0.0
1000
ACAD_MTEXT_COLUMN_INFO_END
  0
ENDSEC
  0
SECTION
  2
OBJECTS
  0
DICTIONARY
  5
C
330
0
100
AcDbDictionary
281
     1
  3
ACAD_CIP_PREVIOUS_PRODUCT_INFO
350
141
  3
ACAD_COLOR
350
63
  3
ACAD_DETAILVIEWSTYLE
350
6A
  3
ACAD_GROUP
350
D
  3
ACAD_LAYOUT
350
62
  3
ACAD_MATERIAL
350
10
  3
ACAD_MLEADERSTYLE
350
66
  3
ACAD_MLINESTYLE
350
5F
  3
ACAD_PLOTSETTINGS
350
61
  3
ACAD_PLOTSTYLENAME
350
E
  3
ACAD_SCALELIST
350
42
  3
ACAD_SECTIONVIEWSTYLE
350
68
  3
ACAD_TABLESTYLE
350
64
  3
ACAD_VISUALSTYLE
350
29
  3
ACDB_RECOMPOSE_DATA
350
202
  3
AcDbVariableDictionary
350
FE
  0
DICTIONARY
  5
142
330
70
100
AcDbDictionary
280
     1
281
     1
  3
ACAD_SORTENTS
360
143
  0
XRECORD
  5
141
102
{ACAD_REACTORS
330
C
102
}
330
C
100
AcDbXrecord
280
     1
300
ACD
300
2019
300
ACD_F_S
  0
DICTIONARY
  5
63
102
{ACAD_REACTORS
330
C
102
}
330
C
100
AcDbDictionary
281
     1
  0
DICTIONARY
  5
6A
102
{ACAD_REACTORS
330
C
102
}
330
C
100
AcDbDictionary
281
     1
  3
Imperial24
350
6B
  0
DICTIONARY
  5
D
102
{ACAD_REACTORS
330
C
102
}
330
C
100
AcDbDictionary
281
     1
  0
DICTIONARY
  5
62
102
{ACAD_REACTORS
330
C
102
}
330
C
100
AcDbDictionary
281
     1
  3
Layout1
350
6F
  3
Layout2
350
77
  3
Model
350
73
  0
DICTIONARY
  5
10
102
{ACAD_REACTORS
330
C
102
}
330
C
100
AcDbDictionary
281
     1
  3
ByBlock
350
19
  3
ByLayer
350
11
  3
Global
350
21
  0
DICTIONARY
  5
66
102
{ACAD_REACTORS
330
C
102
}
330
C
100
AcDbDictionary
281
     1
  3
Standard
350
67
  0
DICTIONARY
  5
5F
102
{ACAD_REACTORS
330
C
102
}
330
C
100
AcDbDictionary
281
     1
  3
Standard
350
60
  0
DICTIONARY
  5
61
102
{ACAD_REACTORS
330
C
102
}
330
C
100
AcDbDictionary
281
     1
  0
ACDBDICTIONARYWDFLT
  5
E
102
{ACAD_REACTORS
330
C
102
}
330
C
100
AcDbDictionary
281
     1
  3
Normal
350
F
100
AcDbDictionaryWithDefault
340
F
  0
DICTIONARY
  5
42
102
{ACAD_REACTORS
330
C
102
}
330
C
100
AcDbDictionary
281
     1
  3
A0
350
43
  3
A1
350
44
  3
A2
350
45
  3
A3
350
46
  3
A4
350
47
  3
A5
350
48
  3
A6
350
49
  3
A7
350
4A
  3
A8
350
4B
  3
A9
350
4C
  3
B0
350
4D
  3
B1
350
4E
  3
B2
350
4F
  3
B3
350
50
  3
B4
350
51
  3
B5
350
52
  3
B6
350
53
  0
DICTIONARY
  5
68
102
{ACAD_REACTORS
330
C
102
}
330
C
100
AcDbDictionary
281
     1
  3
Imperial24
350
69
  0
DICTIONARY
  5
64
102
{ACAD_REACTORS
330
C
102
}
330
C
100
AcDbDictionary
281
     1
  3
Standard
350
65
  0
DICTIONARY
  5
29
102
{ACAD_REACTORS
330
C
102
}
330
C
100
AcDbDictionary
281
     1
  3
2dWireframe
350
2F
  3
Basic
350
2E
  3
Brighten
350
35
  3
ColorChange
350
39
  3
Conceptual
350
32
  3
Dim
350
34
  3
EdgeColorOff
350
41
  3
Facepattern
350
38
  3
Flat
350
2A
  3
FlatWithEdges
350
2B
  3
Gouraud
350
2C
  3
GouraudWithEdges
350
2D
  3
Hidden
350
31
  3
JitterOff
350
3F
  3
Linepattern
350
37
  3
OverhangOff
350
40
  3
Realistic
350
33
  3
Shaded
350
3E
  3
Shaded with edges
350
3D
  3
Shades of Gray
350
3A
  3
Sketchy
350
3B
  3
Thicken
350
36
  3
Wireframe
350
30
  3
X-Ray
350
3C
  0
XRECORD
  5
202
102
{ACAD_REACTORS
330
C
102
}
330
C
100
AcDbXrecord
280
     1
 90
        1
330
65
330
1EE
330
1F7
330
1FF
  0
DICTIONARY
  5
FE
102
{ACAD_REACTORS
330
C
102
}
330
C
100
AcDbDictionary
281
     1
  3
CANNOSCALE
350
103
  3
CMLEADERSTYLE
350
100
  3
CTABLESTYLE
350
FF
  3
CVIEWDETAILSTYLE
350
101
  3
CVIEWSECTIONSTYLE
350
102
  3
XCLIPFRAME
350
200
  0
SORTENTSTABLE
  5
143
102
{ACAD_REACTORS
330
142
102
}
330
142
100
AcDbSortentsTable
330
70
331
83
  5
8B
331
86
  5
93
331
88
  5
96
331
89
  5
97
331
8A
  5
98
331
8B
  5
99
331
8C
  5
9B
331
8D
  5
9E
331
8E
  5
9F
331
8F
  5
A0
331
90
  5
A1
331
91
  5
A2
331
93
  5
A8
331
94
  5
A9
331
95
  5
AB
331
96
  5
AC
331
97
  5
AD
331
98
  5
AE
331
99
  5
AF
331
9B
  5
BB
331
9E
  5
144
331
9F
  5
145
331
A0
  5
146
331
A1
  5
147
331
A2
  5
148
331
A3
  5
149
331
A4
  5
14A
331
A5
  5
14B
331
A6
  5
14C
331
A7
  5
14D
331
A8
  5
14E
331
A9
  5
14F
331
AB
  5
153
331
AC
  5
154
331
AD
  5
155
331
AE
  5
156
331
AF
  5
157
331
B0
  5
158
331
B1
  5
159
331
B2
  5
15A
331
B5
  5
17B
331
BA
  5
1E3
331
BB
  5
1E4
331
BC
  5
1E5
331
BD
  5
1E6
331
BE
  5
1E7
331
BF
  5
1E8
331
144
  5
83
331
145
  5
86
331
146
  5
88
331
147
  5
89
331
148
  5
8A
331
149
  5
8C
331
14A
  5
8D
331
14B
  5
8E
331
14C
  5
8F
331
14D
  5
90
331
14E
  5
91
331
14F
  5
94
331
150
  5
95
331
151
  5
A3
331
152
  5
A4
331
153
  5
A5
331
154
  5
A6
331
155
  5
A7
331
156
  5
B0
331
157
  5
B1
331
158
  5
B2
331
159
  5
B5
331
15A
  5
BA
331
15B
  5
BC
331
15C
  5
BD
331
15D
  5
BE
331
15E
  5
BF
331
15F
  5
150
331
160
  5
151
331
161
  5
152
331
162
  5
15B
331
163
  5
15C
331
164
  5
15D
331
165
  5
15E
331
166
  5
15F
331
167
  5
160
331
168
  5
161
331
169
  5
162
331
16A
  5
163
331
16B
  5
164
331
16C
  5
165
331
16D
  5
166
331
16E
  5
167
331
16F
  5
168
331
170
  5
169
331
171
  5
16A
331
172
  5
16B
331
173
  5
16C
331
174
  5
16D
331
175
  5
16E
331
176
  5
16F
331
177
  5
170
331
178
  5
171
331
179
  5
172
331
17A
  5
173
331
17B
  5
174
331
17C
  5
175
331
17D
  5
176
331
17E
  5
177
331
17F
  5
178
331
180
  5
179
331
181
  5
17A
331
182
  5
17C
331
183
  5
17D
331
184
  5
17E
331
185
  5
17F
331
186
  5
180
331
187
  5
181
331
188
  5
182
331
189
  5
183
331
18A
  5
184
331
18B
  5
185
331
18C
  5
186
331
18D
  5
187
331
18E
  5
188
331
18F
  5
189
331
190
  5
18A
331
191
  5
18B
331
192
  5
18C
331
193
  5
18D
331
194
  5
18E
331
195
  5
18F
331
196
  5
190
331
197
  5
191
331
198
  5
192
331
199
  5
193
331
19A
  5
194
331
19B
  5
195
331
19C
  5
196
331
19D
  5
197
331
19E
  5
198
331
19F
  5
199
331
1A0
  5
19A
331
1A1
  5
19B
331
1A2
  5
19C
331
1A3
  5
19D
331
1A4
  5
19E
331
1A5
  5
19F
331
1A6
  5
1A0
331
1A7
  5
1A1
331
1A8
  5
1A2
331
1A9
  5
1A3
331
1AA
  5
1A4
331
1AB
  5
1A5
331
1AC
  5
1A6
331
1AD
  5
1A7
331
1AE
  5
1A8
331
1AF
  5
1A9
331
1B0
  5
1AA
331
1B1
  5
1AB
331
1B2
  5
1AC
331
1B3
  5
1AD
331
1B4
  5
1AE
331
1B5
  5
1AF
331
1B6
  5
1B0
331
1B7
  5
1B1
331
1B8
  5
1B2
331
1B9
  5
1B3
331
1BA
  5
1B4
331
1BB
  5
1B5
331
1BC
  5
1B6
331
1BD
  5
1B7
331
1BE
  5
1B8
331
1BF
  5
1B9
331
1C0
  5
1BA
331
1C1
  5
1BB
331
1C2
  5
1BC
331
1C3
  5
1BD
331
1C4
  5
1BE
331
1C5
  5
1BF
331
1C6
  5
1C0
331
1C7
  5
1C1
331
1C8
  5
1C2
331
1C9
  5
1C3
331
1CA
  5
1C4
331
1CB
  5
1C5
331
1CC
  5
1C6
331
1CD
  5
1C7
331
1CE
  5
1C8
331
1CF
  5
1C9
331
1D0
  5
1CA
331
1D1
  5
1CB
331
1D2
  5
1CC
331
1D3
  5
1CD
331
1D4
  5
1CE
331
1D5
  5
1CF
331
1D6
  5
1D0
331
1D7
  5
1D1
331
1D8
  5
1D2
331
1D9
  5
1D3
331
1DA
  5
1D4
331
1DB
  5
1D5
331
1DC
  5
1D6
331
1DD
  5
1D7
331
1DE
  5
1D8
331
1DF
  5
1D9
331
1E0
  5
1DA
331
1E1
  5
1DB
331
1E2
  5
1DC
331
1E3
  5
1DD
331
1E4
  5
1DE
331
1E5
  5
1DF
331
1E6
  5
1E0
331
1E7
  5
1E1
331
1E8
  5
1E2
  0
ACDBDETAILVIEWSTYLE
  5
6B
102
{ACAD_XDICTIONARY
360
238
102
}
102
{ACAD_REACTORS
330
6A
102
}
330
6A
100
AcDbModelDocViewStyle
 70
     0
  3
Imperial24
290
     0
100
AcDbDetailViewStyle
 70
     0
 71
     0
 90
        3
 71
     1
340
55
 62
   256
 40
0.24
340
0
 62
   256
 40
0.24
300

 40
0.36
280
     3
 71
     2
340
5D
 90
       25
 62
   256
 71
     3
340
55
 62
   256
 40
0.24
 90
        1
 40
0.75
 90
        1
300
%<\AcVar ViewType \f "%tc1">% %<\AcVar ViewDetailId>%\PSCALE %<\AcVar ViewScale \f "%sn">%
 71
     4
340
5D
 90
       25
 62
   256
340
5D
 90
       25
 62
   256
280
     0
  0
LAYOUT
  5
6F
102
{ACAD_REACTORS
330
62
102
}
330
62
100
AcDbPlotSettings
  1

  2

  4

  6

 40
0.0
 41
0.0
 42
0.0
 43
0.0
 44
0.0
 45
0.0
 46
0.0
 47
0.0
 48
0.0
 49
0.0
140
0.0
141
0.0
142
1.0
143
1.0
 70
   688
 72
     0
 73
     0
 74
     5
  7

 75
    16
147
1.0
 76
     0
 77
     2
 78
   300
148
0.0
149
0.0
100
AcDbLayout
  1
Layout1
 70
     1
 71
     1
 10
0.0
 20
0.0
 11
12.0
 21
9.0
 12
0.0
 22
0.0
 32
0.0
 14
1.000000000000000E+20
 24
1.000000000000000E+20
 34
1.000000000000000E+20
 15
-1.000000000000000E+20
 25
-1.000000000000000E+20
 35
-1.000000000000000E+20
146
0.0
 13
0.0
 23
0.0
 33
0.0
 16
1.0
 26
0.0
 36
0.0
 17
0.0
 27
1.0
 37
0.0
 76
     0
330
6C
  0
LAYOUT
  5
77
102
{ACAD_REACTORS
330
62
102
}
330
62
100
AcDbPlotSettings
  1

  2

  4

  6

 40
0.0
 41
0.0
 42
0.0
 43
0.0
 44
0.0
 45
0.0
 46
0.0
 47
0.0
 48
0.0
 49
0.0
140
0.0
141
0.0
142
1.0
143
1.0
 70
   688
 72
     0
 73
     0
 74
     5
  7

 75
    16
147
1.0
 76
     0
 77
     2
 78
   300
148
0.0
149
0.0
100
AcDbLayout
  1
Layout2
 70
     1
 71
     2
 10
0.0
 20
0.0
 11
12.0
 21
9.0
 12
0.0
 22
0.0
 32
0.0
 14
0.0
 24
0.0
 34
0.0
 15
0.0
 25
0.0
 35
0.0
146
0.0
 13
0.0
 23
0.0
 33
0.0
 16
1.0
 26
0.0
 36
0.0
 17
0.0
 27
1.0
 37
0.0
 76
     0
330
74
  0
LAYOUT
  5
73
102
{ACAD_REACTORS
330
62
102
}
330
62
100
AcDbPlotSettings
  1

  2

  4

  6

 40
0.0
 41
0.0
 42
0.0
 43
0.0
 44
0.0
 45
0.0
 46
0.0
 47
0.0
 48
0.0
 49
0.0
140
0.0
141
0.0
142
1.0
143
1.0
 70
  1712
 72
     0
 73
     0
 74
     0
  7

 75
     0
147
1.0
 76
     0
 77
     2
 78
   300
148
0.0
149
0.0
100
AcDbLayout
  1
Model
 70
     1
 71
     0
 10
0.0
 20
0.0
 11
12.0
 21
9.0
 12
0.0
 22
0.0
 32
0.0
 14
0.0
 24
0.0
 34
0.0
 15
0.0
 25
0.0
 35
0.0
146
0.0
 13
0.0
 23
0.0
 33
0.0
 16
1.0
 26
0.0
 36
0.0
 17
0.0
 27
1.0
 37
0.0
 76
     0
330
70
331
57
  0
MATERIAL
  5
19
102
{ACAD_XDICTIONARY
360
1A
102
}
102
{ACAD_REACTORS
330
10
102
}
330
10
100
AcDbMaterial
  1
ByBlock
 72
     0
 43
0.0208333333333333
 43
0.0
 43
0.0
 43
0.0
 43
0.0
 43
0.0208333333333333
 43
0.0
 43
0.0
 43
0.0
 43
0.0
 43
1.0
 43
0.0
 43
0.0
 43
0.0
 43
0.0
 43
1.0
 77
     0
 47
0.0208333333333333
 47
0.0
 47
0.0
 47
0.0
 47
0.0
 47
0.0208333333333333
 47
0.0
 47
0.0
 47
0.0
 47
0.0
 47
1.0
 47
0.0
 47
0.0
 47
0.0
 47
0.0
 47
1.0
171
     0
 49
0.0208333333333333
 49
0.0
 49
0.0
 49
0.0
 49
0.0
 49
0.0208333333333333
 49
0.0
 49
0.0
 49
0.0
 49
0.0
 49
1.0
 49
0.0
 49
0.0
 49
0.0
 49
0.0
 49
1.0
175
     0
142
0.0208333333333333
142
0.0
142
0.0
142
0.0
142
0.0
142
0.0208333333333333
142
0.0
142
0.0
142
0.0
142
0.0
142
1.0
142
0.0
142
0.0
142
0.0
142
0.0
142
1.0
179
     0
144
0.0208333333333333
144
0.0
144
0.0
144
0.0
144
0.0
144
0.0208333333333333
144
0.0
144
0.0
144
0.0
144
0.0
144
1.0
144
0.0
144
0.0
144
0.0
144
0.0
144
1.0
147
0.0208333333333333
147
0.0
147
0.0
147
0.0
147
0.0
147
0.0208333333333333
147
0.0
147
0.0
147
0.0
147
0.0
147
1.0
147
0.0
147
0.0
147
0.0
147
0.0
147
1.0
  0
MATERIAL
  5
11
102
{ACAD_XDICTIONARY
360
12
102
}
102
{ACAD_REACTORS
330
10
102
}
330
10
100
AcDbMaterial
  1
ByLayer
 72
     0
 43
0.0208333333333333
 43
0.0
 43
0.0
 43
0.0
 43
0.0
 43
0.0208333333333333
 43
0.0
 43
0.0
 43
0.0
 43
0.0
 43
1.0
 43
0.0
 43
0.0
 43
0.0
 43
0.0
 43
1.0
 77
     0
 47
0.0208333333333333
 47
0.0
 47
0.0
 47
0.0
 47
0.0
 47
0.0208333333333333
 47
0.0
 47
0.0
 47
0.0
 47
0.0
 47
1.0
 47
0.0
 47
0.0
 47
0.0
 47
0.0
 47
1.0
171
     0
 49
0.0208333333333333
 49
0.0
 49
0.0
 49
0.0
 49
0.0
 49
0.0208333333333333
 49
0.0
 49
0.0
 49
0.0
 49
0.0
 49
1.0
 49
0.0
 49
0.0
 49
0.0
 49
0.0
 49
1.0
175
     0
142
0.0208333333333333
142
0.0
142
0.0
142
0.0
142
0.0
142
0.0208333333333333
142
0.0
142
0.0
142
0.0
142
0.0
142
1.0
142
0.0
142
0.0
142
0.0
142
0.0
142
1.0
179
     0
144
0.0208333333333333
144
0.0
144
0.0
144
0.0
144
0.0
144
0.0208333333333333
144
0.0
144
0.0
144
0.0
144
0.0
144
1.0
144
0.0
144
0.0
144
0.0
144
0.0
144
1.0
147
0.0208333333333333
147
0.0
147
0.0
147
0.0
147
0.0
147
0.0208333333333333
147
0.0
147
0.0
147
0.0
147
0.0
147
1.0
147
0.0
147
0.0
147
0.0
147
0.0
147
1.0
  0
MATERIAL
  5
21
102
{ACAD_XDICTIONARY
360
22
102
}
102
{ACAD_REACTORS
330
10
102
}
330
10
100
AcDbMaterial
  1
Global
 72
     0
 43
0.0208333333333333
 43
0.0
 43
0.0
 43
0.0
 43
0.0
 43
0.0208333333333333
 43
0.0
 43
0.0
 43
0.0
 43
0.0
 43
1.0
 43
0.0
 43
0.0
 43
0.0
 43
0.0
 43
1.0
 77
     0
 47
0.0208333333333333
 47
0.0
 47
0.0
 47
0.0
 47
0.0
 47
0.0208333333333333
 47
0.0
 47
0.0
 47
0.0
 47
0.0
 47
1.0
 47
0.0
 47
0.0
 47
0.0
 47
0.0
 47
1.0
171
     0
 49
0.0208333333333333
 49
0.0
 49
0.0
 49
0.0
 49
0.0
 49
0.0208333333333333
 49
0.0
 49
0.0
 49
0.0
 49
0.0
 49
1.0
 49
0.0
 49
0.0
 49
0.0
 49
0.0
 49
1.0
175
     0
142
0.0208333333333333
142
0.0
142
0.0
142
0.0
142
0.0
142
0.0208333333333333
142
0.0
142
0.0
142
0.0
142
0.0
142
1.0
142
0.0
142
0.0
142
0.0
142
0.0
142
1.0
179
     0
144
0.0208333333333333
144
0.0
144
0.0
144
0.0
144
0.0
144
0.0208333333333333
144
0.0
144
0.0
144
0.0
144
0.0
144
1.0
144
0.0
144
0.0
144
0.0
144
0.0
144
1.0
147
0.0208333333333333
147
0.0
147
0.0
147
0.0
147
0.0
147
0.0208333333333333
147
0.0
147
0.0
147
0.0
147
0.0
147
1.0
147
0.0
147
0.0
147
0.0
147
0.0
147
1.0
  0
MLEADERSTYLE
  5
67
102
{ACAD_XDICTIONARY
360
234
102
}
102
{ACAD_REACTORS
330
66
102
}
330
66
100
AcDbMLeaderStyle
170
     2
171
     1
172
     0
 90
        2
 40
0.0
 41
0.0
173
     1
 91
-1056964608
340
5B
 92
       -2
290
     1
 42
0.09
291
     1
 43
0.36
  3
Standard
 44
0.18
300

342
55
174
     1
178
     6
175
     1
176
     0
 93
-1056964608
 45
0.18
292
     0
297
     0
 46
0.18
 94
-1056964608
 47
1.0
 49
1.0
140
1.0
293
     1
141
0.0
294
     1
177
     0
142
1.0
295
     0
296
     0
143
0.125
1001
ACAD_MLEADERVER
1070
     2
  0
MLINESTYLE
  5
60
102
{ACAD_REACTORS
330
5F
102
}
330
5F
100
AcDbMlineStyle
  2
STANDARD
 70
     0
  3

 62
   256
 51
90.0
 52
90.0
 71
     2
 49
0.5
 62
   256
  6
BYLAYER
 49
-0.5
 62
   256
  6
BYLAYER
  0
ACDBPLACEHOLDER
  5
F
102
{ACAD_REACTORS
330
E
102
}
330
E
  0
SCALE
  5
43
102
{ACAD_REACTORS
330
42
102
}
330
42
100
AcDbScale
 70
     0
300
1:1
140
1.0
141
1.0
290
     1
  0
SCALE
  5
44
102
{ACAD_REACTORS
330
42
102
}
330
42
100
AcDbScale
 70
     0
300
1/128" = 1'-0"
140
0.0078125
141
12.0
290
     0
  0
SCALE
  5
45
102
{ACAD_REACTORS
330
42
102
}
330
42
100
AcDbScale
 70
     0
300
1/64" = 1'-0"
140
0.015625
141
12.0
290
     0
  0
SCALE
  5
46
102
{ACAD_REACTORS
330
42
102
}
330
42
100
AcDbScale
 70
     0
300
1/32" = 1'-0"
140
0.03125
141
12.0
290
     0
  0
SCALE
  5
47
102
{ACAD_REACTORS
330
42
102
}
330
42
100
AcDbScale
 70
     0
300
1/16" = 1'-0"
140
0.0625
141
12.0
290
     0
  0
SCALE
  5
48
102
{ACAD_REACTORS
330
42
102
}
330
42
100
AcDbScale
 70
     0
300
3/32" = 1'-0"
140
0.09375
141
12.0
290
     0
  0
SCALE
  5
49
102
{ACAD_REACTORS
330
42
102
}
330
42
100
AcDbScale
 70
     0
300
1/8" = 1'-0"
140
0.125
141
12.0
290
     0
  0
SCALE
  5
4A
102
{ACAD_REACTORS
330
42
102
}
330
42
100
AcDbScale
 70
     0
300
3/16" = 1'-0"
140
0.1875
141
12.0
290
     0
  0
SCALE
  5
4B
102
{ACAD_REACTORS
330
42
102
}
330
42
100
AcDbScale
 70
     0
300
1/4" = 1'-0"
140
0.25
141
12.0
290
     0
  0
SCALE
  5
4C
102
{ACAD_REACTORS
330
42
102
}
330
42
100
AcDbScale
 70
     0
300
3/8" = 1'-0"
140
0.375
141
12.0
290
     0
  0
SCALE
  5
4D
102
{ACAD_REACTORS
330
42
102
}
330
42
100
AcDbScale
 70
     0
300
1/2" = 1'-0"
140
0.5
141
12.0
290
     0
  0
SCALE
  5
4E
102
{ACAD_REACTORS
330
42
102
}
330
42
100
AcDbScale
 70
     0
300
3/4" = 1'-0"
140
0.75
141
12.0
290
     0
  0
SCALE
  5
4F
102
{ACAD_REACTORS
330
42
102
}
330
42
100
AcDbScale
 70
     0
300
1" = 1'-0"
140
1.0
141
12.0
290
     0
  0
SCALE
  5
50
102
{ACAD_REACTORS
330
42
102
}
330
42
100
AcDbScale
 70
     0
300
1-1/2" = 1'-0"
140
1.5
141
12.0
290
     0
  0
SCALE
  5
51
102
{ACAD_REACTORS
330
42
102
}
330
42
100
AcDbScale
 70
     0
300
3" = 1'-0"
140
3.0
141
12.0
290
     0
  0
SCALE
  5
52
102
{ACAD_REACTORS
330
42
102
}
330
42
100
AcDbScale
 70
     0
300
6" = 1'-0"
140
6.0
141
12.0
290
     0
  0
SCALE
  5
53
102
{ACAD_REACTORS
330
42
102
}
330
42
100
AcDbScale
 70
     0
300
1'-0" = 1'-0"
140
12.0
141
12.0
290
     0
  0
ACDBSECTIONVIEWSTYLE
  5
69
102
{ACAD_XDICTIONARY
360
236
102
}
102
{ACAD_REACTORS
330
68
102
}
330
68
100
AcDbModelDocViewStyle
 70
     0
  3
Imperial24
290
     0
100
AcDbSectionViewStyle
 70
     0
 71
     0
 90
       78
 71
     1
340
55
 62
   256
 40
0.24
340
0
340
0
 62
   256
 40
0.24
300
I, O, Q, S, X, Z
 40
0.48
 90
        3
 40
0.18
 90
        1
 71
     2
340
5D
 90
       25
 62
   256
340
5D
 90
       50
 62
   256
 40
0.24
 40
0.0
 40
0.24
 71
     3
340
55
 62
   256
 40
0.24
 90
        1
 40
0.75
 90
        1
300
%<\AcVar ViewType \f "%tc1">% %<\AcVar ViewSectionStartId>%-%<\AcVar ViewSectionEndId>%\PSCALE %<\AcVar ViewScale \f "%sn">%
 71
     4
 62
   256
 62
   257
300
ANSI31
 40
1.0
 90
        0
290
     0
290
     0
 90
        6
 40
0.0
 40
1.570796326794896
 40
0.2617993877991494
 40
1.308996938995747
 40
-0.2617993877991494
 40
1.832595714594045
  0
TABLESTYLE
  5
65
102
{ACAD_XDICTIONARY
360
104
102
}
102
{ACAD_REACTORS
330
64
102
}
330
64
100
AcDbTableStyle
  3
Standard
 70
     0
 71
     0
 40
0.06
 41
0.06
280
     0
281
     0
  7
Standard
140
0.18
170
     2
 62
     0
 63
     7
283
     0
 90
      512
 91
        0
  1

274
    -2
284
     1
 64
     0
275
    -2
285
     1
 65
     0
276
    -2
286
     1
 66
     0
277
    -2
287
     1
 67
     0
278
    -2
288
     1
 68
     0
279
    -2
289
     1
 69
     0
  7
Standard
140
0.25
170
     5
 62
     0
 63
     7
283
     0
 90
      512
 91
        0
  1

274
    -2
284
     1
 64
     0
275
    -2
285
     1
 65
     0
276
    -2
286
     1
 66
     0
277
    -2
287
     1
 67
     0
278
    -2
288
     1
 68
     0
279
    -2
289
     1
 69
     0
  7
Standard
140
0.18
170
     5
 62
     0
 63
     7
283
     0
 90
      512
 91
        0
  1

274
    -2
284
     1
 64
     0
275
    -2
285
     1
 65
     0
276
    -2
286
     1
 66
     0
277
    -2
287
     1
 67
     0
278
    -2
288
     1
 68
     0
279
    -2
289
     1
 69
     0
  0
VISUALSTYLE
  5
2F
102
{ACAD_XDICTIONARY
360
20D
102
}
102
{ACAD_REACTORS
330
29
102
}
330
29
100
AcDbVisualStyle
  2
2dWireframe
 70
     4
 71
     0
 72
     2
 73
     0
 90
        0
 40
-0.6
 41
-30.0
 62
     5
 63
     7
421
 16777215
 74
     1
 91
        4
 64
     7
 65
   257
 75
     1
175
     1
 42
1.0
 92
        0
 66
   257
 43
1.0
 76
     1
 77
     6
 78
     2
 67
     7
 79
     5
170
     0
171
     0
290
     0
174
     0
 93
        1
 44
0.0
173
     0
291
     0
 45
0.0
1001
ACAD
1000
AcDbSavedByObjectVersion
1070
     0
  0
VISUALSTYLE
  5
2E
102
{ACAD_XDICTIONARY
360
20B
102
}
102
{ACAD_REACTORS
330
29
102
}
330
29
100
AcDbVisualStyle
  2
Basic
 70
     7
 71
     1
 72
     0
 73
     1
 90
        0
 40
-0.6
 41
-30.0
 62
     5
 63
     7
421
 16777215
 74
     0
 91
        4
 64
     7
 65
   257
 75
     1
175
     1
 42
1.0
 92
        8
 66
     7
 43
1.0
 76
     1
 77
     6
 78
     2
 67
     7
 79
     5
170
     0
171
     0
290
     0
174
     0
 93
        1
 44
0.0
173
     0
291
     1
 45
0.0
1001
ACAD
1000
AcDbSavedByObjectVersion
1070
     0
  0
VISUALSTYLE
  5
35
102
{ACAD_XDICTIONARY
360
219
102
}
102
{ACAD_REACTORS
330
29
102
}
330
29
100
AcDbVisualStyle
  2
Brighten
 70
    12
 71
     2
 72
     2
 73
     0
 90
        0
 40
-0.6
 41
-30.0
 62
     5
 63
     7
421
 16777215
 74
     1
 91
        4
 64
     7
 65
   257
 75
     1
175
     1
 42
1.0
 92
        8
 66
     7
 43
1.0
 76
     1
 77
     6
 78
     2
 67
     7
 79
     5
170
     0
171
     0
290
     0
174
     0
 93
        1
 44
50.0
173
     0
291
     1
 45
0.0
1001
ACAD
1000
AcDbSavedByObjectVersion
1070
     0
  0
VISUALSTYLE
  5
39
102
{ACAD_XDICTIONARY
360
221
102
}
102
{ACAD_REACTORS
330
29
102
}
330
29
100
AcDbVisualStyle
  2
ColorChange
 70
    16
 71
     2
 72
     2
 73
     3
 90
        0
 40
-0.6
 41
-30.0
 62
     5
 63
     8
421
  8421504
 74
     1
 91
        4
 64
     7
 65
   257
 75
     1
175
     1
 42
1.0
 92
        8
 66
     8
424
  8421504
 43
1.0
 76
     1
 77
     6
 78
     2
 67
     7
 79
     5
170
     0
171
     0
290
     0
174
     0
 93
        1
 44
0.0
173
     0
291
     1
 45
0.0
1001
ACAD
1000
AcDbSavedByObjectVersion
1070
     0
  0
VISUALSTYLE
  5
32
102
{ACAD_XDICTIONARY
360
213
102
}
102
{ACAD_REACTORS
330
29
102
}
330
29
100
AcDbVisualStyle
  2
Conceptual
 70
     9
 71
     3
 72
     2
 73
     0
 90
        0
 40
-0.6
 41
-30.0
 62
     5
 63
     7
421
 16777215
 74
     2
 91
        2
 64
     7
 65
   257
 75
     1
175
     1
 42
179.0
 92
        8
 66
     7
 43
1.0
 76
     1
 77
     6
 78
     2
 67
     7
 79
     3
170
     0
171
     0
290
     0
174
     0
 93
        1
 44
0.0
173
     0
291
     0
 45
0.0
1001
ACAD
1000
AcDbSavedByObjectVersion
1070
     0
  0
VISUALSTYLE
  5
34
102
{ACAD_XDICTIONARY
360
217
102
}
102
{ACAD_REACTORS
330
29
102
}
330
29
100
AcDbVisualStyle
  2
Dim
 70
    11
 71
     2
 72
     2
 73
     0
 90
        0
 40
-0.6
 41
-30.0
 62
     5
 63
     7
421
 16777215
 74
     1
 91
        4
 64
     7
 65
   257
 75
     1
175
     1
 42
1.0
 92
        8
 66
     7
 43
1.0
 76
     1
 77
     6
 78
     2
 67
     7
 79
     5
170
     0
171
     0
290
     0
174
     0
 93
        1
 44
-50.0
173
     0
291
     1
 45
0.0
1001
ACAD
1000
AcDbSavedByObjectVersion
1070
     0
  0
VISUALSTYLE
  5
41
102
{ACAD_XDICTIONARY
360
231
102
}
102
{ACAD_REACTORS
330
29
102
}
330
29
100
AcDbVisualStyle
  2
EdgeColorOff
 70
    22
 71
     2
 72
     2
 73
     0
 90
        0
 40
-0.6
 41
-30.0
 62
     5
 63
     7
421
 16777215
 74
     1
 91
        4
 64
     7
 65
   257
 75
     1
175
     1
 42
1.0
 92
        8
 66
     7
 43
1.0
 76
     1
 77
     6
 78
     2
 67
     7
 79
     5
170
     0
171
     0
290
     0
174
     0
 93
        1
 44
0.0
173
     0
291
     1
 45
0.0
1001
ACAD
1000
AcDbSavedByObjectVersion
1070
     0
  0
VISUALSTYLE
  5
38
102
{ACAD_XDICTIONARY
360
21F
102
}
102
{ACAD_REACTORS
330
29
102
}
330
29
100
AcDbVisualStyle
  2
Facepattern
 70
    15
 71
     2
 72
     2
 73
     0
 90
        0
 40
-0.6
 41
-30.0
 62
     5
 63
     7
421
 16777215
 74
     1
 91
        4
 64
     7
 65
   257
 75
     1
175
     1
 42
1.0
 92
        8
 66
     7
 43
1.0
 76
     1
 77
     6
 78
     2
 67
     7
 79
     5
170
     0
171
     0
290
     0
174
     0
 93
        1
 44
0.0
173
     0
291
     1
 45
0.0
1001
ACAD
1000
AcDbSavedByObjectVersion
1070
     0
  0
VISUALSTYLE
  5
2A
102
{ACAD_XDICTIONARY
360
203
102
}
102
{ACAD_REACTORS
330
29
102
}
330
29
100
AcDbVisualStyle
  2
Flat
 70
     0
 71
     2
 72
     1
 73
     1
 90
        2
 40
-0.6
 41
30.0
 62
     5
 63
     7
421
 16777215
 74
     0
 91
        0
 64
     7
 65
   257
 75
     1
175
     1
 42
1.0
 92
        8
 66
     7
 43
1.0
 76
     1
 77
     6
 78
     2
 67
     7
 79
     5
170
     0
171
     0
290
     0
174
     0
 93
       13
 44
0.0
173
     0
291
     1
 45
0.0
1001
ACAD
1000
AcDbSavedByObjectVersion
1070
     0
  0
VISUALSTYLE
  5
2B
102
{ACAD_XDICTIONARY
360
205
102
}
102
{ACAD_REACTORS
330
29
102
}
330
29
100
AcDbVisualStyle
  2
FlatWithEdges
 70
     1
 71
     2
 72
     1
 73
     1
 90
        2
 40
-0.6
 41
30.0
 62
     5
 63
     7
421
 16777215
 74
     1
 91
        0
 64
     7
 65
   257
 75
     1
175
     1
 42
1.0
 92
        0
 66
   257
 43
1.0
 76
     1
 77
     6
 78
     2
 67
     7
 79
     5
170
     0
171
     0
290
     0
174
     0
 93
       13
 44
0.0
173
     0
291
     1
 45
0.0
1001
ACAD
1000
AcDbSavedByObjectVersion
1070
     0
  0
VISUALSTYLE
  5
2C
102
{ACAD_XDICTIONARY
360
207
102
}
102
{ACAD_REACTORS
330
29
102
}
330
29
100
AcDbVisualStyle
  2
Gouraud
 70
     2
 71
     2
 72
     2
 73
     1
 90
        2
 40
-0.6
 41
30.0
 62
     5
 63
     7
421
 16777215
 74
     0
 91
        0
 64
     7
 65
   257
 75
     1
175
     1
 42
1.0
 92
        0
 66
     7
 43
1.0
 76
     1
 77
     6
 78
     2
 67
     7
 79
     5
170
     0
171
     0
290
     0
174
     0
 93
       13
 44
0.0
173
     0
291
     1
 45
0.0
1001
ACAD
1000
AcDbSavedByObjectVersion
1070
     0
  0
VISUALSTYLE
  5
2D
102
{ACAD_XDICTIONARY
360
209
102
}
102
{ACAD_REACTORS
330
29
102
}
330
29
100
AcDbVisualStyle
  2
GouraudWithEdges
 70
     3
 71
     2
 72
     2
 73
     1
 90
        2
 40
-0.6
 41
30.0
 62
     5
 63
     7
421
 16777215
 74
     1
 91
        0
 64
     7
 65
   257
 75
     1
175
     1
 42
1.0
 92
        0
 66
   257
 43
1.0
 76
     1
 77
     6
 78
     2
 67
     7
 79
     5
170
     0
171
     0
290
     0
174
     0
 93
       13
 44
0.0
173
     0
291
     1
 45
0.0
1001
ACAD
1000
AcDbSavedByObjectVersion
1070
     0
  0
VISUALSTYLE
  5
31
102
{ACAD_XDICTIONARY
360
211
102
}
102
{ACAD_REACTORS
330
29
102
}
330
29
100
AcDbVisualStyle
  2
Hidden
 70
     6
 71
     1
 72
     2
 73
     2
 90
        0
 40
-0.6
 41
-30.0
 62
     5
 63
     7
421
 16777215
 74
     2
 91
        2
 64
     7
 65
   257
 75
     2
175
     1
 42
40.0
 92
        0
 66
   257
 43
1.0
 76
     1
 77
     6
 78
     2
 67
     7
 79
     3
170
     0
171
     0
290
     0
174
     0
 93
        1
 44
0.0
173
     0
291
     0
 45
0.0
1001
ACAD
1000
AcDbSavedByObjectVersion
1070
     0
  0
VISUALSTYLE
  5
3F
102
{ACAD_XDICTIONARY
360
22D
102
}
102
{ACAD_REACTORS
330
29
102
}
330
29
100
AcDbVisualStyle
  2
JitterOff
 70
    20
 71
     2
 72
     2
 73
     0
 90
        0
 40
-0.6
 41
-30.0
 62
     5
 63
     7
421
 16777215
 74
     1
 91
        4
 64
     7
 65
   257
 75
     1
175
     1
 42
1.0
 92
       10
 66
     7
 43
1.0
 76
     1
 77
     6
 78
     2
 67
     7
 79
     5
170
     0
171
     0
290
     0
174
     0
 93
        1
 44
0.0
173
     0
291
     1
 45
0.0
1001
ACAD
1000
AcDbSavedByObjectVersion
1070
     0
  0
VISUALSTYLE
  5
37
102
{ACAD_XDICTIONARY
360
21D
102
}
102
{ACAD_REACTORS
330
29
102
}
330
29
100
AcDbVisualStyle
  2
Linepattern
 70
    14
 71
     2
 72
     2
 73
     0
 90
        0
 40
-0.6
 41
-30.0
 62
     5
 63
     7
421
 16777215
 74
     1
 91
        4
 64
     7
 65
   257
 75
     7
175
     7
 42
1.0
 92
        8
 66
     7
 43
1.0
 76
     1
 77
     6
 78
     2
 67
     7
 79
     5
170
     0
171
     0
290
     0
174
     0
 93
        1
 44
0.0
173
     0
291
     1
 45
0.0
1001
ACAD
1000
AcDbSavedByObjectVersion
1070
     0
  0
VISUALSTYLE
  5
40
102
{ACAD_XDICTIONARY
360
22F
102
}
102
{ACAD_REACTORS
330
29
102
}
330
29
100
AcDbVisualStyle
  2
OverhangOff
 70
    21
 71
     2
 72
     2
 73
     0
 90
        0
 40
-0.6
 41
-30.0
 62
     5
 63
     7
421
 16777215
 74
     1
 91
        4
 64
     7
 65
   257
 75
     1
175
     1
 42
1.0
 92
        9
 66
     7
 43
1.0
 76
     1
 77
     6
 78
     2
 67
     7
 79
     5
170
     0
171
     0
290
     0
174
     0
 93
        1
 44
0.0
173
     0
291
     1
 45
0.0
1001
ACAD
1000
AcDbSavedByObjectVersion
1070
     0
  0
VISUALSTYLE
  5
33
102
{ACAD_XDICTIONARY
360
215
102
}
102
{ACAD_REACTORS
330
29
102
}
330
29
100
AcDbVisualStyle
  2
Realistic
 70
     8
 71
     2
 72
     3
 73
     0
 90
        2
 40
-0.6
 41
30.0
 62
     5
 63
     7
421
 16777215
 74
     0
 91
        0
 64
     7
 65
   257
 75
     1
175
     1
 42
1.0
 92
        8
 66
   257
 43
1.0
 76
     1
 77
     6
 78
     2
 67
     7
 79
     3
170
     0
171
     0
290
     0
174
     0
 93
       13
 44
0.0
173
     0
291
     0
 45
0.0
1001
ACAD
1000
AcDbSavedByObjectVersion
1070
     0
  0
VISUALSTYLE
  5
3E
102
{ACAD_XDICTIONARY
360
22B
102
}
102
{ACAD_REACTORS
330
29
102
}
330
29
100
AcDbVisualStyle
  2
Shaded
 70
    27
 71
     2
 72
     2
 73
     1
 90
        2
 40
-0.6
 41
30.0
 62
     5
 63
     7
421
 16777215
 74
     0
 91
        4
 64
     7
 65
   257
 75
     1
175
     1
 42
1.0
 92
        8
 66
   257
 43
1.0
 76
     1
 77
     6
 78
     2
 67
     8
425
  7895160
 79
     3
170
     0
171
     0
290
     0
174
     0
 93
        5
 44
0.0
173
     0
291
     0
 45
0.0
1001
ACAD
1000
AcDbSavedByObjectVersion
1070
     0
  0
VISUALSTYLE
  5
3D
102
{ACAD_XDICTIONARY
360
229
102
}
102
{ACAD_REACTORS
330
29
102
}
330
29
100
AcDbVisualStyle
  2
Shaded with edges
 70
    26
 71
     2
 72
     2
 73
     1
 90
        2
 40
-0.6
 41
30.0
 62
     5
 63
     7
421
 16777215
 74
     1
 91
        2
 64
     7
 65
   257
 75
     2
175
     1
 42
1.0
 92
        8
 66
   257
 43
1.0
 76
     1
 77
     6
 78
     2
 67
     7
 79
     3
170
     0
171
     0
290
     0
174
     0
 93
        5
 44
0.0
173
     0
291
     0
 45
0.0
1001
ACAD
1000
AcDbSavedByObjectVersion
1070
     0
  0
VISUALSTYLE
  5
3A
102
{ACAD_XDICTIONARY
360
223
102
}
102
{ACAD_REACTORS
330
29
102
}
330
29
100
AcDbVisualStyle
  2
Shades of Gray
 70
    23
 71
     2
 72
     2
 73
     3
 90
        0
 40
-0.6
 41
-30.0
 62
     5
 63
     7
421
 16777215
 74
     2
 91
        2
 64
     7
 65
     7
 75
     1
175
     1
 42
40.0
 92
        8
 66
     7
 43
1.0
 76
     1
 77
     6
 78
     2
 67
     7
 79
     3
170
     0
171
     0
290
     0
174
     0
 93
        1
 44
0.0
173
     0
291
     0
 45
0.0
1001
ACAD
1000
AcDbSavedByObjectVersion
1070
     0
  0
VISUALSTYLE
  5
3B
102
{ACAD_XDICTIONARY
360
225
102
}
102
{ACAD_REACTORS
330
29
102
}
330
29
100
AcDbVisualStyle
  2
Sketchy
 70
    24
 71
     1
 72
     2
 73
     2
 90
        0
 40
-0.6
 41
-30.0
 62
     5
 63
     7
421
 16777215
 74
     2
 91
        2
 64
     7
 65
     7
 75
     1
175
     1
 42
40.0
 92
       11
 66
     7
 43
1.0
 76
     1
 77
     6
 78
     2
 67
     7
 79
     6
170
     0
171
     0
290
     0
174
     0
 93
        1
 44
0.0
173
     0
291
     0
 45
0.0
1001
ACAD
1000
AcDbSavedByObjectVersion
1070
     0
  0
VISUALSTYLE
  5
36
102
{ACAD_XDICTIONARY
360
21B
102
}
102
{ACAD_REACTORS
330
29
102
}
330
29
100
AcDbVisualStyle
  2
Thicken
 70
    13
 71
     2
 72
     2
 73
     0
 90
        0
 40
-0.6
 41
-30.0
 62
     5
 63
     7
421
 16777215
 74
     1
 91
        4
 64
     7
 65
   257
 75
     1
175
     1
 42
1.0
 92
       12
 66
     7
 43
1.0
 76
     1
 77
     6
 78
     2
 67
     7
 79
     5
170
     0
171
     0
290
     0
174
     0
 93
        1
 44
0.0
173
     0
291
     1
 45
0.0
1001
ACAD
1000
AcDbSavedByObjectVersion
1070
     0
  0
VISUALSTYLE
  5
30
102
{ACAD_XDICTIONARY
360
20F
102
}
102
{ACAD_REACTORS
330
29
102
}
330
29
100
AcDbVisualStyle
  2
Wireframe
 70
     5
 71
     0
 72
     2
 73
     0
 90
        0
 40
-0.6
 41
-30.0
 62
     5
 63
     7
421
 16777215
 74
     1
 91
        4
 64
     7
 65
   257
 75
     1
175
     1
 42
1.0
 92
        0
 66
   257
 43
1.0
 76
     1
 77
     6
 78
     2
 67
     7
 79
     3
170
     0
171
     0
290
     0
174
     0
 93
        1
 44
0.0
173
     0
291
     0
 45
0.0
1001
ACAD
1000
AcDbSavedByObjectVersion
1070
     0
  0
VISUALSTYLE
  5
3C
102
{ACAD_XDICTIONARY
360
227
102
}
102
{ACAD_REACTORS
330
29
102
}
330
29
100
AcDbVisualStyle
  2
X-Ray
 70
    25
 71
     2
 72
     2
 73
     1
 90
        1
 40
0.5
 41
-30.0
 62
     5
 63
     7
421
 16777215
 74
     1
 91
        0
 64
     7
 65
   257
 75
     1
175
     1
 42
1.0
 92
        8
 66
     7
 43
1.0
 76
     1
 77
     6
 78
     2
 67
     7
 79
     3
170
     0
171
     0
290
     0
174
     0
 93
       13
 44
0.0
173
     0
291
     0
 45
0.0
1001
ACAD
1000
AcDbSavedByObjectVersion
1070
     0
  0
DICTIONARYVAR
  5
103
102
{ACAD_REACTORS
330
FE
102
}
330
FE
100
DictionaryVariables
280
     0
  1
1:1
  0
DICTIONARYVAR
  5
100
102
{ACAD_REACTORS
330
FE
102
}
330
FE
100
DictionaryVariables
280
     0
  1
STANDARD
  0
DICTIONARYVAR
  5
FF
102
{ACAD_REACTORS
330
FE
102
}
330
FE
100
DictionaryVariables
280
     0
  1
STANDARD
  0
DICTIONARYVAR
  5
101
102
{ACAD_REACTORS
330
FE
102
}
330
FE
100
DictionaryVariables
280
     0
  1
Imperial24
  0
DICTIONARYVAR
  5
102
102
{ACAD_REACTORS
330
FE
102
}
330
FE
100
DictionaryVariables
280
     0
  1
Imperial24
  0
DICTIONARYVAR
  5
200
102
{ACAD_REACTORS
330
FE
102
}
330
FE
100
DictionaryVariables
280
     0
  1
2
  0
DICTIONARY
  5
238
330
6B
100
AcDbDictionary
280
     1
281
     1
  3
ACAD_XREC_ROUNDTRIP
360
239
  0
DICTIONARY
  5
1A
330
19
100
AcDbDictionary
280
     1
281
     1
  3
BUMPTILE
360
1C
  3
DIFFUSETILE
360
1B
  3
OPACITYTILE
360
1F
  3
REFLECTIONTILE
360
1E
  3
REFRACTIONTILE
360
20
  3
SPECULARTILE
360
1D
  0
DICTIONARY
  5
12
330
11
100
AcDbDictionary
280
     1
281
     1
  3
BUMPTILE
360
14
  3
DIFFUSETILE
360
13
  3
OPACITYTILE
360
17
  3
REFLECTIONTILE
360
16
  3
REFRACTIONTILE
360
18
  3
SPECULARTILE
360
15
  0
DICTIONARY
  5
22
330
21
100
AcDbDictionary
280
     1
281
     1
  3
BUMPTILE
360
24
  3
DIFFUSETILE
360
23
  3
OPACITYTILE
360
27
  3
REFLECTIONTILE
360
26
  3
REFRACTIONTILE
360
28
  3
SPECULARTILE
360
25
  0
DICTIONARY
  5
234
330
67
100
AcDbDictionary
280
     1
281
     1
  3
ACAD_XREC_ROUNDTRIP
360
235
  0
DICTIONARY
  5
236
330
69
100
AcDbDictionary
280
     1
281
     1
  3
ACAD_XREC_ROUNDTRIP
360
237
  0
DICTIONARY
  5
104
330
65
100
AcDbDictionary
280
     1
281
     1
  3
ACAD_ROUNDTRIP_2008_TABLESTYLE_CELLSTYLEMAP
360
201
  0
DICTIONARY
  5
20D
330
2F
100
AcDbDictionary
280
     1
281
     1
  3
ACAD_XREC_ROUNDTRIP
360
20E
  0
DICTIONARY
  5
20B
330
2E
100
AcDbDictionary
280
     1
281
     1
  3
ACAD_XREC_ROUNDTRIP
360
20C
  0
DICTIONARY
  5
219
330
35
100
AcDbDictionary
280
     1
281
     1
  3
ACAD_XREC_ROUNDTRIP
360
21A
  0
DICTIONARY
  5
221
330
39
100
AcDbDictionary
280
     1
281
     1
  3
ACAD_XREC_ROUNDTRIP
360
222
  0
DICTIONARY
  5
213
330
32
100
AcDbDictionary
280
     1
281
     1
  3
ACAD_XREC_ROUNDTRIP
360
214
  0
DICTIONARY
  5
217
330
34
100
AcDbDictionary
280
     1
281
     1
  3
ACAD_XREC_ROUNDTRIP
360
218
  0
DICTIONARY
  5
231
330
41
100
AcDbDictionary
280
     1
281
     1
  3
ACAD_XREC_ROUNDTRIP
360
232
  0
DICTIONARY
  5
21F
330
38
100
AcDbDictionary
280
     1
281
     1
  3
ACAD_XREC_ROUNDTRIP
360
220
  0
DICTIONARY
  5
203
330
2A
100
AcDbDictionary
280
     1
281
     1
  3
ACAD_XREC_ROUNDTRIP
360
204
  0
DICTIONARY
  5
205
330
2B
100
AcDbDictionary
280
     1
281
     1
  3
ACAD_XREC_ROUNDTRIP
360
206
  0
DICTIONARY
  5
207
330
2C
100
AcDbDictionary
280
     1
281
     1
  3
ACAD_XREC_ROUNDTRIP
360
208
  0
DICTIONARY
  5
209
330
2D
100
AcDbDictionary
280
     1
281
     1
  3
ACAD_XREC_ROUNDTRIP
360
20A
  0
DICTIONARY
  5
211
330
31
100
AcDbDictionary
280
     1
281
     1
  3
ACAD_XREC_ROUNDTRIP
360
212
  0
DICTIONARY
  5
22D
330
3F
100
AcDbDictionary
280
     1
281
     1
  3
ACAD_XREC_ROUNDTRIP
360
22E
  0
DICTIONARY
  5
21D
330
37
100
AcDbDictionary
280
     1
281
     1
  3
ACAD_XREC_ROUNDTRIP
360
21E
  0
DICTIONARY
  5
22F
330
40
100
AcDbDictionary
280
     1
281
     1
  3
ACAD_XREC_ROUNDTRIP
360
230
  0
DICTIONARY
  5
215
330
33
100
AcDbDictionary
280
     1
281
     1
  3
ACAD_XREC_ROUNDTRIP
360
216
  0
DICTIONARY
  5
22B
330
3E
100
AcDbDictionary
280
     1
281
     1
  3
ACAD_XREC_ROUNDTRIP
360
22C
  0
DICTIONARY
  5
229
330
3D
100
AcDbDictionary
280
     1
281
     1
  3
ACAD_XREC_ROUNDTRIP
360
22A
  0
DICTIONARY
  5
223
330
3A
100
AcDbDictionary
280
     1
281
     1
  3
ACAD_XREC_ROUNDTRIP
360
224
  0
DICTIONARY
  5
225
330
3B
100
AcDbDictionary
280
     1
281
     1
  3
ACAD_XREC_ROUNDTRIP
360
226
  0
DICTIONARY
  5
21B
330
36
100
AcDbDictionary
280
     1
281
     1
  3
ACAD_XREC_ROUNDTRIP
360
21C
  0
DICTIONARY
  5
20F
330
30
100
AcDbDictionary
280
     1
281
     1
  3
ACAD_XREC_ROUNDTRIP
360
210
  0
DICTIONARY
  5
227
330
3C
100
AcDbDictionary
280
     1
281
     1
  3
ACAD_XREC_ROUNDTRIP
360
228
  0
XRECORD
  5
239
102
{ACAD_REACTORS
330
238
102
}
330
238
100
AcDbXrecord
280
     1
102
DISPLAYNAME
  1
Imperial24
102
FLAGS
 90
        0
  0
XRECORD
  5
1C
102
{ACAD_REACTORS
330
1A
102
}
330
1A
100
AcDbXrecord
280
     1
270
     1
271
     1
  0
XRECORD
  5
1B
102
{ACAD_REACTORS
330
1A
102
}
330
1A
100
AcDbXrecord
280
     1
270
     1
271
     1
  0
XRECORD
  5
1F
102
{ACAD_REACTORS
330
1A
102
}
330
1A
100
AcDbXrecord
280
     1
270
     1
271
     1
  0
XRECORD
  5
1E
102
{ACAD_REACTORS
330
1A
102
}
330
1A
100
AcDbXrecord
280
     1
270
     1
271
     1
  0
XRECORD
  5
20
102
{ACAD_REACTORS
330
1A
102
}
330
1A
100
AcDbXrecord
280
     1
270
     1
271
     1
  0
XRECORD
  5
1D
102
{ACAD_REACTORS
330
1A
102
}
330
1A
100
AcDbXrecord
280
     1
270
     1
271
     1
  0
XRECORD
  5
14
102
{ACAD_REACTORS
330
12
102
}
330
12
100
AcDbXrecord
280
     1
270
     1
271
     1
  0
XRECORD
  5
13
102
{ACAD_REACTORS
330
12
102
}
330
12
100
AcDbXrecord
280
     1
270
     1
271
     1
  0
XRECORD
  5
17
102
{ACAD_REACTORS
330
12
102
}
330
12
100
AcDbXrecord
280
     1
270
     1
271
     1
  0
XRECORD
  5
16
102
{ACAD_REACTORS
330
12
102
}
330
12
100
AcDbXrecord
280
     1
270
     1
271
     1
  0
XRECORD
  5
18
102
{ACAD_REACTORS
330
12
102
}
330
12
100
AcDbXrecord
280
     1
270
     1
271
     1
  0
XRECORD
  5
15
102
{ACAD_REACTORS
330
12
102
}
330
12
100
AcDbXrecord
280
     1
270
     1
271
     1
  0
XRECORD
  5
24
102
{ACAD_REACTORS
330
22
102
}
330
22
100
AcDbXrecord
280
     1
270
     1
271
     1
  0
XRECORD
  5
23
102
{ACAD_REACTORS
330
22
102
}
330
22
100
AcDbXrecord
280
     1
270
     1
271
     1
  0
XRECORD
  5
27
102
{ACAD_REACTORS
330
22
102
}
330
22
100
AcDbXrecord
280
     1
270
     1
271
     1
  0
XRECORD
  5
26
102
{ACAD_REACTORS
330
22
102
}
330
22
100
AcDbXrecord
280
     1
270
     1
271
     1
  0
XRECORD
  5
28
102
{ACAD_REACTORS
330
22
102
}
330
22
100
AcDbXrecord
280
     1
270
     1
271
     1
  0
XRECORD
  5
25
102
{ACAD_REACTORS
330
22
102
}
330
22
100
AcDbXrecord
280
     1
270
     1
271
     1
  0
XRECORD
  5
235
102
{ACAD_REACTORS
330
234
102
}
330
234
100
AcDbXrecord
280
     1
102
ACAD_ROUNDTRIP_2012_MLEADER_STYLE
298
     1
  0
XRECORD
  5
237
102
{ACAD_REACTORS
330
236
102
}
330
236
100
AcDbXrecord
280
     1
102
DISPLAYNAME
  1
Imperial24
102
FLAGS
 90
        0
  0
CELLSTYLEMAP
  5
201
102
{ACAD_REACTORS
330
104
102
}
330
104
100
AcDbCellStyleMap
 90
        3
300
CELLSTYLE
  1
TABLEFORMAT_BEGIN
 90
        5
170
     1
 91
        0
 92
    32768
 62
   257
 93
        1
300
CONTENTFORMAT
  1
CONTENTFORMAT_BEGIN
 90
        0
 91
        0
 92
      512
 93
        0
300

 40
0.0
140
1.0
 94
        5
 62
     0
340
55
144
0.25
309
CONTENTFORMAT_END
171
     1
301
MARGIN
  1
CELLMARGIN_BEGIN
 40
0.06
 40
0.06
 40
0.06
 40
0.06
 40
0.18
 40
0.18
309
CELLMARGIN_END
 94
        6
 95
        1
302
GRIDFORMAT
  1
GRIDFORMAT_BEGIN
 90
        0
 91
        1
 62
     0
 92
       -2
340
0
 93
        0
 40
0.045
309
GRIDFORMAT_END
 95
        2
302
GRIDFORMAT
  1
GRIDFORMAT_BEGIN
 90
        0
 91
        1
 62
     0
 92
       -2
340
0
 93
        0
 40
0.045
309
GRIDFORMAT_END
 95
        4
302
GRIDFORMAT
  1
GRIDFORMAT_BEGIN
 90
        0
 91
        1
 62
     0
 92
       -2
340
0
 93
        0
 40
0.045
309
GRIDFORMAT_END
 95
        8
302
GRIDFORMAT
  1
GRIDFORMAT_BEGIN
 90
        0
 91
        1
 62
     0
 92
       -2
340
0
 93
        0
 40
0.045
309
GRIDFORMAT_END
 95
       16
302
GRIDFORMAT
  1
GRIDFORMAT_BEGIN
 90
        0
 91
        1
 62
     0
 92
       -2
340
0
 93
        0
 40
0.045
309
GRIDFORMAT_END
 95
       32
302
GRIDFORMAT
  1
GRIDFORMAT_BEGIN
 90
        0
 91
        1
 62
     0
 92
       -2
340
0
 93
        0
 40
0.045
309
GRIDFORMAT_END
309
TABLEFORMAT_END
  1
CELLSTYLE_BEGIN
 90
        1
 91
        1
300
_TITLE
309
CELLSTYLE_END
300
CELLSTYLE
  1
TABLEFORMAT_BEGIN
 90
        5
170
     1
 91
        0
 92
        0
 62
   257
 93
        1
300
CONTENTFORMAT
  1
CONTENTFORMAT_BEGIN
 90
        0
 91
        0
 92
      512
 93
        0
300

 40
0.0
140
1.0
 94
        5
 62
     0
340
55
144
0.18
309
CONTENTFORMAT_END
171
     1
301
MARGIN
  1
CELLMARGIN_BEGIN
 40
0.06
 40
0.06
 40
0.06
 40
0.06
 40
0.18
 40
0.18
309
CELLMARGIN_END
 94
        6
 95
        1
302
GRIDFORMAT
  1
GRIDFORMAT_BEGIN
 90
        0
 91
        1
 62
     0
 92
       -2
340
0
 93
        0
 40
0.045
309
GRIDFORMAT_END
 95
        2
302
GRIDFORMAT
  1
GRIDFORMAT_BEGIN
 90
        0
 91
        1
 62
     0
 92
       -2
340
0
 93
        0
 40
0.045
309
GRIDFORMAT_END
 95
        4
302
GRIDFORMAT
  1
GRIDFORMAT_BEGIN
 90
        0
 91
        1
 62
     0
 92
       -2
340
0
 93
        0
 40
0.045
309
GRIDFORMAT_END
 95
        8
302
GRIDFORMAT
  1
GRIDFORMAT_BEGIN
 90
        0
 91
        1
 62
     0
 92
       -2
340
0
 93
        0
 40
0.045
309
GRIDFORMAT_END
 95
       16
302
GRIDFORMAT
  1
GRIDFORMAT_BEGIN
 90
        0
 91
        1
 62
     0
 92
       -2
340
0
 93
        0
 40
0.045
309
GRIDFORMAT_END
 95
       32
302
GRIDFORMAT
  1
GRIDFORMAT_BEGIN
 90
        0
 91
        1
 62
     0
 92
       -2
340
0
 93
        0
 40
0.045
309
GRIDFORMAT_END
309
TABLEFORMAT_END
  1
CELLSTYLE_BEGIN
 90
        2
 91
        1
300
_HEADER
309
CELLSTYLE_END
300
CELLSTYLE
  1
TABLEFORMAT_BEGIN
 90
        5
170
     1
 91
        0
 92
        0
 62
   257
 93
        1
300
CONTENTFORMAT
  1
CONTENTFORMAT_BEGIN
 90
        0
 91
        0
 92
      512
 93
        0
300

 40
0.0
140
1.0
 94
        2
 62
     0
340
55
144
0.18
309
CONTENTFORMAT_END
171
     1
301
MARGIN
  1
CELLMARGIN_BEGIN
 40
0.06
 40
0.06
 40
0.06
 40
0.06
 40
0.18
 40
0.18
309
CELLMARGIN_END
 94
        6
 95
        1
302
GRIDFORMAT
  1
GRIDFORMAT_BEGIN
 90
        0
 91
        1
 62
     0
 92
       -2
340
0
 93
        0
 40
0.045
309
GRIDFORMAT_END
 95
        2
302
GRIDFORMAT
  1
GRIDFORMAT_BEGIN
 90
        0
 91
        1
 62
     0
 92
       -2
340
0
 93
        0
 40
0.045
309
GRIDFORMAT_END
 95
        4
302
GRIDFORMAT
  1
GRIDFORMAT_BEGIN
 90
        0
 91
        1
 62
     0
 92
       -2
340
0
 93
        0
 40
0.045
309
GRIDFORMAT_END
 95
        8
302
GRIDFORMAT
  1
GRIDFORMAT_BEGIN
 90
        0
 91
        1
 62
     0
 92
       -2
340
0
 93
        0
 40
0.045
309
GRIDFORMAT_END
 95
       16
302
GRIDFORMAT
  1
GRIDFORMAT_BEGIN
 90
        0
 91
        1
 62
     0
 92
       -2
340
0
 93
        0
 40
0.045
309
GRIDFORMAT_END
 95
       32
302
GRIDFORMAT
  1
GRIDFORMAT_BEGIN
 90
        0
 91
        1
 62
     0
 92
       -2
340
0
 93
        0
 40
0.045
309
GRIDFORMAT_END
309
TABLEFORMAT_END
  1
CELLSTYLE_BEGIN
 90
        3
 91
        2
300
_DATA
309
CELLSTYLE_END
  0
XRECORD
  5
20E
102
{ACAD_REACTORS
330
20D
102
}
330
20D
100
AcDbXrecord
280
     1
102
RTVSPost2010Prop28
280
     1
102
RTVSPost2010PropOp28
 70
     1
102
RTVSPost2010Prop29
280
     1
102
RTVSPost2010PropOp29
 70
     1
102
RTVSPost2010Prop30
280
     0
102
RTVSPost2010PropOp30
 70
     1
102
RTVSPost2010Prop31
280
     0
102
RTVSPost2010PropOp31
 70
     1
102
RTVSPost2010Prop32
280
     0
102
RTVSPost2010PropOp32
 70
     1
102
RTVSPost2010Prop33
280
     0
102
RTVSPost2010PropOp33
 70
     1
102
RTVSPost2010Prop34
280
     0
102
RTVSPost2010PropOp34
 70
     1
102
RTVSPost2010Prop35
280
     0
102
RTVSPost2010PropOp35
 70
     1
102
RTVSPost2010Prop36
280
     0
102
RTVSPost2010PropOp36
 70
     1
102
RTVSPost2010Prop37
 90
       50
102
RTVSPost2010PropOp37
 70
     1
102
RTVSPost2010Prop38
140
0.0
102
RTVSPost2010PropOp38
 70
     1
102
RTVSPost2010Prop39
140
1.0
102
RTVSPost2010PropOp39
 70
     1
102
RTVSPost2010Prop40
 90
        0
102
RTVSPost2010PropOp40
 70
     1
102
RTVSPost2010Prop41ColorIndex
 90
       18
102
RTVSPost2010Prop41ColorRGB
 90
        0
102
RTVSPost2010PropOp41
 70
     1
102
RTVSPost2010Prop42
 90
       50
102
RTVSPost2010PropOp42
 70
     1
102
RTVSPost2010Prop43
 90
        3
102
RTVSPost2010PropOp43
 70
     1
102
RTVSPost2010Prop44ColorIndex
 90
        5
102
RTVSPost2010Prop44ColorRGB
 90
      255
102
RTVSPost2010PropOp44
 70
     1
102
RTVSPost2010Prop45
280
     0
102
RTVSPost2010PropOp45
 70
     1
102
RTVSPost2010Prop46
 90
       50
102
RTVSPost2010PropOp46
 70
     1
102
RTVSPost2010Prop47
 90
       50
102
RTVSPost2010PropOp47
 70
     1
102
RTVSPost2010Prop48
 90
       50
102
RTVSPost2010PropOp48
 70
     1
102
RTVSPost2010Prop49
280
     0
102
RTVSPost2010PropOp49
 70
     1
102
RTVSPost2010Prop50
 90
       50
102
RTVSPost2010PropOp50
 70
     1
102
RTVSPost2010Prop51ColorIndex
 90
      256
102
RTVSPost2010Prop51ColorRGB
 90
-16777216
102
RTVSPost2010PropOp51
 70
     0
102
RTVSPost2010Prop52
140
1.0
102
RTVSPost2010PropOp52
 70
     0
102
RTVSPost2010Prop53
 90
        2
102
RTVSPost2010PropOp53
 70
     1
102
RTVSPost2010Prop54
  1
strokes_ogs.tif
102
RTVSPost2010PropOp54
 70
     1
102
RTVSPost2010Prop55
280
     0
102
RTVSPost2010PropOp55
 70
     1
102
RTVSPost2010Prop56
140
1.0
102
RTVSPost2010PropOp56
 70
     1
102
RTVSPost2010Prop57
140
1.0
102
RTVSPost2010PropOp57
 70
     1
102
RTVSPropertyOp0
 70
     1
102
RTVSPropertyOp1
 70
     1
102
RTVSPropertyOp2
 70
     1
102
RTVSPropertyOp3
 70
     1
102
RTVSPropertyOp4
 70
     1
102
RTVSPropertyOp5
 70
     1
102
RTVSPropertyOp6
 70
     1
102
RTVSPropertyOp7
 70
     1
102
RTVSPropertyOp8
 70
     1
102
RTVSPropertyOp9
 70
     1
102
RTVSPropertyOp10
 70
     1
102
RTVSPropertyOp11
 70
     1
102
RTVSPropertyOp12
 70
     1
102
RTVSPropertyOp13
 70
     1
102
RTVSPropertyOp14
 70
     1
102
RTVSPropertyOp15
 70
     1
102
RTVSPropertyOp16
 70
     1
102
RTVSPropertyOp17
 70
     1
102
RTVSPropertyOp18
 70
     1
102
RTVSPropertyOp19
 70
     1
102
RTVSPropertyOp20
 70
     1
102
RTVSPropertyOp21
 70
     1
102
RTVSPropertyOp22
 70
     1
102
RTVSPropertyOp23
 70
     1
102
RTVSPropertyOp24
 70
     1
102
RTVSPropertyOp25
 70
     1
102
RTVSPropertyOp26
 70
     1
102
RTVSPropertyOp27
 70
     1
102
RTVSPropertyOp28
 70
     1
102
RTVSPropertyOp29
 70
     1
102
RTVSPropertyOp30
 70
     1
102
RTVSPropertyOp31
 70
     1
102
RTVSPropertyOp32
 70
     1
102
RTVSPropertyOp33
 70
     1
102
RTVSPropertyOp34
 70
     1
102
RTVSPropertyOp35
 70
     1
102
RTVSPropertyOp36
 70
     1
102
RTVSPropertyOp37
 70
     1
102
RTVSPropertyOp38
 70
     1
102
RTVSPropertyOp39
 70
     1
102
RTVSPropertyOp40
 70
     1
102
RTVSPropertyOp41
 70
     1
102
RTVSPropertyOp42
 70
     1
102
RTVSPropertyOp43
 70
     1
102
RTVSPropertyOp44
 70
     1
102
RTVSPropertyOp45
 70
     1
102
RTVSPropertyOp46
 70
     1
102
RTVSPropertyOp47
 70
     1
102
RTVSPropertyOp48
 70
     1
102
RTVSPropertyOp49
 70
     1
102
RTVSPropertyOp50
 70
     1
102
RTVSPropertyOp51
 70
     0
102
RTVSPropertyOp52
 70
     0
102
RTVSPropertyOp53
 70
     1
102
RTVSPropertyOp54
 70
     1
102
RTVSPropertyOp55
 70
     1
102
RTVSPropertyOp56
 70
     1
102
RTVSPropertyOp57
 70
     1
102
RTVSPropertyOp58
 70
     1
102
RTVSPropertyOp59
 70
     1
102
RTVSPropertyOp60
 70
     1
102
RTVSPropertyOp61
 70
     1
102
RTVSPropertyOp62
 70
     1
  0
XRECORD
  5
20C
102
{ACAD_REACTORS
330
20B
102
}
330
20B
100
AcDbXrecord
280
     1
102
RTVSPost2010Prop28
280
     0
102
RTVSPost2010PropOp28
 70
     1
102
RTVSPost2010Prop29
280
     1
102
RTVSPost2010PropOp29
 70
     1
102
RTVSPost2010Prop30
280
     1
102
RTVSPost2010PropOp30
 70
     1
102
RTVSPost2010Prop31
280
     0
102
RTVSPost2010PropOp31
 70
     1
102
RTVSPost2010Prop32
280
     0
102
RTVSPost2010PropOp32
 70
     1
102
RTVSPost2010Prop33
280
     0
102
RTVSPost2010PropOp33
 70
     1
102
RTVSPost2010Prop34
280
     0
102
RTVSPost2010PropOp34
 70
     1
102
RTVSPost2010Prop35
280
     0
102
RTVSPost2010PropOp35
 70
     1
102
RTVSPost2010Prop36
280
     0
102
RTVSPost2010PropOp36
 70
     1
102
RTVSPost2010Prop37
 90
       50
102
RTVSPost2010PropOp37
 70
     1
102
RTVSPost2010Prop38
140
0.0
102
RTVSPost2010PropOp38
 70
     1
102
RTVSPost2010Prop39
140
1.0
102
RTVSPost2010PropOp39
 70
     1
102
RTVSPost2010Prop40
 90
        0
102
RTVSPost2010PropOp40
 70
     1
102
RTVSPost2010Prop41ColorIndex
 90
       18
102
RTVSPost2010Prop41ColorRGB
 90
        0
102
RTVSPost2010PropOp41
 70
     1
102
RTVSPost2010Prop42
 90
       50
102
RTVSPost2010PropOp42
 70
     1
102
RTVSPost2010Prop43
 90
        3
102
RTVSPost2010PropOp43
 70
     1
102
RTVSPost2010Prop44ColorIndex
 90
        5
102
RTVSPost2010Prop44ColorRGB
 90
      255
102
RTVSPost2010PropOp44
 70
     1
102
RTVSPost2010Prop45
280
     0
102
RTVSPost2010PropOp45
 70
     1
102
RTVSPost2010Prop46
 90
       50
102
RTVSPost2010PropOp46
 70
     1
102
RTVSPost2010Prop47
 90
       50
102
RTVSPost2010PropOp47
 70
     1
102
RTVSPost2010Prop48
 90
       50
102
RTVSPost2010PropOp48
 70
     1
102
RTVSPost2010Prop49
280
     0
102
RTVSPost2010PropOp49
 70
     1
102
RTVSPost2010Prop50
 90
       50
102
RTVSPost2010PropOp50
 70
     1
102
RTVSPost2010Prop51ColorIndex
 90
      256
102
RTVSPost2010Prop51ColorRGB
 90
-16777216
102
RTVSPost2010PropOp51
 70
     0
102
RTVSPost2010Prop52
140
1.0
102
RTVSPost2010PropOp52
 70
     0
102
RTVSPost2010Prop53
 90
        2
102
RTVSPost2010PropOp53
 70
     1
102
RTVSPost2010Prop54
  1
strokes_ogs.tif
102
RTVSPost2010PropOp54
 70
     1
102
RTVSPost2010Prop55
280
     0
102
RTVSPost2010PropOp55
 70
     1
102
RTVSPost2010Prop56
140
1.0
102
RTVSPost2010PropOp56
 70
     1
102
RTVSPost2010Prop57
140
1.0
102
RTVSPost2010PropOp57
 70
     1
102
RTVSPropertyOp0
 70
     1
102
RTVSPropertyOp1
 70
     1
102
RTVSPropertyOp2
 70
     1
102
RTVSPropertyOp3
 70
     1
102
RTVSPropertyOp4
 70
     1
102
RTVSPropertyOp5
 70
     1
102
RTVSPropertyOp6
 70
     1
102
RTVSPropertyOp7
 70
     1
102
RTVSPropertyOp8
 70
     1
102
RTVSPropertyOp9
 70
     1
102
RTVSPropertyOp10
 70
     1
102
RTVSPropertyOp11
 70
     1
102
RTVSPropertyOp12
 70
     1
102
RTVSPropertyOp13
 70
     1
102
RTVSPropertyOp14
 70
     1
102
RTVSPropertyOp15
 70
     1
102
RTVSPropertyOp16
 70
     1
102
RTVSPropertyOp17
 70
     1
102
RTVSPropertyOp18
 70
     1
102
RTVSPropertyOp19
 70
     1
102
RTVSPropertyOp20
 70
     1
102
RTVSPropertyOp21
 70
     1
102
RTVSPropertyOp22
 70
     1
102
RTVSPropertyOp23
 70
     1
102
RTVSPropertyOp24
 70
     1
102
RTVSPropertyOp25
 70
     1
102
RTVSPropertyOp26
 70
     1
102
RTVSPropertyOp27
 70
     1
102
RTVSPropertyOp28
 70
     1
102
RTVSPropertyOp29
 70
     1
102
RTVSPropertyOp30
 70
     1
102
RTVSPropertyOp31
 70
     1
102
RTVSPropertyOp32
 70
     1
102
RTVSPropertyOp33
 70
     1
102
RTVSPropertyOp34
 70
     1
102
RTVSPropertyOp35
 70
     1
102
RTVSPropertyOp36
 70
     1
102
RTVSPropertyOp37
 70
     1
102
RTVSPropertyOp38
 70
     1
102
RTVSPropertyOp39
 70
     1
102
RTVSPropertyOp40
 70
     1
102
RTVSPropertyOp41
 70
     1
102
RTVSPropertyOp42
 70
     1
102
RTVSPropertyOp43
 70
     1
102
RTVSPropertyOp44
 70
     1
102
RTVSPropertyOp45
 70
     1
102
RTVSPropertyOp46
 70
     1
102
RTVSPropertyOp47
 70
     1
102
RTVSPropertyOp48
 70
     1
102
RTVSPropertyOp49
 70
     1
102
RTVSPropertyOp50
 70
     1
102
RTVSPropertyOp51
 70
     0
102
RTVSPropertyOp52
 70
     0
102
RTVSPropertyOp53
 70
     1
102
RTVSPropertyOp54
 70
     1
102
RTVSPropertyOp55
 70
     1
102
RTVSPropertyOp56
 70
     1
102
RTVSPropertyOp57
 70
     1
102
RTVSPropertyOp58
 70
     1
102
RTVSPropertyOp59
 70
     1
102
RTVSPropertyOp60
 70
     1
102
RTVSPropertyOp61
 70
     1
102
RTVSPropertyOp62
 70
     1
  0
XRECORD
  5
21A
102
{ACAD_REACTORS
330
219
102
}
330
219
100
AcDbXrecord
280
     1
102
RTVSPost2010Prop28
280
     0
102
RTVSPost2010PropOp28
 70
     1
102
RTVSPost2010Prop29
280
     1
102
RTVSPost2010PropOp29
 70
     1
102
RTVSPost2010Prop30
280
     1
102
RTVSPost2010PropOp30
 70
     1
102
RTVSPost2010Prop31
280
     0
102
RTVSPost2010PropOp31
 70
     1
102
RTVSPost2010Prop32
280
     0
102
RTVSPost2010PropOp32
 70
     1
102
RTVSPost2010Prop33
280
     0
102
RTVSPost2010PropOp33
 70
     1
102
RTVSPost2010Prop34
280
     0
102
RTVSPost2010PropOp34
 70
     1
102
RTVSPost2010Prop35
280
     0
102
RTVSPost2010PropOp35
 70
     1
102
RTVSPost2010Prop36
280
     0
102
RTVSPost2010PropOp36
 70
     1
102
RTVSPost2010Prop37
 90
       50
102
RTVSPost2010PropOp37
 70
     1
102
RTVSPost2010Prop38
140
0.0
102
RTVSPost2010PropOp38
 70
     1
102
RTVSPost2010Prop39
140
1.0
102
RTVSPost2010PropOp39
 70
     1
102
RTVSPost2010Prop40
 90
        0
102
RTVSPost2010PropOp40
 70
     1
102
RTVSPost2010Prop41ColorIndex
 90
       18
102
RTVSPost2010Prop41ColorRGB
 90
        0
102
RTVSPost2010PropOp41
 70
     1
102
RTVSPost2010Prop42
 90
       50
102
RTVSPost2010PropOp42
 70
     1
102
RTVSPost2010Prop43
 90
        3
102
RTVSPost2010PropOp43
 70
     1
102
RTVSPost2010Prop44ColorIndex
 90
        5
102
RTVSPost2010Prop44ColorRGB
 90
      255
102
RTVSPost2010PropOp44
 70
     1
102
RTVSPost2010Prop45
280
     0
102
RTVSPost2010PropOp45
 70
     1
102
RTVSPost2010Prop46
 90
       50
102
RTVSPost2010PropOp46
 70
     1
102
RTVSPost2010Prop47
 90
       50
102
RTVSPost2010PropOp47
 70
     1
102
RTVSPost2010Prop48
 90
       50
102
RTVSPost2010PropOp48
 70
     1
102
RTVSPost2010Prop49
280
     0
102
RTVSPost2010PropOp49
 70
     1
102
RTVSPost2010Prop50
 90
       50
102
RTVSPost2010PropOp50
 70
     1
102
RTVSPost2010Prop51ColorIndex
 90
      256
102
RTVSPost2010Prop51ColorRGB
 90
-16777216
102
RTVSPost2010PropOp51
 70
     0
102
RTVSPost2010Prop52
140
1.0
102
RTVSPost2010PropOp52
 70
     0
102
RTVSPost2010Prop53
 90
        2
102
RTVSPost2010PropOp53
 70
     1
102
RTVSPost2010Prop54
  1
strokes_ogs.tif
102
RTVSPost2010PropOp54
 70
     1
102
RTVSPost2010Prop55
280
     0
102
RTVSPost2010PropOp55
 70
     1
102
RTVSPost2010Prop56
140
1.0
102
RTVSPost2010PropOp56
 70
     1
102
RTVSPost2010Prop57
140
1.0
102
RTVSPost2010PropOp57
 70
     1
102
RTVSPropertyOp0
 70
     1
102
RTVSPropertyOp1
 70
     1
102
RTVSPropertyOp2
 70
     1
102
RTVSPropertyOp3
 70
     1
102
RTVSPropertyOp4
 70
     1
102
RTVSPropertyOp5
 70
     1
102
RTVSPropertyOp6
 70
     1
102
RTVSPropertyOp7
 70
     1
102
RTVSPropertyOp8
 70
     1
102
RTVSPropertyOp9
 70
     1
102
RTVSPropertyOp10
 70
     1
102
RTVSPropertyOp11
 70
     1
102
RTVSPropertyOp12
 70
     1
102
RTVSPropertyOp13
 70
     1
102
RTVSPropertyOp14
 70
     1
102
RTVSPropertyOp15
 70
     1
102
RTVSPropertyOp16
 70
     1
102
RTVSPropertyOp17
 70
     1
102
RTVSPropertyOp18
 70
     1
102
RTVSPropertyOp19
 70
     1
102
RTVSPropertyOp20
 70
     1
102
RTVSPropertyOp21
 70
     1
102
RTVSPropertyOp22
 70
     1
102
RTVSPropertyOp23
 70
     1
102
RTVSPropertyOp24
 70
     1
102
RTVSPropertyOp25
 70
     1
102
RTVSPropertyOp26
 70
     1
102
RTVSPropertyOp27
 70
     1
102
RTVSPropertyOp28
 70
     1
102
RTVSPropertyOp29
 70
     1
102
RTVSPropertyOp30
 70
     1
102
RTVSPropertyOp31
 70
     1
102
RTVSPropertyOp32
 70
     1
102
RTVSPropertyOp33
 70
     1
102
RTVSPropertyOp34
 70
     1
102
RTVSPropertyOp35
 70
     1
102
RTVSPropertyOp36
 70
     1
102
RTVSPropertyOp37
 70
     1
102
RTVSPropertyOp38
 70
     1
102
RTVSPropertyOp39
 70
     1
102
RTVSPropertyOp40
 70
     1
102
RTVSPropertyOp41
 70
     1
102
RTVSPropertyOp42
 70
     1
102
RTVSPropertyOp43
 70
     1
102
RTVSPropertyOp44
 70
     1
102
RTVSPropertyOp45
 70
     1
102
RTVSPropertyOp46
 70
     1
102
RTVSPropertyOp47
 70
     1
102
RTVSPropertyOp48
 70
     1
102
RTVSPropertyOp49
 70
     1
102
RTVSPropertyOp50
 70
     1
102
RTVSPropertyOp51
 70
     0
102
RTVSPropertyOp52
 70
     0
102
RTVSPropertyOp53
 70
     1
102
RTVSPropertyOp54
 70
     1
102
RTVSPropertyOp55
 70
     1
102
RTVSPropertyOp56
 70
     1
102
RTVSPropertyOp57
 70
     1
102
RTVSPropertyOp58
 70
     1
102
RTVSPropertyOp59
 70
     1
102
RTVSPropertyOp60
 70
     1
102
RTVSPropertyOp61
 70
     1
102
RTVSPropertyOp62
 70
     1
  0
XRECORD
  5
222
102
{ACAD_REACTORS
330
221
102
}
330
221
100
AcDbXrecord
280
     1
102
RTVSPost2010Prop28
280
     0
102
RTVSPost2010PropOp28
 70
     1
102
RTVSPost2010Prop29
280
     1
102
RTVSPost2010PropOp29
 70
     1
102
RTVSPost2010Prop30
280
     1
102
RTVSPost2010PropOp30
 70
     1
102
RTVSPost2010Prop31
280
     0
102
RTVSPost2010PropOp31
 70
     1
102
RTVSPost2010Prop32
280
     0
102
RTVSPost2010PropOp32
 70
     1
102
RTVSPost2010Prop33
280
     0
102
RTVSPost2010PropOp33
 70
     1
102
RTVSPost2010Prop34
280
     0
102
RTVSPost2010PropOp34
 70
     1
102
RTVSPost2010Prop35
280
     0
102
RTVSPost2010PropOp35
 70
     1
102
RTVSPost2010Prop36
280
     0
102
RTVSPost2010PropOp36
 70
     1
102
RTVSPost2010Prop37
 90
       50
102
RTVSPost2010PropOp37
 70
     1
102
RTVSPost2010Prop38
140
0.0
102
RTVSPost2010PropOp38
 70
     1
102
RTVSPost2010Prop39
140
1.0
102
RTVSPost2010PropOp39
 70
     1
102
RTVSPost2010Prop40
 90
        0
102
RTVSPost2010PropOp40
 70
     1
102
RTVSPost2010Prop41ColorIndex
 90
       18
102
RTVSPost2010Prop41ColorRGB
 90
        0
102
RTVSPost2010PropOp41
 70
     1
102
RTVSPost2010Prop42
 90
       50
102
RTVSPost2010PropOp42
 70
     1
102
RTVSPost2010Prop43
 90
        3
102
RTVSPost2010PropOp43
 70
     1
102
RTVSPost2010Prop44ColorIndex
 90
        5
102
RTVSPost2010Prop44ColorRGB
 90
      255
102
RTVSPost2010PropOp44
 70
     1
102
RTVSPost2010Prop45
280
     0
102
RTVSPost2010PropOp45
 70
     1
102
RTVSPost2010Prop46
 90
       50
102
RTVSPost2010PropOp46
 70
     1
102
RTVSPost2010Prop47
 90
       50
102
RTVSPost2010PropOp47
 70
     1
102
RTVSPost2010Prop48
 90
       50
102
RTVSPost2010PropOp48
 70
     1
102
RTVSPost2010Prop49
280
     0
102
RTVSPost2010PropOp49
 70
     1
102
RTVSPost2010Prop50
 90
       50
102
RTVSPost2010PropOp50
 70
     1
102
RTVSPost2010Prop51ColorIndex
 90
      256
102
RTVSPost2010Prop51ColorRGB
 90
-16777216
102
RTVSPost2010PropOp51
 70
     0
102
RTVSPost2010Prop52
140
1.0
102
RTVSPost2010PropOp52
 70
     0
102
RTVSPost2010Prop53
 90
        2
102
RTVSPost2010PropOp53
 70
     1
102
RTVSPost2010Prop54
  1
strokes_ogs.tif
102
RTVSPost2010PropOp54
 70
     1
102
RTVSPost2010Prop55
280
     0
102
RTVSPost2010PropOp55
 70
     1
102
RTVSPost2010Prop56
140
1.0
102
RTVSPost2010PropOp56
 70
     1
102
RTVSPost2010Prop57
140
1.0
102
RTVSPost2010PropOp57
 70
     1
102
RTVSPropertyOp0
 70
     1
102
RTVSPropertyOp1
 70
     1
102
RTVSPropertyOp2
 70
     1
102
RTVSPropertyOp3
 70
     1
102
RTVSPropertyOp4
 70
     1
102
RTVSPropertyOp5
 70
     1
102
RTVSPropertyOp6
 70
     1
102
RTVSPropertyOp7
 70
     1
102
RTVSPropertyOp8
 70
     1
102
RTVSPropertyOp9
 70
     1
102
RTVSPropertyOp10
 70
     1
102
RTVSPropertyOp11
 70
     1
102
RTVSPropertyOp12
 70
     1
102
RTVSPropertyOp13
 70
     1
102
RTVSPropertyOp14
 70
     1
102
RTVSPropertyOp15
 70
     1
102
RTVSPropertyOp16
 70
     1
102
RTVSPropertyOp17
 70
     1
102
RTVSPropertyOp18
 70
     1
102
RTVSPropertyOp19
 70
     1
102
RTVSPropertyOp20
 70
     1
102
RTVSPropertyOp21
 70
     1
102
RTVSPropertyOp22
 70
     1
102
RTVSPropertyOp23
 70
     1
102
RTVSPropertyOp24
 70
     1
102
RTVSPropertyOp25
 70
     1
102
RTVSPropertyOp26
 70
     1
102
RTVSPropertyOp27
 70
     1
102
RTVSPropertyOp28
 70
     1
102
RTVSPropertyOp29
 70
     1
102
RTVSPropertyOp30
 70
     1
102
RTVSPropertyOp31
 70
     1
102
RTVSPropertyOp32
 70
     1
102
RTVSPropertyOp33
 70
     1
102
RTVSPropertyOp34
 70
     1
102
RTVSPropertyOp35
 70
     1
102
RTVSPropertyOp36
 70
     1
102
RTVSPropertyOp37
 70
     1
102
RTVSPropertyOp38
 70
     1
102
RTVSPropertyOp39
 70
     1
102
RTVSPropertyOp40
 70
     1
102
RTVSPropertyOp41
 70
     1
102
RTVSPropertyOp42
 70
     1
102
RTVSPropertyOp43
 70
     1
102
RTVSPropertyOp44
 70
     1
102
RTVSPropertyOp45
 70
     1
102
RTVSPropertyOp46
 70
     1
102
RTVSPropertyOp47
 70
     1
102
RTVSPropertyOp48
 70
     1
102
RTVSPropertyOp49
 70
     1
102
RTVSPropertyOp50
 70
     1
102
RTVSPropertyOp51
 70
     0
102
RTVSPropertyOp52
 70
     0
102
RTVSPropertyOp53
 70
     1
102
RTVSPropertyOp54
 70
     1
102
RTVSPropertyOp55
 70
     1
102
RTVSPropertyOp56
 70
     1
102
RTVSPropertyOp57
 70
     1
102
RTVSPropertyOp58
 70
     1
102
RTVSPropertyOp59
 70
     1
102
RTVSPropertyOp60
 70
     1
102
RTVSPropertyOp61
 70
     1
102
RTVSPropertyOp62
 70
     1
  0
XRECORD
  5
214
102
{ACAD_REACTORS
330
213
102
}
330
213
100
AcDbXrecord
280
     1
102
RTVSPost2010Prop28
280
     0
102
RTVSPost2010PropOp28
 70
     1
102
RTVSPost2010Prop29
280
     1
102
RTVSPost2010PropOp29
 70
     1
102
RTVSPost2010Prop30
280
     1
102
RTVSPost2010PropOp30
 70
     1
102
RTVSPost2010Prop31
280
     0
102
RTVSPost2010PropOp31
 70
     1
102
RTVSPost2010Prop32
280
     0
102
RTVSPost2010PropOp32
 70
     1
102
RTVSPost2010Prop33
280
     0
102
RTVSPost2010PropOp33
 70
     1
102
RTVSPost2010Prop34
280
     0
102
RTVSPost2010PropOp34
 70
     1
102
RTVSPost2010Prop35
280
     0
102
RTVSPost2010PropOp35
 70
     1
102
RTVSPost2010Prop36
280
     0
102
RTVSPost2010PropOp36
 70
     1
102
RTVSPost2010Prop37
 90
       50
102
RTVSPost2010PropOp37
 70
     1
102
RTVSPost2010Prop38
140
0.0
102
RTVSPost2010PropOp38
 70
     1
102
RTVSPost2010Prop39
140
1.0
102
RTVSPost2010PropOp39
 70
     1
102
RTVSPost2010Prop40
 90
        0
102
RTVSPost2010PropOp40
 70
     1
102
RTVSPost2010Prop41ColorIndex
 90
       18
102
RTVSPost2010Prop41ColorRGB
 90
        0
102
RTVSPost2010PropOp41
 70
     1
102
RTVSPost2010Prop42
 90
       50
102
RTVSPost2010PropOp42
 70
     1
102
RTVSPost2010Prop43
 90
        3
102
RTVSPost2010PropOp43
 70
     1
102
RTVSPost2010Prop44ColorIndex
 90
        5
102
RTVSPost2010Prop44ColorRGB
 90
      255
102
RTVSPost2010PropOp44
 70
     1
102
RTVSPost2010Prop45
280
     0
102
RTVSPost2010PropOp45
 70
     1
102
RTVSPost2010Prop46
 90
       50
102
RTVSPost2010PropOp46
 70
     1
102
RTVSPost2010Prop47
 90
       50
102
RTVSPost2010PropOp47
 70
     1
102
RTVSPost2010Prop48
 90
       50
102
RTVSPost2010PropOp48
 70
     1
102
RTVSPost2010Prop49
280
     0
102
RTVSPost2010PropOp49
 70
     1
102
RTVSPost2010Prop50
 90
       50
102
RTVSPost2010PropOp50
 70
     1
102
RTVSPost2010Prop51ColorIndex
 90
      256
102
RTVSPost2010Prop51ColorRGB
 90
-16777216
102
RTVSPost2010PropOp51
 70
     0
102
RTVSPost2010Prop52
140
1.0
102
RTVSPost2010PropOp52
 70
     0
102
RTVSPost2010Prop53
 90
        2
102
RTVSPost2010PropOp53
 70
     1
102
RTVSPost2010Prop54
  1
strokes_ogs.tif
102
RTVSPost2010PropOp54
 70
     1
102
RTVSPost2010Prop55
280
     0
102
RTVSPost2010PropOp55
 70
     1
102
RTVSPost2010Prop56
140
1.0
102
RTVSPost2010PropOp56
 70
     1
102
RTVSPost2010Prop57
140
1.0
102
RTVSPost2010PropOp57
 70
     1
102
RTVSPropertyOp0
 70
     1
102
RTVSPropertyOp1
 70
     1
102
RTVSPropertyOp2
 70
     1
102
RTVSPropertyOp3
 70
     1
102
RTVSPropertyOp4
 70
     1
102
RTVSPropertyOp5
 70
     1
102
RTVSPropertyOp6
 70
     1
102
RTVSPropertyOp7
 70
     1
102
RTVSPropertyOp8
 70
     1
102
RTVSPropertyOp9
 70
     1
102
RTVSPropertyOp10
 70
     1
102
RTVSPropertyOp11
 70
     1
102
RTVSPropertyOp12
 70
     1
102
RTVSPropertyOp13
 70
     1
102
RTVSPropertyOp14
 70
     1
102
RTVSPropertyOp15
 70
     1
102
RTVSPropertyOp16
 70
     1
102
RTVSPropertyOp17
 70
     1
102
RTVSPropertyOp18
 70
     1
102
RTVSPropertyOp19
 70
     1
102
RTVSPropertyOp20
 70
     1
102
RTVSPropertyOp21
 70
     1
102
RTVSPropertyOp22
 70
     1
102
RTVSPropertyOp23
 70
     1
102
RTVSPropertyOp24
 70
     1
102
RTVSPropertyOp25
 70
     1
102
RTVSPropertyOp26
 70
     1
102
RTVSPropertyOp27
 70
     1
102
RTVSPropertyOp28
 70
     1
102
RTVSPropertyOp29
 70
     1
102
RTVSPropertyOp30
 70
     1
102
RTVSPropertyOp31
 70
     1
102
RTVSPropertyOp32
 70
     1
102
RTVSPropertyOp33
 70
     1
102
RTVSPropertyOp34
 70
     1
102
RTVSPropertyOp35
 70
     1
102
RTVSPropertyOp36
 70
     1
102
RTVSPropertyOp37
 70
     1
102
RTVSPropertyOp38
 70
     1
102
RTVSPropertyOp39
 70
     1
102
RTVSPropertyOp40
 70
     1
102
RTVSPropertyOp41
 70
     1
102
RTVSPropertyOp42
 70
     1
102
RTVSPropertyOp43
 70
     1
102
RTVSPropertyOp44
 70
     1
102
RTVSPropertyOp45
 70
     1
102
RTVSPropertyOp46
 70
     1
102
RTVSPropertyOp47
 70
     1
102
RTVSPropertyOp48
 70
     1
102
RTVSPropertyOp49
 70
     1
102
RTVSPropertyOp50
 70
     1
102
RTVSPropertyOp51
 70
     0
102
RTVSPropertyOp52
 70
     0
102
RTVSPropertyOp53
 70
     1
102
RTVSPropertyOp54
 70
     1
102
RTVSPropertyOp55
 70
     1
102
RTVSPropertyOp56
 70
     1
102
RTVSPropertyOp57
 70
     1
102
RTVSPropertyOp58
 70
     1
102
RTVSPropertyOp59
 70
     1
102
RTVSPropertyOp60
 70
     1
102
RTVSPropertyOp61
 70
     1
102
RTVSPropertyOp62
 70
     1
  0
XRECORD
  5
218
102
{ACAD_REACTORS
330
217
102
}
330
217
100
AcDbXrecord
280
     1
102
RTVSPost2010Prop28
280
     0
102
RTVSPost2010PropOp28
 70
     1
102
RTVSPost2010Prop29
280
     1
102
RTVSPost2010PropOp29
 70
     1
102
RTVSPost2010Prop30
280
     1
102
RTVSPost2010PropOp30
 70
     1
102
RTVSPost2010Prop31
280
     0
102
RTVSPost2010PropOp31
 70
     1
102
RTVSPost2010Prop32
280
     0
102
RTVSPost2010PropOp32
 70
     1
102
RTVSPost2010Prop33
280
     0
102
RTVSPost2010PropOp33
 70
     1
102
RTVSPost2010Prop34
280
     0
102
RTVSPost2010PropOp34
 70
     1
102
RTVSPost2010Prop35
280
     0
102
RTVSPost2010PropOp35
 70
     1
102
RTVSPost2010Prop36
280
     0
102
RTVSPost2010PropOp36
 70
     1
102
RTVSPost2010Prop37
 90
       50
102
RTVSPost2010PropOp37
 70
     1
102
RTVSPost2010Prop38
140
0.0
102
RTVSPost2010PropOp38
 70
     1
102
RTVSPost2010Prop39
140
1.0
102
RTVSPost2010PropOp39
 70
     1
102
RTVSPost2010Prop40
 90
        0
102
RTVSPost2010PropOp40
 70
     1
102
RTVSPost2010Prop41ColorIndex
 90
       18
102
RTVSPost2010Prop41ColorRGB
 90
        0
102
RTVSPost2010PropOp41
 70
     1
102
RTVSPost2010Prop42
 90
       50
102
RTVSPost2010PropOp42
 70
     1
102
RTVSPost2010Prop43
 90
        3
102
RTVSPost2010PropOp43
 70
     1
102
RTVSPost2010Prop44ColorIndex
 90
        5
102
RTVSPost2010Prop44ColorRGB
 90
      255
102
RTVSPost2010PropOp44
 70
     1
102
RTVSPost2010Prop45
280
     0
102
RTVSPost2010PropOp45
 70
     1
102
RTVSPost2010Prop46
 90
       50
102
RTVSPost2010PropOp46
 70
     1
102
RTVSPost2010Prop47
 90
       50
102
RTVSPost2010PropOp47
 70
     1
102
RTVSPost2010Prop48
 90
       50
102
RTVSPost2010PropOp48
 70
     1
102
RTVSPost2010Prop49
280
     0
102
RTVSPost2010PropOp49
 70
     1
102
RTVSPost2010Prop50
 90
       50
102
RTVSPost2010PropOp50
 70
     1
102
RTVSPost2010Prop51ColorIndex
 90
      256
102
RTVSPost2010Prop51ColorRGB
 90
-16777216
102
RTVSPost2010PropOp51
 70
     0
102
RTVSPost2010Prop52
140
1.0
102
RTVSPost2010PropOp52
 70
     0
102
RTVSPost2010Prop53
 90
        2
102
RTVSPost2010PropOp53
 70
     1
102
RTVSPost2010Prop54
  1
strokes_ogs.tif
102
RTVSPost2010PropOp54
 70
     1
102
RTVSPost2010Prop55
280
     0
102
RTVSPost2010PropOp55
 70
     1
102
RTVSPost2010Prop56
140
1.0
102
RTVSPost2010PropOp56
 70
     1
102
RTVSPost2010Prop57
140
1.0
102
RTVSPost2010PropOp57
 70
     1
102
RTVSPropertyOp0
 70
     1
102
RTVSPropertyOp1
 70
     1
102
RTVSPropertyOp2
 70
     1
102
RTVSPropertyOp3
 70
     1
102
RTVSPropertyOp4
 70
     1
102
RTVSPropertyOp5
 70
     1
102
RTVSPropertyOp6
 70
     1
102
RTVSPropertyOp7
 70
     1
102
RTVSPropertyOp8
 70
     1
102
RTVSPropertyOp9
 70
     1
102
RTVSPropertyOp10
 70
     1
102
RTVSPropertyOp11
 70
     1
102
RTVSPropertyOp12
 70
     1
102
RTVSPropertyOp13
 70
     1
102
RTVSPropertyOp14
 70
     1
102
RTVSPropertyOp15
 70
     1
102
RTVSPropertyOp16
 70
     1
102
RTVSPropertyOp17
 70
     1
102
RTVSPropertyOp18
 70
     1
102
RTVSPropertyOp19
 70
     1
102
RTVSPropertyOp20
 70
     1
102
RTVSPropertyOp21
 70
     1
102
RTVSPropertyOp22
 70
     1
102
RTVSPropertyOp23
 70
     1
102
RTVSPropertyOp24
 70
     1
102
RTVSPropertyOp25
 70
     1
102
RTVSPropertyOp26
 70
     1
102
RTVSPropertyOp27
 70
     1
102
RTVSPropertyOp28
 70
     1
102
RTVSPropertyOp29
 70
     1
102
RTVSPropertyOp30
 70
     1
102
RTVSPropertyOp31
 70
     1
102
RTVSPropertyOp32
 70
     1
102
RTVSPropertyOp33
 70
     1
102
RTVSPropertyOp34
 70
     1
102
RTVSPropertyOp35
 70
     1
102
RTVSPropertyOp36
 70
     1
102
RTVSPropertyOp37
 70
     1
102
RTVSPropertyOp38
 70
     1
102
RTVSPropertyOp39
 70
     1
102
RTVSPropertyOp40
 70
     1
102
RTVSPropertyOp41
 70
     1
102
RTVSPropertyOp42
 70
     1
102
RTVSPropertyOp43
 70
     1
102
RTVSPropertyOp44
 70
     1
102
RTVSPropertyOp45
 70
     1
102
RTVSPropertyOp46
 70
     1
102
RTVSPropertyOp47
 70
     1
102
RTVSPropertyOp48
 70
     1
102
RTVSPropertyOp49
 70
     1
102
RTVSPropertyOp50
 70
     1
102
RTVSPropertyOp51
 70
     0
102
RTVSPropertyOp52
 70
     0
102
RTVSPropertyOp53
 70
     1
102
RTVSPropertyOp54
 70
     1
102
RTVSPropertyOp55
 70
     1
102
RTVSPropertyOp56
 70
     1
102
RTVSPropertyOp57
 70
     1
102
RTVSPropertyOp58
 70
     1
102
RTVSPropertyOp59
 70
     1
102
RTVSPropertyOp60
 70
     1
102
RTVSPropertyOp61
 70
     1
102
RTVSPropertyOp62
 70
     1
  0
XRECORD
  5
232
102
{ACAD_REACTORS
330
231
102
}
330
231
100
AcDbXrecord
280
     1
102
RTVSPost2010Prop28
280
     0
102
RTVSPost2010PropOp28
 70
     0
102
RTVSPost2010Prop29
280
     1
102
RTVSPost2010PropOp29
 70
     0
102
RTVSPost2010Prop30
280
     1
102
RTVSPost2010PropOp30
 70
     0
102
RTVSPost2010Prop31
280
     0
102
RTVSPost2010PropOp31
 70
     0
102
RTVSPost2010Prop32
280
     0
102
RTVSPost2010PropOp32
 70
     0
102
RTVSPost2010Prop33
280
     0
102
RTVSPost2010PropOp33
 70
     0
102
RTVSPost2010Prop34
280
     0
102
RTVSPost2010PropOp34
 70
     0
102
RTVSPost2010Prop35
280
     0
102
RTVSPost2010PropOp35
 70
     0
102
RTVSPost2010Prop36
280
     0
102
RTVSPost2010PropOp36
 70
     0
102
RTVSPost2010Prop37
 90
       50
102
RTVSPost2010PropOp37
 70
     0
102
RTVSPost2010Prop38
140
0.0
102
RTVSPost2010PropOp38
 70
     0
102
RTVSPost2010Prop39
140
1.0
102
RTVSPost2010PropOp39
 70
     0
102
RTVSPost2010Prop40
 90
        0
102
RTVSPost2010PropOp40
 70
     0
102
RTVSPost2010Prop41ColorIndex
 90
       18
102
RTVSPost2010Prop41ColorRGB
 90
        0
102
RTVSPost2010PropOp41
 70
     0
102
RTVSPost2010Prop42
 90
       50
102
RTVSPost2010PropOp42
 70
     0
102
RTVSPost2010Prop43
 90
        3
102
RTVSPost2010PropOp43
 70
     0
102
RTVSPost2010Prop44ColorIndex
 90
        5
102
RTVSPost2010Prop44ColorRGB
 90
      255
102
RTVSPost2010PropOp44
 70
     0
102
RTVSPost2010Prop45
280
     0
102
RTVSPost2010PropOp45
 70
     0
102
RTVSPost2010Prop46
 90
       50
102
RTVSPost2010PropOp46
 70
     0
102
RTVSPost2010Prop47
 90
       50
102
RTVSPost2010PropOp47
 70
     0
102
RTVSPost2010Prop48
 90
       50
102
RTVSPost2010PropOp48
 70
     0
102
RTVSPost2010Prop49
280
     0
102
RTVSPost2010PropOp49
 70
     0
102
RTVSPost2010Prop50
 90
       50
102
RTVSPost2010PropOp50
 70
     0
102
RTVSPost2010Prop51ColorIndex
 90
      256
102
RTVSPost2010Prop51ColorRGB
 90
-16777216
102
RTVSPost2010PropOp51
 70
     0
102
RTVSPost2010Prop52
140
1.0
102
RTVSPost2010PropOp52
 70
     0
102
RTVSPost2010Prop53
 90
        2
102
RTVSPost2010PropOp53
 70
     0
102
RTVSPost2010Prop54
  1
strokes_ogs.tif
102
RTVSPost2010PropOp54
 70
     0
102
RTVSPost2010Prop55
280
     0
102
RTVSPost2010PropOp55
 70
     0
102
RTVSPost2010Prop56
140
1.0
102
RTVSPost2010PropOp56
 70
     0
102
RTVSPost2010Prop57
140
1.0
102
RTVSPost2010PropOp57
 70
     0
102
RTVSPropertyOp0
 70
     0
102
RTVSPropertyOp1
 70
     0
102
RTVSPropertyOp2
 70
     0
102
RTVSPropertyOp3
 70
     0
102
RTVSPropertyOp4
 70
     0
102
RTVSPropertyOp5
 70
     0
102
RTVSPropertyOp6
 70
     0
102
RTVSPropertyOp7
 70
     0
102
RTVSPropertyOp8
 70
     0
102
RTVSPropertyOp9
 70
     0
102
RTVSPropertyOp10
 70
     0
102
RTVSPropertyOp11
 70
     0
102
RTVSPropertyOp12
 70
     0
102
RTVSPropertyOp13
 70
     0
102
RTVSPropertyOp14
 70
     2
102
RTVSPropertyOp15
 70
     0
102
RTVSPropertyOp16
 70
     0
102
RTVSPropertyOp17
 70
     0
102
RTVSPropertyOp18
 70
     0
102
RTVSPropertyOp19
 70
     0
102
RTVSPropertyOp20
 70
     0
102
RTVSPropertyOp21
 70
     0
102
RTVSPropertyOp22
 70
     0
102
RTVSPropertyOp23
 70
     0
102
RTVSPropertyOp24
 70
     0
102
RTVSPropertyOp25
 70
     0
102
RTVSPropertyOp26
 70
     0
102
RTVSPropertyOp27
 70
     0
102
RTVSPropertyOp28
 70
     0
102
RTVSPropertyOp29
 70
     0
102
RTVSPropertyOp30
 70
     0
102
RTVSPropertyOp31
 70
     0
102
RTVSPropertyOp32
 70
     0
102
RTVSPropertyOp33
 70
     0
102
RTVSPropertyOp34
 70
     0
102
RTVSPropertyOp35
 70
     0
102
RTVSPropertyOp36
 70
     0
102
RTVSPropertyOp37
 70
     0
102
RTVSPropertyOp38
 70
     0
102
RTVSPropertyOp39
 70
     0
102
RTVSPropertyOp40
 70
     0
102
RTVSPropertyOp41
 70
     0
102
RTVSPropertyOp42
 70
     0
102
RTVSPropertyOp43
 70
     0
102
RTVSPropertyOp44
 70
     0
102
RTVSPropertyOp45
 70
     0
102
RTVSPropertyOp46
 70
     0
102
RTVSPropertyOp47
 70
     0
102
RTVSPropertyOp48
 70
     0
102
RTVSPropertyOp49
 70
     0
102
RTVSPropertyOp50
 70
     0
102
RTVSPropertyOp51
 70
     0
102
RTVSPropertyOp52
 70
     0
102
RTVSPropertyOp53
 70
     0
102
RTVSPropertyOp54
 70
     0
102
RTVSPropertyOp55
 70
     0
102
RTVSPropertyOp56
 70
     0
102
RTVSPropertyOp57
 70
     0
102
RTVSPropertyOp58
 70
     1
102
RTVSPropertyOp59
 70
     1
102
RTVSPropertyOp60
 70
     1
102
RTVSPropertyOp61
 70
     1
102
RTVSPropertyOp62
 70
     1
  0
XRECORD
  5
220
102
{ACAD_REACTORS
330
21F
102
}
330
21F
100
AcDbXrecord
280
     1
102
RTVSPost2010Prop28
280
     0
102
RTVSPost2010PropOp28
 70
     1
102
RTVSPost2010Prop29
280
     1
102
RTVSPost2010PropOp29
 70
     1
102
RTVSPost2010Prop30
280
     1
102
RTVSPost2010PropOp30
 70
     1
102
RTVSPost2010Prop31
280
     0
102
RTVSPost2010PropOp31
 70
     1
102
RTVSPost2010Prop32
280
     0
102
RTVSPost2010PropOp32
 70
     1
102
RTVSPost2010Prop33
280
     0
102
RTVSPost2010PropOp33
 70
     1
102
RTVSPost2010Prop34
280
     0
102
RTVSPost2010PropOp34
 70
     1
102
RTVSPost2010Prop35
280
     0
102
RTVSPost2010PropOp35
 70
     1
102
RTVSPost2010Prop36
280
     0
102
RTVSPost2010PropOp36
 70
     1
102
RTVSPost2010Prop37
 90
       50
102
RTVSPost2010PropOp37
 70
     1
102
RTVSPost2010Prop38
140
0.0
102
RTVSPost2010PropOp38
 70
     1
102
RTVSPost2010Prop39
140
1.0
102
RTVSPost2010PropOp39
 70
     1
102
RTVSPost2010Prop40
 90
        0
102
RTVSPost2010PropOp40
 70
     1
102
RTVSPost2010Prop41ColorIndex
 90
       18
102
RTVSPost2010Prop41ColorRGB
 90
        0
102
RTVSPost2010PropOp41
 70
     1
102
RTVSPost2010Prop42
 90
       50
102
RTVSPost2010PropOp42
 70
     1
102
RTVSPost2010Prop43
 90
        3
102
RTVSPost2010PropOp43
 70
     1
102
RTVSPost2010Prop44ColorIndex
 90
        5
102
RTVSPost2010Prop44ColorRGB
 90
      255
102
RTVSPost2010PropOp44
 70
     1
102
RTVSPost2010Prop45
280
     0
102
RTVSPost2010PropOp45
 70
     1
102
RTVSPost2010Prop46
 90
       50
102
RTVSPost2010PropOp46
 70
     1
102
RTVSPost2010Prop47
 90
       50
102
RTVSPost2010PropOp47
 70
     1
102
RTVSPost2010Prop48
 90
       50
102
RTVSPost2010PropOp48
 70
     1
102
RTVSPost2010Prop49
280
     0
102
RTVSPost2010PropOp49
 70
     1
102
RTVSPost2010Prop50
 90
       50
102
RTVSPost2010PropOp50
 70
     1
102
RTVSPost2010Prop51ColorIndex
 90
      256
102
RTVSPost2010Prop51ColorRGB
 90
-16777216
102
RTVSPost2010PropOp51
 70
     0
102
RTVSPost2010Prop52
140
1.0
102
RTVSPost2010PropOp52
 70
     0
102
RTVSPost2010Prop53
 90
        2
102
RTVSPost2010PropOp53
 70
     1
102
RTVSPost2010Prop54
  1
strokes_ogs.tif
102
RTVSPost2010PropOp54
 70
     1
102
RTVSPost2010Prop55
280
     0
102
RTVSPost2010PropOp55
 70
     1
102
RTVSPost2010Prop56
140
1.0
102
RTVSPost2010PropOp56
 70
     1
102
RTVSPost2010Prop57
140
1.0
102
RTVSPost2010PropOp57
 70
     1
102
RTVSPropertyOp0
 70
     1
102
RTVSPropertyOp1
 70
     1
102
RTVSPropertyOp2
 70
     1
102
RTVSPropertyOp3
 70
     1
102
RTVSPropertyOp4
 70
     1
102
RTVSPropertyOp5
 70
     1
102
RTVSPropertyOp6
 70
     1
102
RTVSPropertyOp7
 70
     1
102
RTVSPropertyOp8
 70
     1
102
RTVSPropertyOp9
 70
     1
102
RTVSPropertyOp10
 70
     1
102
RTVSPropertyOp11
 70
     1
102
RTVSPropertyOp12
 70
     1
102
RTVSPropertyOp13
 70
     1
102
RTVSPropertyOp14
 70
     1
102
RTVSPropertyOp15
 70
     1
102
RTVSPropertyOp16
 70
     1
102
RTVSPropertyOp17
 70
     1
102
RTVSPropertyOp18
 70
     1
102
RTVSPropertyOp19
 70
     1
102
RTVSPropertyOp20
 70
     1
102
RTVSPropertyOp21
 70
     1
102
RTVSPropertyOp22
 70
     1
102
RTVSPropertyOp23
 70
     1
102
RTVSPropertyOp24
 70
     1
102
RTVSPropertyOp25
 70
     1
102
RTVSPropertyOp26
 70
     1
102
RTVSPropertyOp27
 70
     1
102
RTVSPropertyOp28
 70
     1
102
RTVSPropertyOp29
 70
     1
102
RTVSPropertyOp30
 70
     1
102
RTVSPropertyOp31
 70
     1
102
RTVSPropertyOp32
 70
     1
102
RTVSPropertyOp33
 70
     1
102
RTVSPropertyOp34
 70
     1
102
RTVSPropertyOp35
 70
     1
102
RTVSPropertyOp36
 70
     1
102
RTVSPropertyOp37
 70
     1
102
RTVSPropertyOp38
 70
     1
102
RTVSPropertyOp39
 70
     1
102
RTVSPropertyOp40
 70
     1
102
RTVSPropertyOp41
 70
     1
102
RTVSPropertyOp42
 70
     1
102
RTVSPropertyOp43
 70
     1
102
RTVSPropertyOp44
 70
     1
102
RTVSPropertyOp45
 70
     1
102
RTVSPropertyOp46
 70
     1
102
RTVSPropertyOp47
 70
     1
102
RTVSPropertyOp48
 70
     1
102
RTVSPropertyOp49
 70
     1
102
RTVSPropertyOp50
 70
     1
102
RTVSPropertyOp51
 70
     0
102
RTVSPropertyOp52
 70
     0
102
RTVSPropertyOp53
 70
     1
102
RTVSPropertyOp54
 70
     1
102
RTVSPropertyOp55
 70
     1
102
RTVSPropertyOp56
 70
     1
102
RTVSPropertyOp57
 70
     1
102
RTVSPropertyOp58
 70
     1
102
RTVSPropertyOp59
 70
     1
102
RTVSPropertyOp60
 70
     1
102
RTVSPropertyOp61
 70
     1
102
RTVSPropertyOp62
 70
     1
  0
XRECORD
  5
204
102
{ACAD_REACTORS
330
203
102
}
330
203
100
AcDbXrecord
280
     1
102
RTVSPost2010Prop28
280
     0
102
RTVSPost2010PropOp28
 70
     1
102
RTVSPost2010Prop29
280
     1
102
RTVSPost2010PropOp29
 70
     1
102
RTVSPost2010Prop30
280
     1
102
RTVSPost2010PropOp30
 70
     1
102
RTVSPost2010Prop31
280
     0
102
RTVSPost2010PropOp31
 70
     1
102
RTVSPost2010Prop32
280
     0
102
RTVSPost2010PropOp32
 70
     1
102
RTVSPost2010Prop33
280
     0
102
RTVSPost2010PropOp33
 70
     1
102
RTVSPost2010Prop34
280
     0
102
RTVSPost2010PropOp34
 70
     1
102
RTVSPost2010Prop35
280
     0
102
RTVSPost2010PropOp35
 70
     1
102
RTVSPost2010Prop36
280
     0
102
RTVSPost2010PropOp36
 70
     1
102
RTVSPost2010Prop37
 90
       50
102
RTVSPost2010PropOp37
 70
     1
102
RTVSPost2010Prop38
140
0.0
102
RTVSPost2010PropOp38
 70
     1
102
RTVSPost2010Prop39
140
1.0
102
RTVSPost2010PropOp39
 70
     1
102
RTVSPost2010Prop40
 90
        0
102
RTVSPost2010PropOp40
 70
     1
102
RTVSPost2010Prop41ColorIndex
 90
       18
102
RTVSPost2010Prop41ColorRGB
 90
        0
102
RTVSPost2010PropOp41
 70
     1
102
RTVSPost2010Prop42
 90
       50
102
RTVSPost2010PropOp42
 70
     1
102
RTVSPost2010Prop43
 90
        3
102
RTVSPost2010PropOp43
 70
     1
102
RTVSPost2010Prop44ColorIndex
 90
        5
102
RTVSPost2010Prop44ColorRGB
 90
      255
102
RTVSPost2010PropOp44
 70
     1
102
RTVSPost2010Prop45
280
     0
102
RTVSPost2010PropOp45
 70
     1
102
RTVSPost2010Prop46
 90
       50
102
RTVSPost2010PropOp46
 70
     1
102
RTVSPost2010Prop47
 90
       50
102
RTVSPost2010PropOp47
 70
     1
102
RTVSPost2010Prop48
 90
       50
102
RTVSPost2010PropOp48
 70
     1
102
RTVSPost2010Prop49
280
     0
102
RTVSPost2010PropOp49
 70
     1
102
RTVSPost2010Prop50
 90
       50
102
RTVSPost2010PropOp50
 70
     1
102
RTVSPost2010Prop51ColorIndex
 90
      256
102
RTVSPost2010Prop51ColorRGB
 90
-16777216
102
RTVSPost2010PropOp51
 70
     0
102
RTVSPost2010Prop52
140
1.0
102
RTVSPost2010PropOp52
 70
     0
102
RTVSPost2010Prop53
 90
        2
102
RTVSPost2010PropOp53
 70
     1
102
RTVSPost2010Prop54
  1
strokes_ogs.tif
102
RTVSPost2010PropOp54
 70
     1
102
RTVSPost2010Prop55
280
     0
102
RTVSPost2010PropOp55
 70
     1
102
RTVSPost2010Prop56
140
1.0
102
RTVSPost2010PropOp56
 70
     1
102
RTVSPost2010Prop57
140
1.0
102
RTVSPost2010PropOp57
 70
     1
102
RTVSPropertyOp0
 70
     1
102
RTVSPropertyOp1
 70
     1
102
RTVSPropertyOp2
 70
     1
102
RTVSPropertyOp3
 70
     1
102
RTVSPropertyOp4
 70
     1
102
RTVSPropertyOp5
 70
     1
102
RTVSPropertyOp6
 70
     1
102
RTVSPropertyOp7
 70
     1
102
RTVSPropertyOp8
 70
     1
102
RTVSPropertyOp9
 70
     1
102
RTVSPropertyOp10
 70
     1
102
RTVSPropertyOp11
 70
     1
102
RTVSPropertyOp12
 70
     1
102
RTVSPropertyOp13
 70
     1
102
RTVSPropertyOp14
 70
     1
102
RTVSPropertyOp15
 70
     1
102
RTVSPropertyOp16
 70
     1
102
RTVSPropertyOp17
 70
     1
102
RTVSPropertyOp18
 70
     1
102
RTVSPropertyOp19
 70
     1
102
RTVSPropertyOp20
 70
     1
102
RTVSPropertyOp21
 70
     1
102
RTVSPropertyOp22
 70
     1
102
RTVSPropertyOp23
 70
     1
102
RTVSPropertyOp24
 70
     1
102
RTVSPropertyOp25
 70
     1
102
RTVSPropertyOp26
 70
     1
102
RTVSPropertyOp27
 70
     1
102
RTVSPropertyOp28
 70
     1
102
RTVSPropertyOp29
 70
     1
102
RTVSPropertyOp30
 70
     1
102
RTVSPropertyOp31
 70
     1
102
RTVSPropertyOp32
 70
     1
102
RTVSPropertyOp33
 70
     1
102
RTVSPropertyOp34
 70
     1
102
RTVSPropertyOp35
 70
     1
102
RTVSPropertyOp36
 70
     1
102
RTVSPropertyOp37
 70
     1
102
RTVSPropertyOp38
 70
     1
102
RTVSPropertyOp39
 70
     1
102
RTVSPropertyOp40
 70
     1
102
RTVSPropertyOp41
 70
     1
102
RTVSPropertyOp42
 70
     1
102
RTVSPropertyOp43
 70
     1
102
RTVSPropertyOp44
 70
     1
102
RTVSPropertyOp45
 70
     1
102
RTVSPropertyOp46
 70
     1
102
RTVSPropertyOp47
 70
     1
102
RTVSPropertyOp48
 70
     1
102
RTVSPropertyOp49
 70
     1
102
RTVSPropertyOp50
 70
     1
102
RTVSPropertyOp51
 70
     0
102
RTVSPropertyOp52
 70
     0
102
RTVSPropertyOp53
 70
     1
102
RTVSPropertyOp54
 70
     1
102
RTVSPropertyOp55
 70
     1
102
RTVSPropertyOp56
 70
     1
102
RTVSPropertyOp57
 70
     1
102
RTVSPropertyOp58
 70
     1
102
RTVSPropertyOp59
 70
     1
102
RTVSPropertyOp60
 70
     1
102
RTVSPropertyOp61
 70
     1
102
RTVSPropertyOp62
 70
     1
  0
XRECORD
  5
206
102
{ACAD_REACTORS
330
205
102
}
330
205
100
AcDbXrecord
280
     1
102
RTVSPost2010Prop28
280
     0
102
RTVSPost2010PropOp28
 70
     1
102
RTVSPost2010Prop29
280
     1
102
RTVSPost2010PropOp29
 70
     1
102
RTVSPost2010Prop30
280
     1
102
RTVSPost2010PropOp30
 70
     1
102
RTVSPost2010Prop31
280
     0
102
RTVSPost2010PropOp31
 70
     1
102
RTVSPost2010Prop32
280
     0
102
RTVSPost2010PropOp32
 70
     1
102
RTVSPost2010Prop33
280
     0
102
RTVSPost2010PropOp33
 70
     1
102
RTVSPost2010Prop34
280
     0
102
RTVSPost2010PropOp34
 70
     1
102
RTVSPost2010Prop35
280
     0
102
RTVSPost2010PropOp35
 70
     1
102
RTVSPost2010Prop36
280
     0
102
RTVSPost2010PropOp36
 70
     1
102
RTVSPost2010Prop37
 90
       50
102
RTVSPost2010PropOp37
 70
     1
102
RTVSPost2010Prop38
140
0.0
102
RTVSPost2010PropOp38
 70
     1
102
RTVSPost2010Prop39
140
1.0
102
RTVSPost2010PropOp39
 70
     1
102
RTVSPost2010Prop40
 90
        0
102
RTVSPost2010PropOp40
 70
     1
102
RTVSPost2010Prop41ColorIndex
 90
       18
102
RTVSPost2010Prop41ColorRGB
 90
        0
102
RTVSPost2010PropOp41
 70
     1
102
RTVSPost2010Prop42
 90
       50
102
RTVSPost2010PropOp42
 70
     1
102
RTVSPost2010Prop43
 90
        3
102
RTVSPost2010PropOp43
 70
     1
102
RTVSPost2010Prop44ColorIndex
 90
        5
102
RTVSPost2010Prop44ColorRGB
 90
      255
102
RTVSPost2010PropOp44
 70
     1
102
RTVSPost2010Prop45
280
     0
102
RTVSPost2010PropOp45
 70
     1
102
RTVSPost2010Prop46
 90
       50
102
RTVSPost2010PropOp46
 70
     1
102
RTVSPost2010Prop47
 90
       50
102
RTVSPost2010PropOp47
 70
     1
102
RTVSPost2010Prop48
 90
       50
102
RTVSPost2010PropOp48
 70
     1
102
RTVSPost2010Prop49
280
     0
102
RTVSPost2010PropOp49
 70
     1
102
RTVSPost2010Prop50
 90
       50
102
RTVSPost2010PropOp50
 70
     1
102
RTVSPost2010Prop51ColorIndex
 90
      256
102
RTVSPost2010Prop51ColorRGB
 90
-16777216
102
RTVSPost2010PropOp51
 70
     0
102
RTVSPost2010Prop52
140
1.0
102
RTVSPost2010PropOp52
 70
     0
102
RTVSPost2010Prop53
 90
        2
102
RTVSPost2010PropOp53
 70
     1
102
RTVSPost2010Prop54
  1
strokes_ogs.tif
102
RTVSPost2010PropOp54
 70
     1
102
RTVSPost2010Prop55
280
     0
102
RTVSPost2010PropOp55
 70
     1
102
RTVSPost2010Prop56
140
1.0
102
RTVSPost2010PropOp56
 70
     1
102
RTVSPost2010Prop57
140
1.0
102
RTVSPost2010PropOp57
 70
     1
102
RTVSPropertyOp0
 70
     1
102
RTVSPropertyOp1
 70
     1
102
RTVSPropertyOp2
 70
     1
102
RTVSPropertyOp3
 70
     1
102
RTVSPropertyOp4
 70
     1
102
RTVSPropertyOp5
 70
     1
102
RTVSPropertyOp6
 70
     1
102
RTVSPropertyOp7
 70
     1
102
RTVSPropertyOp8
 70
     1
102
RTVSPropertyOp9
 70
     1
102
RTVSPropertyOp10
 70
     1
102
RTVSPropertyOp11
 70
     1
102
RTVSPropertyOp12
 70
     1
102
RTVSPropertyOp13
 70
     1
102
RTVSPropertyOp14
 70
     1
102
RTVSPropertyOp15
 70
     1
102
RTVSPropertyOp16
 70
     1
102
RTVSPropertyOp17
 70
     1
102
RTVSPropertyOp18
 70
     1
102
RTVSPropertyOp19
 70
     1
102
RTVSPropertyOp20
 70
     1
102
RTVSPropertyOp21
 70
     1
102
RTVSPropertyOp22
 70
     1
102
RTVSPropertyOp23
 70
     1
102
RTVSPropertyOp24
 70
     1
102
RTVSPropertyOp25
 70
     1
102
RTVSPropertyOp26
 70
     1
102
RTVSPropertyOp27
 70
     1
102
RTVSPropertyOp28
 70
     1
102
RTVSPropertyOp29
 70
     1
102
RTVSPropertyOp30
 70
     1
102
RTVSPropertyOp31
 70
     1
102
RTVSPropertyOp32
 70
     1
102
RTVSPropertyOp33
 70
     1
102
RTVSPropertyOp34
 70
     1
102
RTVSPropertyOp35
 70
     1
102
RTVSPropertyOp36
 70
     1
102
RTVSPropertyOp37
 70
     1
102
RTVSPropertyOp38
 70
     1
102
RTVSPropertyOp39
 70
     1
102
RTVSPropertyOp40
 70
     1
102
RTVSPropertyOp41
 70
     1
102
RTVSPropertyOp42
 70
     1
102
RTVSPropertyOp43
 70
     1
102
RTVSPropertyOp44
 70
     1
102
RTVSPropertyOp45
 70
     1
102
RTVSPropertyOp46
 70
     1
102
RTVSPropertyOp47
 70
     1
102
RTVSPropertyOp48
 70
     1
102
RTVSPropertyOp49
 70
     1
102
RTVSPropertyOp50
 70
     1
102
RTVSPropertyOp51
 70
     0
102
RTVSPropertyOp52
 70
     0
102
RTVSPropertyOp53
 70
     1
102
RTVSPropertyOp54
 70
     1
102
RTVSPropertyOp55
 70
     1
102
RTVSPropertyOp56
 70
     1
102
RTVSPropertyOp57
 70
     1
102
RTVSPropertyOp58
 70
     1
102
RTVSPropertyOp59
 70
     1
102
RTVSPropertyOp60
 70
     1
102
RTVSPropertyOp61
 70
     1
102
RTVSPropertyOp62
 70
     1
  0
XRECORD
  5
208
102
{ACAD_REACTORS
330
207
102
}
330
207
100
AcDbXrecord
280
     1
102
RTVSPost2010Prop28
280
     0
102
RTVSPost2010PropOp28
 70
     1
102
RTVSPost2010Prop29
280
     1
102
RTVSPost2010PropOp29
 70
     1
102
RTVSPost2010Prop30
280
     1
102
RTVSPost2010PropOp30
 70
     1
102
RTVSPost2010Prop31
280
     0
102
RTVSPost2010PropOp31
 70
     1
102
RTVSPost2010Prop32
280
     0
102
RTVSPost2010PropOp32
 70
     1
102
RTVSPost2010Prop33
280
     0
102
RTVSPost2010PropOp33
 70
     1
102
RTVSPost2010Prop34
280
     0
102
RTVSPost2010PropOp34
 70
     1
102
RTVSPost2010Prop35
280
     0
102
RTVSPost2010PropOp35
 70
     1
102
RTVSPost2010Prop36
280
     0
102
RTVSPost2010PropOp36
 70
     1
102
RTVSPost2010Prop37
 90
       50
102
RTVSPost2010PropOp37
 70
     1
102
RTVSPost2010Prop38
140
0.0
102
RTVSPost2010PropOp38
 70
     1
102
RTVSPost2010Prop39
140
1.0
102
RTVSPost2010PropOp39
 70
     1
102
RTVSPost2010Prop40
 90
        0
102
RTVSPost2010PropOp40
 70
     1
102
RTVSPost2010Prop41ColorIndex
 90
       18
102
RTVSPost2010Prop41ColorRGB
 90
        0
102
RTVSPost2010PropOp41
 70
     1
102
RTVSPost2010Prop42
 90
       50
102
RTVSPost2010PropOp42
 70
     1
102
RTVSPost2010Prop43
 90
        3
102
RTVSPost2010PropOp43
 70
     1
102
RTVSPost2010Prop44ColorIndex
 90
        5
102
RTVSPost2010Prop44ColorRGB
 90
      255
102
RTVSPost2010PropOp44
 70
     1
102
RTVSPost2010Prop45
280
     0
102
RTVSPost2010PropOp45
 70
     1
102
RTVSPost2010Prop46
 90
       50
102
RTVSPost2010PropOp46
 70
     1
102
RTVSPost2010Prop47
 90
       50
102
RTVSPost2010PropOp47
 70
     1
102
RTVSPost2010Prop48
 90
       50
102
RTVSPost2010PropOp48
 70
     1
102
RTVSPost2010Prop49
280
     0
102
RTVSPost2010PropOp49
 70
     1
102
RTVSPost2010Prop50
 90
       50
102
RTVSPost2010PropOp50
 70
     1
102
RTVSPost2010Prop51ColorIndex
 90
      256
102
RTVSPost2010Prop51ColorRGB
 90
-16777216
102
RTVSPost2010PropOp51
 70
     0
102
RTVSPost2010Prop52
140
1.0
102
RTVSPost2010PropOp52
 70
     0
102
RTVSPost2010Prop53
 90
        2
102
RTVSPost2010PropOp53
 70
     1
102
RTVSPost2010Prop54
  1
strokes_ogs.tif
102
RTVSPost2010PropOp54
 70
     1
102
RTVSPost2010Prop55
280
     0
102
RTVSPost2010PropOp55
 70
     1
102
RTVSPost2010Prop56
140
1.0
102
RTVSPost2010PropOp56
 70
     1
102
RTVSPost2010Prop57
140
1.0
102
RTVSPost2010PropOp57
 70
     1
102
RTVSPropertyOp0
 70
     1
102
RTVSPropertyOp1
 70
     1
102
RTVSPropertyOp2
 70
     1
102
RTVSPropertyOp3
 70
     1
102
RTVSPropertyOp4
 70
     1
102
RTVSPropertyOp5
 70
     1
102
RTVSPropertyOp6
 70
     1
102
RTVSPropertyOp7
 70
     1
102
RTVSPropertyOp8
 70
     1
102
RTVSPropertyOp9
 70
     1
102
RTVSPropertyOp10
 70
     1
102
RTVSPropertyOp11
 70
     1
102
RTVSPropertyOp12
 70
     1
102
RTVSPropertyOp13
 70
     1
102
RTVSPropertyOp14
 70
     1
102
RTVSPropertyOp15
 70
     1
102
RTVSPropertyOp16
 70
     1
102
RTVSPropertyOp17
 70
     1
102
RTVSPropertyOp18
 70
     1
102
RTVSPropertyOp19
 70
     1
102
RTVSPropertyOp20
 70
     1
102
RTVSPropertyOp21
 70
     1
102
RTVSPropertyOp22
 70
     1
102
RTVSPropertyOp23
 70
     1
102
RTVSPropertyOp24
 70
     1
102
RTVSPropertyOp25
 70
     1
102
RTVSPropertyOp26
 70
     1
102
RTVSPropertyOp27
 70
     1
102
RTVSPropertyOp28
 70
     1
102
RTVSPropertyOp29
 70
     1
102
RTVSPropertyOp30
 70
     1
102
RTVSPropertyOp31
 70
     1
102
RTVSPropertyOp32
 70
     1
102
RTVSPropertyOp33
 70
     1
102
RTVSPropertyOp34
 70
     1
102
RTVSPropertyOp35
 70
     1
102
RTVSPropertyOp36
 70
     1
102
RTVSPropertyOp37
 70
     1
102
RTVSPropertyOp38
 70
     1
102
RTVSPropertyOp39
 70
     1
102
RTVSPropertyOp40
 70
     1
102
RTVSPropertyOp41
 70
     1
102
RTVSPropertyOp42
 70
     1
102
RTVSPropertyOp43
 70
     1
102
RTVSPropertyOp44
 70
     1
102
RTVSPropertyOp45
 70
     1
102
RTVSPropertyOp46
 70
     1
102
RTVSPropertyOp47
 70
     1
102
RTVSPropertyOp48
 70
     1
102
RTVSPropertyOp49
 70
     1
102
RTVSPropertyOp50
 70
     1
102
RTVSPropertyOp51
 70
     0
102
RTVSPropertyOp52
 70
     0
102
RTVSPropertyOp53
 70
     1
102
RTVSPropertyOp54
 70
     1
102
RTVSPropertyOp55
 70
     1
102
RTVSPropertyOp56
 70
     1
102
RTVSPropertyOp57
 70
     1
102
RTVSPropertyOp58
 70
     1
102
RTVSPropertyOp59
 70
     1
102
RTVSPropertyOp60
 70
     1
102
RTVSPropertyOp61
 70
     1
102
RTVSPropertyOp62
 70
     1
  0
XRECORD
  5
20A
102
{ACAD_REACTORS
330
209
102
}
330
209
100
AcDbXrecord
280
     1
102
RTVSPost2010Prop28
280
     0
102
RTVSPost2010PropOp28
 70
     1
102
RTVSPost2010Prop29
280
     1
102
RTVSPost2010PropOp29
 70
     1
102
RTVSPost2010Prop30
280
     1
102
RTVSPost2010PropOp30
 70
     1
102
RTVSPost2010Prop31
280
     0
102
RTVSPost2010PropOp31
 70
     1
102
RTVSPost2010Prop32
280
     0
102
RTVSPost2010PropOp32
 70
     1
102
RTVSPost2010Prop33
280
     0
102
RTVSPost2010PropOp33
 70
     1
102
RTVSPost2010Prop34
280
     0
102
RTVSPost2010PropOp34
 70
     1
102
RTVSPost2010Prop35
280
     0
102
RTVSPost2010PropOp35
 70
     1
102
RTVSPost2010Prop36
280
     0
102
RTVSPost2010PropOp36
 70
     1
102
RTVSPost2010Prop37
 90
       50
102
RTVSPost2010PropOp37
 70
     1
102
RTVSPost2010Prop38
140
0.0
102
RTVSPost2010PropOp38
 70
     1
102
RTVSPost2010Prop39
140
1.0
102
RTVSPost2010PropOp39
 70
     1
102
RTVSPost2010Prop40
 90
        0
102
RTVSPost2010PropOp40
 70
     1
102
RTVSPost2010Prop41ColorIndex
 90
       18
102
RTVSPost2010Prop41ColorRGB
 90
        0
102
RTVSPost2010PropOp41
 70
     1
102
RTVSPost2010Prop42
 90
       50
102
RTVSPost2010PropOp42
 70
     1
102
RTVSPost2010Prop43
 90
        3
102
RTVSPost2010PropOp43
 70
     1
102
RTVSPost2010Prop44ColorIndex
 90
        5
102
RTVSPost2010Prop44ColorRGB
 90
      255
102
RTVSPost2010PropOp44
 70
     1
102
RTVSPost2010Prop45
280
     0
102
RTVSPost2010PropOp45
 70
     1
102
RTVSPost2010Prop46
 90
       50
102
RTVSPost2010PropOp46
 70
     1
102
RTVSPost2010Prop47
 90
       50
102
RTVSPost2010PropOp47
 70
     1
102
RTVSPost2010Prop48
 90
       50
102
RTVSPost2010PropOp48
 70
     1
102
RTVSPost2010Prop49
280
     0
102
RTVSPost2010PropOp49
 70
     1
102
RTVSPost2010Prop50
 90
       50
102
RTVSPost2010PropOp50
 70
     1
102
RTVSPost2010Prop51ColorIndex
 90
      256
102
RTVSPost2010Prop51ColorRGB
 90
-16777216
102
RTVSPost2010PropOp51
 70
     0
102
RTVSPost2010Prop52
140
1.0
102
RTVSPost2010PropOp52
 70
     0
102
RTVSPost2010Prop53
 90
        2
102
RTVSPost2010PropOp53
 70
     1
102
RTVSPost2010Prop54
  1
strokes_ogs.tif
102
RTVSPost2010PropOp54
 70
     1
102
RTVSPost2010Prop55
280
     0
102
RTVSPost2010PropOp55
 70
     1
102
RTVSPost2010Prop56
140
1.0
102
RTVSPost2010PropOp56
 70
     1
102
RTVSPost2010Prop57
140
1.0
102
RTVSPost2010PropOp57
 70
     1
102
RTVSPropertyOp0
 70
     1
102
RTVSPropertyOp1
 70
     1
102
RTVSPropertyOp2
 70
     1
102
RTVSPropertyOp3
 70
     1
102
RTVSPropertyOp4
 70
     1
102
RTVSPropertyOp5
 70
     1
102
RTVSPropertyOp6
 70
     1
102
RTVSPropertyOp7
 70
     1
102
RTVSPropertyOp8
 70
     1
102
RTVSPropertyOp9
 70
     1
102
RTVSPropertyOp10
 70
     1
102
RTVSPropertyOp11
 70
     1
102
RTVSPropertyOp12
 70
     1
102
RTVSPropertyOp13
 70
     1
102
RTVSPropertyOp14
 70
     1
102
RTVSPropertyOp15
 70
     1
102
RTVSPropertyOp16
 70
     1
102
RTVSPropertyOp17
 70
     1
102
RTVSPropertyOp18
 70
     1
102
RTVSPropertyOp19
 70
     1
102
RTVSPropertyOp20
 70
     1
102
RTVSPropertyOp21
 70
     1
102
RTVSPropertyOp22
 70
     1
102
RTVSPropertyOp23
 70
     1
102
RTVSPropertyOp24
 70
     1
102
RTVSPropertyOp25
 70
     1
102
RTVSPropertyOp26
 70
     1
102
RTVSPropertyOp27
 70
     1
102
RTVSPropertyOp28
 70
     1
102
RTVSPropertyOp29
 70
     1
102
RTVSPropertyOp30
 70
     1
102
RTVSPropertyOp31
 70
     1
102
RTVSPropertyOp32
 70
     1
102
RTVSPropertyOp33
 70
     1
102
RTVSPropertyOp34
 70
     1
102
RTVSPropertyOp35
 70
     1
102
RTVSPropertyOp36
 70
     1
102
RTVSPropertyOp37
 70
     1
102
RTVSPropertyOp38
 70
     1
102
RTVSPropertyOp39
 70
     1
102
RTVSPropertyOp40
 70
     1
102
RTVSPropertyOp41
 70
     1
102
RTVSPropertyOp42
 70
     1
102
RTVSPropertyOp43
 70
     1
102
RTVSPropertyOp44
 70
     1
102
RTVSPropertyOp45
 70
     1
102
RTVSPropertyOp46
 70
     1
102
RTVSPropertyOp47
 70
     1
102
RTVSPropertyOp48
 70
     1
102
RTVSPropertyOp49
 70
     1
102
RTVSPropertyOp50
 70
     1
102
RTVSPropertyOp51
 70
     0
102
RTVSPropertyOp52
 70
     0
102
RTVSPropertyOp53
 70
     1
102
RTVSPropertyOp54
 70
     1
102
RTVSPropertyOp55
 70
     1
102
RTVSPropertyOp56
 70
     1
102
RTVSPropertyOp57
 70
     1
102
RTVSPropertyOp58
 70
     1
102
RTVSPropertyOp59
 70
     1
102
RTVSPropertyOp60
 70
     1
102
RTVSPropertyOp61
 70
     1
102
RTVSPropertyOp62
 70
     1
  0
XRECORD
  5
212
102
{ACAD_REACTORS
330
211
102
}
330
211
100
AcDbXrecord
280
     1
102
RTVSPost2010Prop28
280
     0
102
RTVSPost2010PropOp28
 70
     1
102
RTVSPost2010Prop29
280
     1
102
RTVSPost2010PropOp29
 70
     1
102
RTVSPost2010Prop30
280
     1
102
RTVSPost2010PropOp30
 70
     1
102
RTVSPost2010Prop31
280
     0
102
RTVSPost2010PropOp31
 70
     1
102
RTVSPost2010Prop32
280
     0
102
RTVSPost2010PropOp32
 70
     1
102
RTVSPost2010Prop33
280
     0
102
RTVSPost2010PropOp33
 70
     1
102
RTVSPost2010Prop34
280
     0
102
RTVSPost2010PropOp34
 70
     1
102
RTVSPost2010Prop35
280
     0
102
RTVSPost2010PropOp35
 70
     1
102
RTVSPost2010Prop36
280
     0
102
RTVSPost2010PropOp36
 70
     1
102
RTVSPost2010Prop37
 90
       50
102
RTVSPost2010PropOp37
 70
     1
102
RTVSPost2010Prop38
140
0.0
102
RTVSPost2010PropOp38
 70
     1
102
RTVSPost2010Prop39
140
1.0
102
RTVSPost2010PropOp39
 70
     1
102
RTVSPost2010Prop40
 90
        0
102
RTVSPost2010PropOp40
 70
     1
102
RTVSPost2010Prop41ColorIndex
 90
       18
102
RTVSPost2010Prop41ColorRGB
 90
        0
102
RTVSPost2010PropOp41
 70
     1
102
RTVSPost2010Prop42
 90
       50
102
RTVSPost2010PropOp42
 70
     1
102
RTVSPost2010Prop43
 90
        3
102
RTVSPost2010PropOp43
 70
     1
102
RTVSPost2010Prop44ColorIndex
 90
        5
102
RTVSPost2010Prop44ColorRGB
 90
      255
102
RTVSPost2010PropOp44
 70
     1
102
RTVSPost2010Prop45
280
     0
102
RTVSPost2010PropOp45
 70
     1
102
RTVSPost2010Prop46
 90
       50
102
RTVSPost2010PropOp46
 70
     1
102
RTVSPost2010Prop47
 90
       50
102
RTVSPost2010PropOp47
 70
     1
102
RTVSPost2010Prop48
 90
       50
102
RTVSPost2010PropOp48
 70
     1
102
RTVSPost2010Prop49
280
     0
102
RTVSPost2010PropOp49
 70
     1
102
RTVSPost2010Prop50
 90
       50
102
RTVSPost2010PropOp50
 70
     1
102
RTVSPost2010Prop51ColorIndex
 90
      256
102
RTVSPost2010Prop51ColorRGB
 90
-16777216
102
RTVSPost2010PropOp51
 70
     0
102
RTVSPost2010Prop52
140
1.0
102
RTVSPost2010PropOp52
 70
     0
102
RTVSPost2010Prop53
 90
        2
102
RTVSPost2010PropOp53
 70
     1
102
RTVSPost2010Prop54
  1
strokes_ogs.tif
102
RTVSPost2010PropOp54
 70
     1
102
RTVSPost2010Prop55
280
     0
102
RTVSPost2010PropOp55
 70
     1
102
RTVSPost2010Prop56
140
1.0
102
RTVSPost2010PropOp56
 70
     1
102
RTVSPost2010Prop57
140
1.0
102
RTVSPost2010PropOp57
 70
     1
102
RTVSPropertyOp0
 70
     1
102
RTVSPropertyOp1
 70
     1
102
RTVSPropertyOp2
 70
     1
102
RTVSPropertyOp3
 70
     1
102
RTVSPropertyOp4
 70
     1
102
RTVSPropertyOp5
 70
     1
102
RTVSPropertyOp6
 70
     1
102
RTVSPropertyOp7
 70
     1
102
RTVSPropertyOp8
 70
     1
102
RTVSPropertyOp9
 70
     1
102
RTVSPropertyOp10
 70
     1
102
RTVSPropertyOp11
 70
     1
102
RTVSPropertyOp12
 70
     1
102
RTVSPropertyOp13
 70
     1
102
RTVSPropertyOp14
 70
     1
102
RTVSPropertyOp15
 70
     1
102
RTVSPropertyOp16
 70
     1
102
RTVSPropertyOp17
 70
     1
102
RTVSPropertyOp18
 70
     1
102
RTVSPropertyOp19
 70
     1
102
RTVSPropertyOp20
 70
     1
102
RTVSPropertyOp21
 70
     1
102
RTVSPropertyOp22
 70
     1
102
RTVSPropertyOp23
 70
     1
102
RTVSPropertyOp24
 70
     1
102
RTVSPropertyOp25
 70
     1
102
RTVSPropertyOp26
 70
     1
102
RTVSPropertyOp27
 70
     1
102
RTVSPropertyOp28
 70
     1
102
RTVSPropertyOp29
 70
     1
102
RTVSPropertyOp30
 70
     1
102
RTVSPropertyOp31
 70
     1
102
RTVSPropertyOp32
 70
     1
102
RTVSPropertyOp33
 70
     1
102
RTVSPropertyOp34
 70
     1
102
RTVSPropertyOp35
 70
     1
102
RTVSPropertyOp36
 70
     1
102
RTVSPropertyOp37
 70
     1
102
RTVSPropertyOp38
 70
     1
102
RTVSPropertyOp39
 70
     1
102
RTVSPropertyOp40
 70
     1
102
RTVSPropertyOp41
 70
     1
102
RTVSPropertyOp42
 70
     1
102
RTVSPropertyOp43
 70
     1
102
RTVSPropertyOp44
 70
     1
102
RTVSPropertyOp45
 70
     1
102
RTVSPropertyOp46
 70
     1
102
RTVSPropertyOp47
 70
     1
102
RTVSPropertyOp48
 70
     1
102
RTVSPropertyOp49
 70
     1
102
RTVSPropertyOp50
 70
     1
102
RTVSPropertyOp51
 70
     0
102
RTVSPropertyOp52
 70
     0
102
RTVSPropertyOp53
 70
     1
102
RTVSPropertyOp54
 70
     1
102
RTVSPropertyOp55
 70
     1
102
RTVSPropertyOp56
 70
     1
102
RTVSPropertyOp57
 70
     1
102
RTVSPropertyOp58
 70
     1
102
RTVSPropertyOp59
 70
     1
102
RTVSPropertyOp60
 70
     1
102
RTVSPropertyOp61
 70
     1
102
RTVSPropertyOp62
 70
     1
  0
XRECORD
  5
22E
102
{ACAD_REACTORS
330
22D
102
}
330
22D
100
AcDbXrecord
280
     1
102
RTVSPost2010Prop28
280
     0
102
RTVSPost2010PropOp28
 70
     0
102
RTVSPost2010Prop29
280
     1
102
RTVSPost2010PropOp29
 70
     0
102
RTVSPost2010Prop30
280
     1
102
RTVSPost2010PropOp30
 70
     0
102
RTVSPost2010Prop31
280
     0
102
RTVSPost2010PropOp31
 70
     0
102
RTVSPost2010Prop32
280
     0
102
RTVSPost2010PropOp32
 70
     0
102
RTVSPost2010Prop33
280
     0
102
RTVSPost2010PropOp33
 70
     0
102
RTVSPost2010Prop34
280
     0
102
RTVSPost2010PropOp34
 70
     0
102
RTVSPost2010Prop35
280
     0
102
RTVSPost2010PropOp35
 70
     0
102
RTVSPost2010Prop36
280
     0
102
RTVSPost2010PropOp36
 70
     0
102
RTVSPost2010Prop37
 90
       50
102
RTVSPost2010PropOp37
 70
     0
102
RTVSPost2010Prop38
140
0.0
102
RTVSPost2010PropOp38
 70
     0
102
RTVSPost2010Prop39
140
1.0
102
RTVSPost2010PropOp39
 70
     0
102
RTVSPost2010Prop40
 90
        0
102
RTVSPost2010PropOp40
 70
     0
102
RTVSPost2010Prop41ColorIndex
 90
       18
102
RTVSPost2010Prop41ColorRGB
 90
        0
102
RTVSPost2010PropOp41
 70
     0
102
RTVSPost2010Prop42
 90
       50
102
RTVSPost2010PropOp42
 70
     0
102
RTVSPost2010Prop43
 90
        3
102
RTVSPost2010PropOp43
 70
     0
102
RTVSPost2010Prop44ColorIndex
 90
        5
102
RTVSPost2010Prop44ColorRGB
 90
      255
102
RTVSPost2010PropOp44
 70
     0
102
RTVSPost2010Prop45
280
     0
102
RTVSPost2010PropOp45
 70
     0
102
RTVSPost2010Prop46
 90
       50
102
RTVSPost2010PropOp46
 70
     0
102
RTVSPost2010Prop47
 90
       50
102
RTVSPost2010PropOp47
 70
     0
102
RTVSPost2010Prop48
 90
       50
102
RTVSPost2010PropOp48
 70
     0
102
RTVSPost2010Prop49
280
     0
102
RTVSPost2010PropOp49
 70
     0
102
RTVSPost2010Prop50
 90
       50
102
RTVSPost2010PropOp50
 70
     0
102
RTVSPost2010Prop51ColorIndex
 90
      256
102
RTVSPost2010Prop51ColorRGB
 90
-16777216
102
RTVSPost2010PropOp51
 70
     0
102
RTVSPost2010Prop52
140
1.0
102
RTVSPost2010PropOp52
 70
     0
102
RTVSPost2010Prop53
 90
        2
102
RTVSPost2010PropOp53
 70
     0
102
RTVSPost2010Prop54
  1
strokes_ogs.tif
102
RTVSPost2010PropOp54
 70
     0
102
RTVSPost2010Prop55
280
     0
102
RTVSPost2010PropOp55
 70
     0
102
RTVSPost2010Prop56
140
1.0
102
RTVSPost2010PropOp56
 70
     0
102
RTVSPost2010Prop57
140
1.0
102
RTVSPost2010PropOp57
 70
     0
102
RTVSPropertyOp0
 70
     0
102
RTVSPropertyOp1
 70
     0
102
RTVSPropertyOp2
 70
     0
102
RTVSPropertyOp3
 70
     0
102
RTVSPropertyOp4
 70
     0
102
RTVSPropertyOp5
 70
     0
102
RTVSPropertyOp6
 70
     0
102
RTVSPropertyOp7
 70
     0
102
RTVSPropertyOp8
 70
     0
102
RTVSPropertyOp9
 70
     0
102
RTVSPropertyOp10
 70
     0
102
RTVSPropertyOp11
 70
     0
102
RTVSPropertyOp12
 70
     0
102
RTVSPropertyOp13
 70
     0
102
RTVSPropertyOp14
 70
     2
102
RTVSPropertyOp15
 70
     0
102
RTVSPropertyOp16
 70
     0
102
RTVSPropertyOp17
 70
     0
102
RTVSPropertyOp18
 70
     0
102
RTVSPropertyOp19
 70
     0
102
RTVSPropertyOp20
 70
     0
102
RTVSPropertyOp21
 70
     0
102
RTVSPropertyOp22
 70
     0
102
RTVSPropertyOp23
 70
     0
102
RTVSPropertyOp24
 70
     0
102
RTVSPropertyOp25
 70
     0
102
RTVSPropertyOp26
 70
     0
102
RTVSPropertyOp27
 70
     0
102
RTVSPropertyOp28
 70
     0
102
RTVSPropertyOp29
 70
     0
102
RTVSPropertyOp30
 70
     0
102
RTVSPropertyOp31
 70
     0
102
RTVSPropertyOp32
 70
     0
102
RTVSPropertyOp33
 70
     0
102
RTVSPropertyOp34
 70
     0
102
RTVSPropertyOp35
 70
     0
102
RTVSPropertyOp36
 70
     0
102
RTVSPropertyOp37
 70
     0
102
RTVSPropertyOp38
 70
     0
102
RTVSPropertyOp39
 70
     0
102
RTVSPropertyOp40
 70
     0
102
RTVSPropertyOp41
 70
     0
102
RTVSPropertyOp42
 70
     0
102
RTVSPropertyOp43
 70
     0
102
RTVSPropertyOp44
 70
     0
102
RTVSPropertyOp45
 70
     0
102
RTVSPropertyOp46
 70
     0
102
RTVSPropertyOp47
 70
     0
102
RTVSPropertyOp48
 70
     0
102
RTVSPropertyOp49
 70
     0
102
RTVSPropertyOp50
 70
     0
102
RTVSPropertyOp51
 70
     0
102
RTVSPropertyOp52
 70
     0
102
RTVSPropertyOp53
 70
     0
102
RTVSPropertyOp54
 70
     0
102
RTVSPropertyOp55
 70
     0
102
RTVSPropertyOp56
 70
     0
102
RTVSPropertyOp57
 70
     0
102
RTVSPropertyOp58
 70
     1
102
RTVSPropertyOp59
 70
     1
102
RTVSPropertyOp60
 70
     1
102
RTVSPropertyOp61
 70
     1
102
RTVSPropertyOp62
 70
     1
  0
XRECORD
  5
21E
102
{ACAD_REACTORS
330
21D
102
}
330
21D
100
AcDbXrecord
280
     1
102
RTVSPost2010Prop28
280
     0
102
RTVSPost2010PropOp28
 70
     1
102
RTVSPost2010Prop29
280
     1
102
RTVSPost2010PropOp29
 70
     1
102
RTVSPost2010Prop30
280
     1
102
RTVSPost2010PropOp30
 70
     1
102
RTVSPost2010Prop31
280
     0
102
RTVSPost2010PropOp31
 70
     1
102
RTVSPost2010Prop32
280
     0
102
RTVSPost2010PropOp32
 70
     1
102
RTVSPost2010Prop33
280
     0
102
RTVSPost2010PropOp33
 70
     1
102
RTVSPost2010Prop34
280
     0
102
RTVSPost2010PropOp34
 70
     1
102
RTVSPost2010Prop35
280
     0
102
RTVSPost2010PropOp35
 70
     1
102
RTVSPost2010Prop36
280
     0
102
RTVSPost2010PropOp36
 70
     1
102
RTVSPost2010Prop37
 90
       50
102
RTVSPost2010PropOp37
 70
     1
102
RTVSPost2010Prop38
140
0.0
102
RTVSPost2010PropOp38
 70
     1
102
RTVSPost2010Prop39
140
1.0
102
RTVSPost2010PropOp39
 70
     1
102
RTVSPost2010Prop40
 90
        0
102
RTVSPost2010PropOp40
 70
     1
102
RTVSPost2010Prop41ColorIndex
 90
       18
102
RTVSPost2010Prop41ColorRGB
 90
        0
102
RTVSPost2010PropOp41
 70
     1
102
RTVSPost2010Prop42
 90
       50
102
RTVSPost2010PropOp42
 70
     1
102
RTVSPost2010Prop43
 90
        3
102
RTVSPost2010PropOp43
 70
     1
102
RTVSPost2010Prop44ColorIndex
 90
        5
102
RTVSPost2010Prop44ColorRGB
 90
      255
102
RTVSPost2010PropOp44
 70
     1
102
RTVSPost2010Prop45
280
     0
102
RTVSPost2010PropOp45
 70
     1
102
RTVSPost2010Prop46
 90
       50
102
RTVSPost2010PropOp46
 70
     1
102
RTVSPost2010Prop47
 90
       50
102
RTVSPost2010PropOp47
 70
     1
102
RTVSPost2010Prop48
 90
       50
102
RTVSPost2010PropOp48
 70
     1
102
RTVSPost2010Prop49
280
     0
102
RTVSPost2010PropOp49
 70
     1
102
RTVSPost2010Prop50
 90
       50
102
RTVSPost2010PropOp50
 70
     1
102
RTVSPost2010Prop51ColorIndex
 90
      256
102
RTVSPost2010Prop51ColorRGB
 90
-16777216
102
RTVSPost2010PropOp51
 70
     0
102
RTVSPost2010Prop52
140
1.0
102
RTVSPost2010PropOp52
 70
     0
102
RTVSPost2010Prop53
 90
        2
102
RTVSPost2010PropOp53
 70
     1
102
RTVSPost2010Prop54
  1
strokes_ogs.tif
102
RTVSPost2010PropOp54
 70
     1
102
RTVSPost2010Prop55
280
     0
102
RTVSPost2010PropOp55
 70
     1
102
RTVSPost2010Prop56
140
1.0
102
RTVSPost2010PropOp56
 70
     1
102
RTVSPost2010Prop57
140
1.0
102
RTVSPost2010PropOp57
 70
     1
102
RTVSPropertyOp0
 70
     1
102
RTVSPropertyOp1
 70
     1
102
RTVSPropertyOp2
 70
     1
102
RTVSPropertyOp3
 70
     1
102
RTVSPropertyOp4
 70
     1
102
RTVSPropertyOp5
 70
     1
102
RTVSPropertyOp6
 70
     1
102
RTVSPropertyOp7
 70
     1
102
RTVSPropertyOp8
 70
     1
102
RTVSPropertyOp9
 70
     1
102
RTVSPropertyOp10
 70
     1
102
RTVSPropertyOp11
 70
     1
102
RTVSPropertyOp12
 70
     1
102
RTVSPropertyOp13
 70
     1
102
RTVSPropertyOp14
 70
     1
102
RTVSPropertyOp15
 70
     1
102
RTVSPropertyOp16
 70
     1
102
RTVSPropertyOp17
 70
     1
102
RTVSPropertyOp18
 70
     1
102
RTVSPropertyOp19
 70
     1
102
RTVSPropertyOp20
 70
     1
102
RTVSPropertyOp21
 70
     1
102
RTVSPropertyOp22
 70
     1
102
RTVSPropertyOp23
 70
     1
102
RTVSPropertyOp24
 70
     1
102
RTVSPropertyOp25
 70
     1
102
RTVSPropertyOp26
 70
     1
102
RTVSPropertyOp27
 70
     1
102
RTVSPropertyOp28
 70
     1
102
RTVSPropertyOp29
 70
     1
102
RTVSPropertyOp30
 70
     1
102
RTVSPropertyOp31
 70
     1
102
RTVSPropertyOp32
 70
     1
102
RTVSPropertyOp33
 70
     1
102
RTVSPropertyOp34
 70
     1
102
RTVSPropertyOp35
 70
     1
102
RTVSPropertyOp36
 70
     1
102
RTVSPropertyOp37
 70
     1
102
RTVSPropertyOp38
 70
     1
102
RTVSPropertyOp39
 70
     1
102
RTVSPropertyOp40
 70
     1
102
RTVSPropertyOp41
 70
     1
102
RTVSPropertyOp42
 70
     1
102
RTVSPropertyOp43
 70
     1
102
RTVSPropertyOp44
 70
     1
102
RTVSPropertyOp45
 70
     1
102
RTVSPropertyOp46
 70
     1
102
RTVSPropertyOp47
 70
     1
102
RTVSPropertyOp48
 70
     1
102
RTVSPropertyOp49
 70
     1
102
RTVSPropertyOp50
 70
     1
102
RTVSPropertyOp51
 70
     0
102
RTVSPropertyOp52
 70
     0
102
RTVSPropertyOp53
 70
     1
102
RTVSPropertyOp54
 70
     1
102
RTVSPropertyOp55
 70
     1
102
RTVSPropertyOp56
 70
     1
102
RTVSPropertyOp57
 70
     1
102
RTVSPropertyOp58
 70
     1
102
RTVSPropertyOp59
 70
     1
102
RTVSPropertyOp60
 70
     1
102
RTVSPropertyOp61
 70
     1
102
RTVSPropertyOp62
 70
     1
  0
XRECORD
  5
230
102
{ACAD_REACTORS
330
22F
102
}
330
22F
100
AcDbXrecord
280
     1
102
RTVSPost2010Prop28
280
     0
102
RTVSPost2010PropOp28
 70
     0
102
RTVSPost2010Prop29
280
     1
102
RTVSPost2010PropOp29
 70
     0
102
RTVSPost2010Prop30
280
     1
102
RTVSPost2010PropOp30
 70
     0
102
RTVSPost2010Prop31
280
     0
102
RTVSPost2010PropOp31
 70
     0
102
RTVSPost2010Prop32
280
     0
102
RTVSPost2010PropOp32
 70
     0
102
RTVSPost2010Prop33
280
     0
102
RTVSPost2010PropOp33
 70
     0
102
RTVSPost2010Prop34
280
     0
102
RTVSPost2010PropOp34
 70
     0
102
RTVSPost2010Prop35
280
     0
102
RTVSPost2010PropOp35
 70
     0
102
RTVSPost2010Prop36
280
     0
102
RTVSPost2010PropOp36
 70
     0
102
RTVSPost2010Prop37
 90
       50
102
RTVSPost2010PropOp37
 70
     0
102
RTVSPost2010Prop38
140
0.0
102
RTVSPost2010PropOp38
 70
     0
102
RTVSPost2010Prop39
140
1.0
102
RTVSPost2010PropOp39
 70
     0
102
RTVSPost2010Prop40
 90
        0
102
RTVSPost2010PropOp40
 70
     0
102
RTVSPost2010Prop41ColorIndex
 90
       18
102
RTVSPost2010Prop41ColorRGB
 90
        0
102
RTVSPost2010PropOp41
 70
     0
102
RTVSPost2010Prop42
 90
       50
102
RTVSPost2010PropOp42
 70
     0
102
RTVSPost2010Prop43
 90
        3
102
RTVSPost2010PropOp43
 70
     0
102
RTVSPost2010Prop44ColorIndex
 90
        5
102
RTVSPost2010Prop44ColorRGB
 90
      255
102
RTVSPost2010PropOp44
 70
     0
102
RTVSPost2010Prop45
280
     0
102
RTVSPost2010PropOp45
 70
     0
102
RTVSPost2010Prop46
 90
       50
102
RTVSPost2010PropOp46
 70
     0
102
RTVSPost2010Prop47
 90
       50
102
RTVSPost2010PropOp47
 70
     0
102
RTVSPost2010Prop48
 90
       50
102
RTVSPost2010PropOp48
 70
     0
102
RTVSPost2010Prop49
280
     0
102
RTVSPost2010PropOp49
 70
     0
102
RTVSPost2010Prop50
 90
       50
102
RTVSPost2010PropOp50
 70
     0
102
RTVSPost2010Prop51ColorIndex
 90
      256
102
RTVSPost2010Prop51ColorRGB
 90
-16777216
102
RTVSPost2010PropOp51
 70
     0
102
RTVSPost2010Prop52
140
1.0
102
RTVSPost2010PropOp52
 70
     0
102
RTVSPost2010Prop53
 90
        2
102
RTVSPost2010PropOp53
 70
     0
102
RTVSPost2010Prop54
  1
strokes_ogs.tif
102
RTVSPost2010PropOp54
 70
     0
102
RTVSPost2010Prop55
280
     0
102
RTVSPost2010PropOp55
 70
     0
102
RTVSPost2010Prop56
140
1.0
102
RTVSPost2010PropOp56
 70
     0
102
RTVSPost2010Prop57
140
1.0
102
RTVSPost2010PropOp57
 70
     0
102
RTVSPropertyOp0
 70
     0
102
RTVSPropertyOp1
 70
     0
102
RTVSPropertyOp2
 70
     0
102
RTVSPropertyOp3
 70
     0
102
RTVSPropertyOp4
 70
     0
102
RTVSPropertyOp5
 70
     0
102
RTVSPropertyOp6
 70
     0
102
RTVSPropertyOp7
 70
     0
102
RTVSPropertyOp8
 70
     0
102
RTVSPropertyOp9
 70
     0
102
RTVSPropertyOp10
 70
     0
102
RTVSPropertyOp11
 70
     0
102
RTVSPropertyOp12
 70
     0
102
RTVSPropertyOp13
 70
     0
102
RTVSPropertyOp14
 70
     2
102
RTVSPropertyOp15
 70
     0
102
RTVSPropertyOp16
 70
     0
102
RTVSPropertyOp17
 70
     0
102
RTVSPropertyOp18
 70
     0
102
RTVSPropertyOp19
 70
     0
102
RTVSPropertyOp20
 70
     0
102
RTVSPropertyOp21
 70
     0
102
RTVSPropertyOp22
 70
     0
102
RTVSPropertyOp23
 70
     0
102
RTVSPropertyOp24
 70
     0
102
RTVSPropertyOp25
 70
     0
102
RTVSPropertyOp26
 70
     0
102
RTVSPropertyOp27
 70
     0
102
RTVSPropertyOp28
 70
     0
102
RTVSPropertyOp29
 70
     0
102
RTVSPropertyOp30
 70
     0
102
RTVSPropertyOp31
 70
     0
102
RTVSPropertyOp32
 70
     0
102
RTVSPropertyOp33
 70
     0
102
RTVSPropertyOp34
 70
     0
102
RTVSPropertyOp35
 70
     0
102
RTVSPropertyOp36
 70
     0
102
RTVSPropertyOp37
 70
     0
102
RTVSPropertyOp38
 70
     0
102
RTVSPropertyOp39
 70
     0
102
RTVSPropertyOp40
 70
     0
102
RTVSPropertyOp41
 70
     0
102
RTVSPropertyOp42
 70
     0
102
RTVSPropertyOp43
 70
     0
102
RTVSPropertyOp44
 70
     0
102
RTVSPropertyOp45
 70
     0
102
RTVSPropertyOp46
 70
     0
102
RTVSPropertyOp47
 70
     0
102
RTVSPropertyOp48
 70
     0
102
RTVSPropertyOp49
 70
     0
102
RTVSPropertyOp50
 70
     0
102
RTVSPropertyOp51
 70
     0
102
RTVSPropertyOp52
 70
     0
102
RTVSPropertyOp53
 70
     0
102
RTVSPropertyOp54
 70
     0
102
RTVSPropertyOp55
 70
     0
102
RTVSPropertyOp56
 70
     0
102
RTVSPropertyOp57
 70
     0
102
RTVSPropertyOp58
 70
     1
102
RTVSPropertyOp59
 70
     1
102
RTVSPropertyOp60
 70
     1
102
RTVSPropertyOp61
 70
     1
102
RTVSPropertyOp62
 70
     1
  0
XRECORD
  5
216
102
{ACAD_REACTORS
330
215
102
}
330
215
100
AcDbXrecord
280
     1
102
RTVSPost2010Prop28
280
     0
102
RTVSPost2010PropOp28
 70
     1
102
RTVSPost2010Prop29
280
     1
102
RTVSPost2010PropOp29
 70
     1
102
RTVSPost2010Prop30
280
     1
102
RTVSPost2010PropOp30
 70
     1
102
RTVSPost2010Prop31
280
     0
102
RTVSPost2010PropOp31
 70
     1
102
RTVSPost2010Prop32
280
     0
102
RTVSPost2010PropOp32
 70
     1
102
RTVSPost2010Prop33
280
     0
102
RTVSPost2010PropOp33
 70
     1
102
RTVSPost2010Prop34
280
     0
102
RTVSPost2010PropOp34
 70
     1
102
RTVSPost2010Prop35
280
     0
102
RTVSPost2010PropOp35
 70
     1
102
RTVSPost2010Prop36
280
     0
102
RTVSPost2010PropOp36
 70
     1
102
RTVSPost2010Prop37
 90
       50
102
RTVSPost2010PropOp37
 70
     1
102
RTVSPost2010Prop38
140
0.0
102
RTVSPost2010PropOp38
 70
     1
102
RTVSPost2010Prop39
140
1.0
102
RTVSPost2010PropOp39
 70
     1
102
RTVSPost2010Prop40
 90
        0
102
RTVSPost2010PropOp40
 70
     1
102
RTVSPost2010Prop41ColorIndex
 90
       18
102
RTVSPost2010Prop41ColorRGB
 90
        0
102
RTVSPost2010PropOp41
 70
     1
102
RTVSPost2010Prop42
 90
       50
102
RTVSPost2010PropOp42
 70
     1
102
RTVSPost2010Prop43
 90
        3
102
RTVSPost2010PropOp43
 70
     1
102
RTVSPost2010Prop44ColorIndex
 90
        5
102
RTVSPost2010Prop44ColorRGB
 90
      255
102
RTVSPost2010PropOp44
 70
     1
102
RTVSPost2010Prop45
280
     0
102
RTVSPost2010PropOp45
 70
     1
102
RTVSPost2010Prop46
 90
       50
102
RTVSPost2010PropOp46
 70
     1
102
RTVSPost2010Prop47
 90
       50
102
RTVSPost2010PropOp47
 70
     1
102
RTVSPost2010Prop48
 90
       50
102
RTVSPost2010PropOp48
 70
     1
102
RTVSPost2010Prop49
280
     0
102
RTVSPost2010PropOp49
 70
     1
102
RTVSPost2010Prop50
 90
       50
102
RTVSPost2010PropOp50
 70
     1
102
RTVSPost2010Prop51ColorIndex
 90
      256
102
RTVSPost2010Prop51ColorRGB
 90
-16777216
102
RTVSPost2010PropOp51
 70
     0
102
RTVSPost2010Prop52
140
1.0
102
RTVSPost2010PropOp52
 70
     0
102
RTVSPost2010Prop53
 90
        2
102
RTVSPost2010PropOp53
 70
     1
102
RTVSPost2010Prop54
  1
strokes_ogs.tif
102
RTVSPost2010PropOp54
 70
     1
102
RTVSPost2010Prop55
280
     0
102
RTVSPost2010PropOp55
 70
     1
102
RTVSPost2010Prop56
140
1.0
102
RTVSPost2010PropOp56
 70
     1
102
RTVSPost2010Prop57
140
1.0
102
RTVSPost2010PropOp57
 70
     1
102
RTVSPropertyOp0
 70
     1
102
RTVSPropertyOp1
 70
     1
102
RTVSPropertyOp2
 70
     1
102
RTVSPropertyOp3
 70
     1
102
RTVSPropertyOp4
 70
     1
102
RTVSPropertyOp5
 70
     1
102
RTVSPropertyOp6
 70
     1
102
RTVSPropertyOp7
 70
     1
102
RTVSPropertyOp8
 70
     1
102
RTVSPropertyOp9
 70
     1
102
RTVSPropertyOp10
 70
     1
102
RTVSPropertyOp11
 70
     1
102
RTVSPropertyOp12
 70
     1
102
RTVSPropertyOp13
 70
     1
102
RTVSPropertyOp14
 70
     1
102
RTVSPropertyOp15
 70
     1
102
RTVSPropertyOp16
 70
     1
102
RTVSPropertyOp17
 70
     1
102
RTVSPropertyOp18
 70
     1
102
RTVSPropertyOp19
 70
     1
102
RTVSPropertyOp20
 70
     1
102
RTVSPropertyOp21
 70
     1
102
RTVSPropertyOp22
 70
     1
102
RTVSPropertyOp23
 70
     1
102
RTVSPropertyOp24
 70
     1
102
RTVSPropertyOp25
 70
     1
102
RTVSPropertyOp26
 70
     1
102
RTVSPropertyOp27
 70
     1
102
RTVSPropertyOp28
 70
     1
102
RTVSPropertyOp29
 70
     1
102
RTVSPropertyOp30
 70
     1
102
RTVSPropertyOp31
 70
     1
102
RTVSPropertyOp32
 70
     1
102
RTVSPropertyOp33
 70
     1
102
RTVSPropertyOp34
 70
     1
102
RTVSPropertyOp35
 70
     1
102
RTVSPropertyOp36
 70
     1
102
RTVSPropertyOp37
 70
     1
102
RTVSPropertyOp38
 70
     1
102
RTVSPropertyOp39
 70
     1
102
RTVSPropertyOp40
 70
     1
102
RTVSPropertyOp41
 70
     1
102
RTVSPropertyOp42
 70
     1
102
RTVSPropertyOp43
 70
     1
102
RTVSPropertyOp44
 70
     1
102
RTVSPropertyOp45
 70
     1
102
RTVSPropertyOp46
 70
     1
102
RTVSPropertyOp47
 70
     1
102
RTVSPropertyOp48
 70
     1
102
RTVSPropertyOp49
 70
     1
102
RTVSPropertyOp50
 70
     1
102
RTVSPropertyOp51
 70
     0
102
RTVSPropertyOp52
 70
     0
102
RTVSPropertyOp53
 70
     1
102
RTVSPropertyOp54
 70
     1
102
RTVSPropertyOp55
 70
     1
102
RTVSPropertyOp56
 70
     1
102
RTVSPropertyOp57
 70
     1
102
RTVSPropertyOp58
 70
     1
102
RTVSPropertyOp59
 70
     1
102
RTVSPropertyOp60
 70
     1
102
RTVSPropertyOp61
 70
     1
102
RTVSPropertyOp62
 70
     1
  0
XRECORD
  5
22C
102
{ACAD_REACTORS
330
22B
102
}
330
22B
100
AcDbXrecord
280
     1
102
RTVSPost2010Prop28
280
     0
102
RTVSPost2010PropOp28
 70
     1
102
RTVSPost2010Prop29
280
     1
102
RTVSPost2010PropOp29
 70
     1
102
RTVSPost2010Prop30
280
     1
102
RTVSPost2010PropOp30
 70
     1
102
RTVSPost2010Prop31
280
     0
102
RTVSPost2010PropOp31
 70
     1
102
RTVSPost2010Prop32
280
     0
102
RTVSPost2010PropOp32
 70
     1
102
RTVSPost2010Prop33
280
     0
102
RTVSPost2010PropOp33
 70
     1
102
RTVSPost2010Prop34
280
     0
102
RTVSPost2010PropOp34
 70
     1
102
RTVSPost2010Prop35
280
     0
102
RTVSPost2010PropOp35
 70
     1
102
RTVSPost2010Prop36
280
     0
102
RTVSPost2010PropOp36
 70
     1
102
RTVSPost2010Prop37
 90
       50
102
RTVSPost2010PropOp37
 70
     1
102
RTVSPost2010Prop38
140
0.0
102
RTVSPost2010PropOp38
 70
     1
102
RTVSPost2010Prop39
140
1.0
102
RTVSPost2010PropOp39
 70
     1
102
RTVSPost2010Prop40
 90
        0
102
RTVSPost2010PropOp40
 70
     1
102
RTVSPost2010Prop41ColorIndex
 90
       18
102
RTVSPost2010Prop41ColorRGB
 90
        0
102
RTVSPost2010PropOp41
 70
     1
102
RTVSPost2010Prop42
 90
       50
102
RTVSPost2010PropOp42
 70
     1
102
RTVSPost2010Prop43
 90
        3
102
RTVSPost2010PropOp43
 70
     1
102
RTVSPost2010Prop44ColorIndex
 90
        5
102
RTVSPost2010Prop44ColorRGB
 90
      255
102
RTVSPost2010PropOp44
 70
     1
102
RTVSPost2010Prop45
280
     0
102
RTVSPost2010PropOp45
 70
     1
102
RTVSPost2010Prop46
 90
       50
102
RTVSPost2010PropOp46
 70
     1
102
RTVSPost2010Prop47
 90
       50
102
RTVSPost2010PropOp47
 70
     1
102
RTVSPost2010Prop48
 90
       50
102
RTVSPost2010PropOp48
 70
     1
102
RTVSPost2010Prop49
280
     0
102
RTVSPost2010PropOp49
 70
     1
102
RTVSPost2010Prop50
 90
       50
102
RTVSPost2010PropOp50
 70
     1
102
RTVSPost2010Prop51ColorIndex
 90
      256
102
RTVSPost2010Prop51ColorRGB
 90
-16777216
102
RTVSPost2010PropOp51
 70
     0
102
RTVSPost2010Prop52
140
1.0
102
RTVSPost2010PropOp52
 70
     0
102
RTVSPost2010Prop53
 90
        2
102
RTVSPost2010PropOp53
 70
     1
102
RTVSPost2010Prop54
  1
strokes_ogs.tif
102
RTVSPost2010PropOp54
 70
     1
102
RTVSPost2010Prop55
280
     0
102
RTVSPost2010PropOp55
 70
     1
102
RTVSPost2010Prop56
140
1.0
102
RTVSPost2010PropOp56
 70
     1
102
RTVSPost2010Prop57
140
1.0
102
RTVSPost2010PropOp57
 70
     1
102
RTVSPropertyOp0
 70
     1
102
RTVSPropertyOp1
 70
     1
102
RTVSPropertyOp2
 70
     1
102
RTVSPropertyOp3
 70
     1
102
RTVSPropertyOp4
 70
     1
102
RTVSPropertyOp5
 70
     1
102
RTVSPropertyOp6
 70
     1
102
RTVSPropertyOp7
 70
     1
102
RTVSPropertyOp8
 70
     1
102
RTVSPropertyOp9
 70
     1
102
RTVSPropertyOp10
 70
     1
102
RTVSPropertyOp11
 70
     1
102
RTVSPropertyOp12
 70
     1
102
RTVSPropertyOp13
 70
     1
102
RTVSPropertyOp14
 70
     1
102
RTVSPropertyOp15
 70
     1
102
RTVSPropertyOp16
 70
     1
102
RTVSPropertyOp17
 70
     1
102
RTVSPropertyOp18
 70
     1
102
RTVSPropertyOp19
 70
     1
102
RTVSPropertyOp20
 70
     1
102
RTVSPropertyOp21
 70
     1
102
RTVSPropertyOp22
 70
     1
102
RTVSPropertyOp23
 70
     1
102
RTVSPropertyOp24
 70
     1
102
RTVSPropertyOp25
 70
     1
102
RTVSPropertyOp26
 70
     1
102
RTVSPropertyOp27
 70
     1
102
RTVSPropertyOp28
 70
     1
102
RTVSPropertyOp29
 70
     1
102
RTVSPropertyOp30
 70
     1
102
RTVSPropertyOp31
 70
     1
102
RTVSPropertyOp32
 70
     1
102
RTVSPropertyOp33
 70
     1
102
RTVSPropertyOp34
 70
     1
102
RTVSPropertyOp35
 70
     1
102
RTVSPropertyOp36
 70
     1
102
RTVSPropertyOp37
 70
     1
102
RTVSPropertyOp38
 70
     1
102
RTVSPropertyOp39
 70
     1
102
RTVSPropertyOp40
 70
     1
102
RTVSPropertyOp41
 70
     1
102
RTVSPropertyOp42
 70
     1
102
RTVSPropertyOp43
 70
     1
102
RTVSPropertyOp44
 70
     1
102
RTVSPropertyOp45
 70
     1
102
RTVSPropertyOp46
 70
     1
102
RTVSPropertyOp47
 70
     1
102
RTVSPropertyOp48
 70
     1
102
RTVSPropertyOp49
 70
     1
102
RTVSPropertyOp50
 70
     1
102
RTVSPropertyOp51
 70
     0
102
RTVSPropertyOp52
 70
     0
102
RTVSPropertyOp53
 70
     1
102
RTVSPropertyOp54
 70
     1
102
RTVSPropertyOp55
 70
     1
102
RTVSPropertyOp56
 70
     1
102
RTVSPropertyOp57
 70
     1
102
RTVSPropertyOp58
 70
     1
102
RTVSPropertyOp59
 70
     1
102
RTVSPropertyOp60
 70
     1
102
RTVSPropertyOp61
 70
     1
102
RTVSPropertyOp62
 70
     1
  0
XRECORD
  5
22A
102
{ACAD_REACTORS
330
229
102
}
330
229
100
AcDbXrecord
280
     1
102
RTVSPost2010Prop28
280
     0
102
RTVSPost2010PropOp28
 70
     1
102
RTVSPost2010Prop29
280
     1
102
RTVSPost2010PropOp29
 70
     1
102
RTVSPost2010Prop30
280
     1
102
RTVSPost2010PropOp30
 70
     1
102
RTVSPost2010Prop31
280
     0
102
RTVSPost2010PropOp31
 70
     1
102
RTVSPost2010Prop32
280
     0
102
RTVSPost2010PropOp32
 70
     1
102
RTVSPost2010Prop33
280
     0
102
RTVSPost2010PropOp33
 70
     1
102
RTVSPost2010Prop34
280
     0
102
RTVSPost2010PropOp34
 70
     1
102
RTVSPost2010Prop35
280
     0
102
RTVSPost2010PropOp35
 70
     1
102
RTVSPost2010Prop36
280
     0
102
RTVSPost2010PropOp36
 70
     1
102
RTVSPost2010Prop37
 90
       50
102
RTVSPost2010PropOp37
 70
     1
102
RTVSPost2010Prop38
140
0.0
102
RTVSPost2010PropOp38
 70
     1
102
RTVSPost2010Prop39
140
1.0
102
RTVSPost2010PropOp39
 70
     1
102
RTVSPost2010Prop40
 90
        0
102
RTVSPost2010PropOp40
 70
     1
102
RTVSPost2010Prop41ColorIndex
 90
       18
102
RTVSPost2010Prop41ColorRGB
 90
        0
102
RTVSPost2010PropOp41
 70
     1
102
RTVSPost2010Prop42
 90
       50
102
RTVSPost2010PropOp42
 70
     1
102
RTVSPost2010Prop43
 90
        3
102
RTVSPost2010PropOp43
 70
     1
102
RTVSPost2010Prop44ColorIndex
 90
        5
102
RTVSPost2010Prop44ColorRGB
 90
      255
102
RTVSPost2010PropOp44
 70
     1
102
RTVSPost2010Prop45
280
     0
102
RTVSPost2010PropOp45
 70
     1
102
RTVSPost2010Prop46
 90
       50
102
RTVSPost2010PropOp46
 70
     1
102
RTVSPost2010Prop47
 90
       50
102
RTVSPost2010PropOp47
 70
     1
102
RTVSPost2010Prop48
 90
       50
102
RTVSPost2010PropOp48
 70
     1
102
RTVSPost2010Prop49
280
     0
102
RTVSPost2010PropOp49
 70
     1
102
RTVSPost2010Prop50
 90
       50
102
RTVSPost2010PropOp50
 70
     1
102
RTVSPost2010Prop51ColorIndex
 90
      256
102
RTVSPost2010Prop51ColorRGB
 90
-16777216
102
RTVSPost2010PropOp51
 70
     0
102
RTVSPost2010Prop52
140
1.0
102
RTVSPost2010PropOp52
 70
     0
102
RTVSPost2010Prop53
 90
        2
102
RTVSPost2010PropOp53
 70
     1
102
RTVSPost2010Prop54
  1
strokes_ogs.tif
102
RTVSPost2010PropOp54
 70
     1
102
RTVSPost2010Prop55
280
     0
102
RTVSPost2010PropOp55
 70
     1
102
RTVSPost2010Prop56
140
1.0
102
RTVSPost2010PropOp56
 70
     1
102
RTVSPost2010Prop57
140
1.0
102
RTVSPost2010PropOp57
 70
     1
102
RTVSPropertyOp0
 70
     1
102
RTVSPropertyOp1
 70
     1
102
RTVSPropertyOp2
 70
     1
102
RTVSPropertyOp3
 70
     1
102
RTVSPropertyOp4
 70
     1
102
RTVSPropertyOp5
 70
     1
102
RTVSPropertyOp6
 70
     1
102
RTVSPropertyOp7
 70
     1
102
RTVSPropertyOp8
 70
     1
102
RTVSPropertyOp9
 70
     1
102
RTVSPropertyOp10
 70
     1
102
RTVSPropertyOp11
 70
     1
102
RTVSPropertyOp12
 70
     1
102
RTVSPropertyOp13
 70
     1
102
RTVSPropertyOp14
 70
     1
102
RTVSPropertyOp15
 70
     1
102
RTVSPropertyOp16
 70
     1
102
RTVSPropertyOp17
 70
     1
102
RTVSPropertyOp18
 70
     1
102
RTVSPropertyOp19
 70
     1
102
RTVSPropertyOp20
 70
     1
102
RTVSPropertyOp21
 70
     1
102
RTVSPropertyOp22
 70
     1
102
RTVSPropertyOp23
 70
     1
102
RTVSPropertyOp24
 70
     1
102
RTVSPropertyOp25
 70
     1
102
RTVSPropertyOp26
 70
     1
102
RTVSPropertyOp27
 70
     1
102
RTVSPropertyOp28
 70
     1
102
RTVSPropertyOp29
 70
     1
102
RTVSPropertyOp30
 70
     1
102
RTVSPropertyOp31
 70
     1
102
RTVSPropertyOp32
 70
     1
102
RTVSPropertyOp33
 70
     1
102
RTVSPropertyOp34
 70
     1
102
RTVSPropertyOp35
 70
     1
102
RTVSPropertyOp36
 70
     1
102
RTVSPropertyOp37
 70
     1
102
RTVSPropertyOp38
 70
     1
102
RTVSPropertyOp39
 70
     1
102
RTVSPropertyOp40
 70
     1
102
RTVSPropertyOp41
 70
     1
102
RTVSPropertyOp42
 70
     1
102
RTVSPropertyOp43
 70
     1
102
RTVSPropertyOp44
 70
     1
102
RTVSPropertyOp45
 70
     1
102
RTVSPropertyOp46
 70
     1
102
RTVSPropertyOp47
 70
     1
102
RTVSPropertyOp48
 70
     1
102
RTVSPropertyOp49
 70
     1
102
RTVSPropertyOp50
 70
     1
102
RTVSPropertyOp51
 70
     0
102
RTVSPropertyOp52
 70
     0
102
RTVSPropertyOp53
 70
     1
102
RTVSPropertyOp54
 70
     1
102
RTVSPropertyOp55
 70
     1
102
RTVSPropertyOp56
 70
     1
102
RTVSPropertyOp57
 70
     1
102
RTVSPropertyOp58
 70
     1
102
RTVSPropertyOp59
 70
     1
102
RTVSPropertyOp60
 70
     1
102
RTVSPropertyOp61
 70
     1
102
RTVSPropertyOp62
 70
     1
  0
XRECORD
  5
224
102
{ACAD_REACTORS
330
223
102
}
330
223
100
AcDbXrecord
280
     1
102
RTVSPost2010Prop28
280
     0
102
RTVSPost2010PropOp28
 70
     1
102
RTVSPost2010Prop29
280
     1
102
RTVSPost2010PropOp29
 70
     1
102
RTVSPost2010Prop30
280
     1
102
RTVSPost2010PropOp30
 70
     1
102
RTVSPost2010Prop31
280
     0
102
RTVSPost2010PropOp31
 70
     1
102
RTVSPost2010Prop32
280
     0
102
RTVSPost2010PropOp32
 70
     1
102
RTVSPost2010Prop33
280
     0
102
RTVSPost2010PropOp33
 70
     1
102
RTVSPost2010Prop34
280
     0
102
RTVSPost2010PropOp34
 70
     1
102
RTVSPost2010Prop35
280
     0
102
RTVSPost2010PropOp35
 70
     1
102
RTVSPost2010Prop36
280
     0
102
RTVSPost2010PropOp36
 70
     1
102
RTVSPost2010Prop37
 90
       50
102
RTVSPost2010PropOp37
 70
     1
102
RTVSPost2010Prop38
140
0.0
102
RTVSPost2010PropOp38
 70
     1
102
RTVSPost2010Prop39
140
1.0
102
RTVSPost2010PropOp39
 70
     1
102
RTVSPost2010Prop40
 90
        0
102
RTVSPost2010PropOp40
 70
     1
102
RTVSPost2010Prop41ColorIndex
 90
       18
102
RTVSPost2010Prop41ColorRGB
 90
        0
102
RTVSPost2010PropOp41
 70
     1
102
RTVSPost2010Prop42
 90
       50
102
RTVSPost2010PropOp42
 70
     1
102
RTVSPost2010Prop43
 90
        3
102
RTVSPost2010PropOp43
 70
     1
102
RTVSPost2010Prop44ColorIndex
 90
        5
102
RTVSPost2010Prop44ColorRGB
 90
      255
102
RTVSPost2010PropOp44
 70
     1
102
RTVSPost2010Prop45
280
     0
102
RTVSPost2010PropOp45
 70
     1
102
RTVSPost2010Prop46
 90
       50
102
RTVSPost2010PropOp46
 70
     1
102
RTVSPost2010Prop47
 90
       50
102
RTVSPost2010PropOp47
 70
     1
102
RTVSPost2010Prop48
 90
       50
102
RTVSPost2010PropOp48
 70
     1
102
RTVSPost2010Prop49
280
     0
102
RTVSPost2010PropOp49
 70
     1
102
RTVSPost2010Prop50
 90
       50
102
RTVSPost2010PropOp50
 70
     1
102
RTVSPost2010Prop51ColorIndex
 90
      256
102
RTVSPost2010Prop51ColorRGB
 90
-16777216
102
RTVSPost2010PropOp51
 70
     0
102
RTVSPost2010Prop52
140
1.0
102
RTVSPost2010PropOp52
 70
     0
102
RTVSPost2010Prop53
 90
        2
102
RTVSPost2010PropOp53
 70
     1
102
RTVSPost2010Prop54
  1
strokes_ogs.tif
102
RTVSPost2010PropOp54
 70
     1
102
RTVSPost2010Prop55
280
     0
102
RTVSPost2010PropOp55
 70
     1
102
RTVSPost2010Prop56
140
1.0
102
RTVSPost2010PropOp56
 70
     1
102
RTVSPost2010Prop57
140
1.0
102
RTVSPost2010PropOp57
 70
     1
102
RTVSPropertyOp0
 70
     1
102
RTVSPropertyOp1
 70
     1
102
RTVSPropertyOp2
 70
     1
102
RTVSPropertyOp3
 70
     1
102
RTVSPropertyOp4
 70
     1
102
RTVSPropertyOp5
 70
     1
102
RTVSPropertyOp6
 70
     1
102
RTVSPropertyOp7
 70
     1
102
RTVSPropertyOp8
 70
     1
102
RTVSPropertyOp9
 70
     1
102
RTVSPropertyOp10
 70
     1
102
RTVSPropertyOp11
 70
     1
102
RTVSPropertyOp12
 70
     1
102
RTVSPropertyOp13
 70
     1
102
RTVSPropertyOp14
 70
     1
102
RTVSPropertyOp15
 70
     1
102
RTVSPropertyOp16
 70
     1
102
RTVSPropertyOp17
 70
     1
102
RTVSPropertyOp18
 70
     1
102
RTVSPropertyOp19
 70
     1
102
RTVSPropertyOp20
 70
     1
102
RTVSPropertyOp21
 70
     1
102
RTVSPropertyOp22
 70
     1
102
RTVSPropertyOp23
 70
     1
102
RTVSPropertyOp24
 70
     1
102
RTVSPropertyOp25
 70
     1
102
RTVSPropertyOp26
 70
     1
102
RTVSPropertyOp27
 70
     1
102
RTVSPropertyOp28
 70
     1
102
RTVSPropertyOp29
 70
     1
102
RTVSPropertyOp30
 70
     1
102
RTVSPropertyOp31
 70
     1
102
RTVSPropertyOp32
 70
     1
102
RTVSPropertyOp33
 70
     1
102
RTVSPropertyOp34
 70
     1
102
RTVSPropertyOp35
 70
     1
102
RTVSPropertyOp36
 70
     1
102
RTVSPropertyOp37
 70
     1
102
RTVSPropertyOp38
 70
     1
102
RTVSPropertyOp39
 70
     1
102
RTVSPropertyOp40
 70
     1
102
RTVSPropertyOp41
 70
     1
102
RTVSPropertyOp42
 70
     1
102
RTVSPropertyOp43
 70
     1
102
RTVSPropertyOp44
 70
     1
102
RTVSPropertyOp45
 70
     1
102
RTVSPropertyOp46
 70
     1
102
RTVSPropertyOp47
 70
     1
102
RTVSPropertyOp48
 70
     1
102
RTVSPropertyOp49
 70
     1
102
RTVSPropertyOp50
 70
     1
102
RTVSPropertyOp51
 70
     0
102
RTVSPropertyOp52
 70
     0
102
RTVSPropertyOp53
 70
     1
102
RTVSPropertyOp54
 70
     1
102
RTVSPropertyOp55
 70
     1
102
RTVSPropertyOp56
 70
     1
102
RTVSPropertyOp57
 70
     1
102
RTVSPropertyOp58
 70
     1
102
RTVSPropertyOp59
 70
     1
102
RTVSPropertyOp60
 70
     1
102
RTVSPropertyOp61
 70
     1
102
RTVSPropertyOp62
 70
     1
  0
XRECORD
  5
226
102
{ACAD_REACTORS
330
225
102
}
330
225
100
AcDbXrecord
280
     1
102
RTVSPost2010Prop28
280
     0
102
RTVSPost2010PropOp28
 70
     1
102
RTVSPost2010Prop29
280
     1
102
RTVSPost2010PropOp29
 70
     1
102
RTVSPost2010Prop30
280
     1
102
RTVSPost2010PropOp30
 70
     1
102
RTVSPost2010Prop31
280
     0
102
RTVSPost2010PropOp31
 70
     1
102
RTVSPost2010Prop32
280
     0
102
RTVSPost2010PropOp32
 70
     1
102
RTVSPost2010Prop33
280
     0
102
RTVSPost2010PropOp33
 70
     1
102
RTVSPost2010Prop34
280
     0
102
RTVSPost2010PropOp34
 70
     1
102
RTVSPost2010Prop35
280
     0
102
RTVSPost2010PropOp35
 70
     1
102
RTVSPost2010Prop36
280
     0
102
RTVSPost2010PropOp36
 70
     1
102
RTVSPost2010Prop37
 90
       50
102
RTVSPost2010PropOp37
 70
     1
102
RTVSPost2010Prop38
140
0.0
102
RTVSPost2010PropOp38
 70
     1
102
RTVSPost2010Prop39
140
1.0
102
RTVSPost2010PropOp39
 70
     1
102
RTVSPost2010Prop40
 90
        0
102
RTVSPost2010PropOp40
 70
     1
102
RTVSPost2010Prop41ColorIndex
 90
       18
102
RTVSPost2010Prop41ColorRGB
 90
        0
102
RTVSPost2010PropOp41
 70
     1
102
RTVSPost2010Prop42
 90
       50
102
RTVSPost2010PropOp42
 70
     1
102
RTVSPost2010Prop43
 90
        3
102
RTVSPost2010PropOp43
 70
     1
102
RTVSPost2010Prop44ColorIndex
 90
        5
102
RTVSPost2010Prop44ColorRGB
 90
      255
102
RTVSPost2010PropOp44
 70
     1
102
RTVSPost2010Prop45
280
     0
102
RTVSPost2010PropOp45
 70
     1
102
RTVSPost2010Prop46
 90
       50
102
RTVSPost2010PropOp46
 70
     1
102
RTVSPost2010Prop47
 90
       50
102
RTVSPost2010PropOp47
 70
     1
102
RTVSPost2010Prop48
 90
       50
102
RTVSPost2010PropOp48
 70
     1
102
RTVSPost2010Prop49
280
     0
102
RTVSPost2010PropOp49
 70
     1
102
RTVSPost2010Prop50
 90
       50
102
RTVSPost2010PropOp50
 70
     1
102
RTVSPost2010Prop51ColorIndex
 90
      256
102
RTVSPost2010Prop51ColorRGB
 90
-16777216
102
RTVSPost2010PropOp51
 70
     0
102
RTVSPost2010Prop52
140
1.0
102
RTVSPost2010PropOp52
 70
     0
102
RTVSPost2010Prop53
 90
        2
102
RTVSPost2010PropOp53
 70
     1
102
RTVSPost2010Prop54
  1
strokes_ogs.tif
102
RTVSPost2010PropOp54
 70
     1
102
RTVSPost2010Prop55
280
     0
102
RTVSPost2010PropOp55
 70
     1
102
RTVSPost2010Prop56
140
1.0
102
RTVSPost2010PropOp56
 70
     1
102
RTVSPost2010Prop57
140
1.0
102
RTVSPost2010PropOp57
 70
     1
102
RTVSPropertyOp0
 70
     1
102
RTVSPropertyOp1
 70
     1
102
RTVSPropertyOp2
 70
     1
102
RTVSPropertyOp3
 70
     1
102
RTVSPropertyOp4
 70
     1
102
RTVSPropertyOp5
 70
     1
102
RTVSPropertyOp6
 70
     1
102
RTVSPropertyOp7
 70
     1
102
RTVSPropertyOp8
 70
     1
102
RTVSPropertyOp9
 70
     1
102
RTVSPropertyOp10
 70
     1
102
RTVSPropertyOp11
 70
     1
102
RTVSPropertyOp12
 70
     1
102
RTVSPropertyOp13
 70
     1
102
RTVSPropertyOp14
 70
     1
102
RTVSPropertyOp15
 70
     1
102
RTVSPropertyOp16
 70
     1
102
RTVSPropertyOp17
 70
     1
102
RTVSPropertyOp18
 70
     1
102
RTVSPropertyOp19
 70
     1
102
RTVSPropertyOp20
 70
     1
102
RTVSPropertyOp21
 70
     1
102
RTVSPropertyOp22
 70
     1
102
RTVSPropertyOp23
 70
     1
102
RTVSPropertyOp24
 70
     1
102
RTVSPropertyOp25
 70
     1
102
RTVSPropertyOp26
 70
     1
102
RTVSPropertyOp27
 70
     1
102
RTVSPropertyOp28
 70
     1
102
RTVSPropertyOp29
 70
     1
102
RTVSPropertyOp30
 70
     1
102
RTVSPropertyOp31
 70
     1
102
RTVSPropertyOp32
 70
     1
102
RTVSPropertyOp33
 70
     1
102
RTVSPropertyOp34
 70
     1
102
RTVSPropertyOp35
 70
     1
102
RTVSPropertyOp36
 70
     1
102
RTVSPropertyOp37
 70
     1
102
RTVSPropertyOp38
 70
     1
102
RTVSPropertyOp39
 70
     1
102
RTVSPropertyOp40
 70
     1
102
RTVSPropertyOp41
 70
     1
102
RTVSPropertyOp42
 70
     1
102
RTVSPropertyOp43
 70
     1
102
RTVSPropertyOp44
 70
     1
102
RTVSPropertyOp45
 70
     1
102
RTVSPropertyOp46
 70
     1
102
RTVSPropertyOp47
 70
     1
102
RTVSPropertyOp48
 70
     1
102
RTVSPropertyOp49
 70
     1
102
RTVSPropertyOp50
 70
     1
102
RTVSPropertyOp51
 70
     0
102
RTVSPropertyOp52
 70
     0
102
RTVSPropertyOp53
 70
     1
102
RTVSPropertyOp54
 70
     1
102
RTVSPropertyOp55
 70
     1
102
RTVSPropertyOp56
 70
     1
102
RTVSPropertyOp57
 70
     1
102
RTVSPropertyOp58
 70
     1
102
RTVSPropertyOp59
 70
     1
102
RTVSPropertyOp60
 70
     1
102
RTVSPropertyOp61
 70
     1
102
RTVSPropertyOp62
 70
     1
  0
XRECORD
  5
21C
102
{ACAD_REACTORS
330
21B
102
}
330
21B
100
AcDbXrecord
280
     1
102
RTVSPost2010Prop28
280
     0
102
RTVSPost2010PropOp28
 70
     1
102
RTVSPost2010Prop29
280
     1
102
RTVSPost2010PropOp29
 70
     1
102
RTVSPost2010Prop30
280
     1
102
RTVSPost2010PropOp30
 70
     1
102
RTVSPost2010Prop31
280
     0
102
RTVSPost2010PropOp31
 70
     1
102
RTVSPost2010Prop32
280
     0
102
RTVSPost2010PropOp32
 70
     1
102
RTVSPost2010Prop33
280
     0
102
RTVSPost2010PropOp33
 70
     1
102
RTVSPost2010Prop34
280
     0
102
RTVSPost2010PropOp34
 70
     1
102
RTVSPost2010Prop35
280
     0
102
RTVSPost2010PropOp35
 70
     1
102
RTVSPost2010Prop36
280
     0
102
RTVSPost2010PropOp36
 70
     1
102
RTVSPost2010Prop37
 90
       50
102
RTVSPost2010PropOp37
 70
     1
102
RTVSPost2010Prop38
140
0.0
102
RTVSPost2010PropOp38
 70
     1
102
RTVSPost2010Prop39
140
1.0
102
RTVSPost2010PropOp39
 70
     1
102
RTVSPost2010Prop40
 90
        0
102
RTVSPost2010PropOp40
 70
     1
102
RTVSPost2010Prop41ColorIndex
 90
       18
102
RTVSPost2010Prop41ColorRGB
 90
        0
102
RTVSPost2010PropOp41
 70
     1
102
RTVSPost2010Prop42
 90
       50
102
RTVSPost2010PropOp42
 70
     1
102
RTVSPost2010Prop43
 90
        3
102
RTVSPost2010PropOp43
 70
     1
102
RTVSPost2010Prop44ColorIndex
 90
        5
102
RTVSPost2010Prop44ColorRGB
 90
      255
102
RTVSPost2010PropOp44
 70
     1
102
RTVSPost2010Prop45
280
     0
102
RTVSPost2010PropOp45
 70
     1
102
RTVSPost2010Prop46
 90
       50
102
RTVSPost2010PropOp46
 70
     1
102
RTVSPost2010Prop47
 90
       50
102
RTVSPost2010PropOp47
 70
     1
102
RTVSPost2010Prop48
 90
       50
102
RTVSPost2010PropOp48
 70
     1
102
RTVSPost2010Prop49
280
     0
102
RTVSPost2010PropOp49
 70
     1
102
RTVSPost2010Prop50
 90
       50
102
RTVSPost2010PropOp50
 70
     1
102
RTVSPost2010Prop51ColorIndex
 90
      256
102
RTVSPost2010Prop51ColorRGB
 90
-16777216
102
RTVSPost2010PropOp51
 70
     0
102
RTVSPost2010Prop52
140
1.0
102
RTVSPost2010PropOp52
 70
     0
102
RTVSPost2010Prop53
 90
        2
102
RTVSPost2010PropOp53
 70
     1
102
RTVSPost2010Prop54
  1
strokes_ogs.tif
102
RTVSPost2010PropOp54
 70
     1
102
RTVSPost2010Prop55
280
     0
102
RTVSPost2010PropOp55
 70
     1
102
RTVSPost2010Prop56
140
1.0
102
RTVSPost2010PropOp56
 70
     1
102
RTVSPost2010Prop57
140
1.0
102
RTVSPost2010PropOp57
 70
     1
102
RTVSPropertyOp0
 70
     1
102
RTVSPropertyOp1
 70
     1
102
RTVSPropertyOp2
 70
     1
102
RTVSPropertyOp3
 70
     1
102
RTVSPropertyOp4
 70
     1
102
RTVSPropertyOp5
 70
     1
102
RTVSPropertyOp6
 70
     1
102
RTVSPropertyOp7
 70
     1
102
RTVSPropertyOp8
 70
     1
102
RTVSPropertyOp9
 70
     1
102
RTVSPropertyOp10
 70
     1
102
RTVSPropertyOp11
 70
     1
102
RTVSPropertyOp12
 70
     1
102
RTVSPropertyOp13
 70
     1
102
RTVSPropertyOp14
 70
     1
102
RTVSPropertyOp15
 70
     1
102
RTVSPropertyOp16
 70
     1
102
RTVSPropertyOp17
 70
     1
102
RTVSPropertyOp18
 70
     1
102
RTVSPropertyOp19
 70
     1
102
RTVSPropertyOp20
 70
     1
102
RTVSPropertyOp21
 70
     1
102
RTVSPropertyOp22
 70
     1
102
RTVSPropertyOp23
 70
     1
102
RTVSPropertyOp24
 70
     1
102
RTVSPropertyOp25
 70
     1
102
RTVSPropertyOp26
 70
     1
102
RTVSPropertyOp27
 70
     1
102
RTVSPropertyOp28
 70
     1
102
RTVSPropertyOp29
 70
     1
102
RTVSPropertyOp30
 70
     1
102
RTVSPropertyOp31
 70
     1
102
RTVSPropertyOp32
 70
     1
102
RTVSPropertyOp33
 70
     1
102
RTVSPropertyOp34
 70
     1
102
RTVSPropertyOp35
 70
     1
102
RTVSPropertyOp36
 70
     1
102
RTVSPropertyOp37
 70
     1
102
RTVSPropertyOp38
 70
     1
102
RTVSPropertyOp39
 70
     1
102
RTVSPropertyOp40
 70
     1
102
RTVSPropertyOp41
 70
     1
102
RTVSPropertyOp42
 70
     1
102
RTVSPropertyOp43
 70
     1
102
RTVSPropertyOp44
 70
     1
102
RTVSPropertyOp45
 70
     1
102
RTVSPropertyOp46
 70
     1
102
RTVSPropertyOp47
 70
     1
102
RTVSPropertyOp48
 70
     1
102
RTVSPropertyOp49
 70
     1
102
RTVSPropertyOp50
 70
     1
102
RTVSPropertyOp51
 70
     0
102
RTVSPropertyOp52
 70
     0
102
RTVSPropertyOp53
 70
     1
102
RTVSPropertyOp54
 70
     1
102
RTVSPropertyOp55
 70
     1
102
RTVSPropertyOp56
 70
     1
102
RTVSPropertyOp57
 70
     1
102
RTVSPropertyOp58
 70
     1
102
RTVSPropertyOp59
 70
     1
102
RTVSPropertyOp60
 70
     1
102
RTVSPropertyOp61
 70
     1
102
RTVSPropertyOp62
 70
     1
  0
XRECORD
  5
210
102
{ACAD_REACTORS
330
20F
102
}
330
20F
100
AcDbXrecord
280
     1
102
RTVSPost2010Prop28
280
     0
102
RTVSPost2010PropOp28
 70
     1
102
RTVSPost2010Prop29
280
     1
102
RTVSPost2010PropOp29
 70
     1
102
RTVSPost2010Prop30
280
     1
102
RTVSPost2010PropOp30
 70
     1
102
RTVSPost2010Prop31
280
     0
102
RTVSPost2010PropOp31
 70
     1
102
RTVSPost2010Prop32
280
     0
102
RTVSPost2010PropOp32
 70
     1
102
RTVSPost2010Prop33
280
     0
102
RTVSPost2010PropOp33
 70
     1
102
RTVSPost2010Prop34
280
     0
102
RTVSPost2010PropOp34
 70
     1
102
RTVSPost2010Prop35
280
     0
102
RTVSPost2010PropOp35
 70
     1
102
RTVSPost2010Prop36
280
     0
102
RTVSPost2010PropOp36
 70
     1
102
RTVSPost2010Prop37
 90
       50
102
RTVSPost2010PropOp37
 70
     1
102
RTVSPost2010Prop38
140
0.0
102
RTVSPost2010PropOp38
 70
     1
102
RTVSPost2010Prop39
140
1.0
102
RTVSPost2010PropOp39
 70
     1
102
RTVSPost2010Prop40
 90
        0
102
RTVSPost2010PropOp40
 70
     1
102
RTVSPost2010Prop41ColorIndex
 90
       18
102
RTVSPost2010Prop41ColorRGB
 90
        0
102
RTVSPost2010PropOp41
 70
     1
102
RTVSPost2010Prop42
 90
       50
102
RTVSPost2010PropOp42
 70
     1
102
RTVSPost2010Prop43
 90
        3
102
RTVSPost2010PropOp43
 70
     1
102
RTVSPost2010Prop44ColorIndex
 90
        5
102
RTVSPost2010Prop44ColorRGB
 90
      255
102
RTVSPost2010PropOp44
 70
     1
102
RTVSPost2010Prop45
280
     0
102
RTVSPost2010PropOp45
 70
     1
102
RTVSPost2010Prop46
 90
       50
102
RTVSPost2010PropOp46
 70
     1
102
RTVSPost2010Prop47
 90
       50
102
RTVSPost2010PropOp47
 70
     1
102
RTVSPost2010Prop48
 90
       50
102
RTVSPost2010PropOp48
 70
     1
102
RTVSPost2010Prop49
280
     0
102
RTVSPost2010PropOp49
 70
     1
102
RTVSPost2010Prop50
 90
       50
102
RTVSPost2010PropOp50
 70
     1
102
RTVSPost2010Prop51ColorIndex
 90
      256
102
RTVSPost2010Prop51ColorRGB
 90
-16777216
102
RTVSPost2010PropOp51
 70
     0
102
RTVSPost2010Prop52
140
1.0
102
RTVSPost2010PropOp52
 70
     0
102
RTVSPost2010Prop53
 90
        2
102
RTVSPost2010PropOp53
 70
     1
102
RTVSPost2010Prop54
  1
strokes_ogs.tif
102
RTVSPost2010PropOp54
 70
     1
102
RTVSPost2010Prop55
280
     0
102
RTVSPost2010PropOp55
 70
     1
102
RTVSPost2010Prop56
140
1.0
102
RTVSPost2010PropOp56
 70
     1
102
RTVSPost2010Prop57
140
1.0
102
RTVSPost2010PropOp57
 70
     1
102
RTVSPropertyOp0
 70
     1
102
RTVSPropertyOp1
 70
     1
102
RTVSPropertyOp2
 70
     1
102
RTVSPropertyOp3
 70
     1
102
RTVSPropertyOp4
 70
     1
102
RTVSPropertyOp5
 70
     1
102
RTVSPropertyOp6
 70
     1
102
RTVSPropertyOp7
 70
     1
102
RTVSPropertyOp8
 70
     1
102
RTVSPropertyOp9
 70
     1
102
RTVSPropertyOp10
 70
     1
102
RTVSPropertyOp11
 70
     1
102
RTVSPropertyOp12
 70
     1
102
RTVSPropertyOp13
 70
     1
102
RTVSPropertyOp14
 70
     1
102
RTVSPropertyOp15
 70
     1
102
RTVSPropertyOp16
 70
     1
102
RTVSPropertyOp17
 70
     1
102
RTVSPropertyOp18
 70
     1
102
RTVSPropertyOp19
 70
     1
102
RTVSPropertyOp20
 70
     1
102
RTVSPropertyOp21
 70
     1
102
RTVSPropertyOp22
 70
     1
102
RTVSPropertyOp23
 70
     1
102
RTVSPropertyOp24
 70
     1
102
RTVSPropertyOp25
 70
     1
102
RTVSPropertyOp26
 70
     1
102
RTVSPropertyOp27
 70
     1
102
RTVSPropertyOp28
 70
     1
102
RTVSPropertyOp29
 70
     1
102
RTVSPropertyOp30
 70
     1
102
RTVSPropertyOp31
 70
     1
102
RTVSPropertyOp32
 70
     1
102
RTVSPropertyOp33
 70
     1
102
RTVSPropertyOp34
 70
     1
102
RTVSPropertyOp35
 70
     1
102
RTVSPropertyOp36
 70
     1
102
RTVSPropertyOp37
 70
     1
102
RTVSPropertyOp38
 70
     1
102
RTVSPropertyOp39
 70
     1
102
RTVSPropertyOp40
 70
     1
102
RTVSPropertyOp41
 70
     1
102
RTVSPropertyOp42
 70
     1
102
RTVSPropertyOp43
 70
     1
102
RTVSPropertyOp44
 70
     1
102
RTVSPropertyOp45
 70
     1
102
RTVSPropertyOp46
 70
     1
102
RTVSPropertyOp47
 70
     1
102
RTVSPropertyOp48
 70
     1
102
RTVSPropertyOp49
 70
     1
102
RTVSPropertyOp50
 70
     1
102
RTVSPropertyOp51
 70
     0
102
RTVSPropertyOp52
 70
     0
102
RTVSPropertyOp53
 70
     1
102
RTVSPropertyOp54
 70
     1
102
RTVSPropertyOp55
 70
     1
102
RTVSPropertyOp56
 70
     1
102
RTVSPropertyOp57
 70
     1
102
RTVSPropertyOp58
 70
     1
102
RTVSPropertyOp59
 70
     1
102
RTVSPropertyOp60
 70
     1
102
RTVSPropertyOp61
 70
     1
102
RTVSPropertyOp62
 70
     1
  0
XRECORD
  5
228
102
{ACAD_REACTORS
330
227
102
}
330
227
100
AcDbXrecord
280
     1
102
RTVSPost2010Prop28
280
     0
102
RTVSPost2010PropOp28
 70
     1
102
RTVSPost2010Prop29
280
     1
102
RTVSPost2010PropOp29
 70
     1
102
RTVSPost2010Prop30
280
     1
102
RTVSPost2010PropOp30
 70
     1
102
RTVSPost2010Prop31
280
     0
102
RTVSPost2010PropOp31
 70
     1
102
RTVSPost2010Prop32
280
     0
102
RTVSPost2010PropOp32
 70
     1
102
RTVSPost2010Prop33
280
     0
102
RTVSPost2010PropOp33
 70
     1
102
RTVSPost2010Prop34
280
     0
102
RTVSPost2010PropOp34
 70
     1
102
RTVSPost2010Prop35
280
     0
102
RTVSPost2010PropOp35
 70
     1
102
RTVSPost2010Prop36
280
     0
102
RTVSPost2010PropOp36
 70
     1
102
RTVSPost2010Prop37
 90
       50
102
RTVSPost2010PropOp37
 70
     1
102
RTVSPost2010Prop38
140
0.0
102
RTVSPost2010PropOp38
 70
     1
102
RTVSPost2010Prop39
140
1.0
102
RTVSPost2010PropOp39
 70
     1
102
RTVSPost2010Prop40
 90
        0
102
RTVSPost2010PropOp40
 70
     1
102
RTVSPost2010Prop41ColorIndex
 90
       18
102
RTVSPost2010Prop41ColorRGB
 90
        0
102
RTVSPost2010PropOp41
 70
     1
102
RTVSPost2010Prop42
 90
       50
102
RTVSPost2010PropOp42
 70
     1
102
RTVSPost2010Prop43
 90
        3
102
RTVSPost2010PropOp43
 70
     1
102
RTVSPost2010Prop44ColorIndex
 90
        5
102
RTVSPost2010Prop44ColorRGB
 90
      255
102
RTVSPost2010PropOp44
 70
     1
102
RTVSPost2010Prop45
280
     0
102
RTVSPost2010PropOp45
 70
     1
102
RTVSPost2010Prop46
 90
       50
102
RTVSPost2010PropOp46
 70
     1
102
RTVSPost2010Prop47
 90
       50
102
RTVSPost2010PropOp47
 70
     1
102
RTVSPost2010Prop48
 90
       50
102
RTVSPost2010PropOp48
 70
     1
102
RTVSPost2010Prop49
280
     0
102
RTVSPost2010PropOp49
 70
     1
102
RTVSPost2010Prop50
 90
       50
102
RTVSPost2010PropOp50
 70
     1
102
RTVSPost2010Prop51ColorIndex
 90
      256
102
RTVSPost2010Prop51ColorRGB
 90
-16777216
102
RTVSPost2010PropOp51
 70
     0
102
RTVSPost2010Prop52
140
1.0
102
RTVSPost2010PropOp52
 70
     0
102
RTVSPost2010Prop53
 90
        2
102
RTVSPost2010PropOp53
 70
     1
102
RTVSPost2010Prop54
  1
strokes_ogs.tif
102
RTVSPost2010PropOp54
 70
     1
102
RTVSPost2010Prop55
280
     0
102
RTVSPost2010PropOp55
 70
     1
102
RTVSPost2010Prop56
140
1.0
102
RTVSPost2010PropOp56
 70
     1
102
RTVSPost2010Prop57
140
1.0
102
RTVSPost2010PropOp57
 70
     1
102
RTVSPropertyOp0
 70
     1
102
RTVSPropertyOp1
 70
     1
102
RTVSPropertyOp2
 70
     1
102
RTVSPropertyOp3
 70
     1
102
RTVSPropertyOp4
 70
     1
102
RTVSPropertyOp5
 70
     1
102
RTVSPropertyOp6
 70
     1
102
RTVSPropertyOp7
 70
     1
102
RTVSPropertyOp8
 70
     1
102
RTVSPropertyOp9
 70
     1
102
RTVSPropertyOp10
 70
     1
102
RTVSPropertyOp11
 70
     1
102
RTVSPropertyOp12
 70
     1
102
RTVSPropertyOp13
 70
     1
102
RTVSPropertyOp14
 70
     1
102
RTVSPropertyOp15
 70
     1
102
RTVSPropertyOp16
 70
     1
102
RTVSPropertyOp17
 70
     1
102
RTVSPropertyOp18
 70
     1
102
RTVSPropertyOp19
 70
     1
102
RTVSPropertyOp20
 70
     1
102
RTVSPropertyOp21
 70
     1
102
RTVSPropertyOp22
 70
     1
102
RTVSPropertyOp23
 70
     1
102
RTVSPropertyOp24
 70
     1
102
RTVSPropertyOp25
 70
     1
102
RTVSPropertyOp26
 70
     1
102
RTVSPropertyOp27
 70
     1
102
RTVSPropertyOp28
 70
     1
102
RTVSPropertyOp29
 70
     1
102
RTVSPropertyOp30
 70
     1
102
RTVSPropertyOp31
 70
     1
102
RTVSPropertyOp32
 70
     1
102
RTVSPropertyOp33
 70
     1
102
RTVSPropertyOp34
 70
     1
102
RTVSPropertyOp35
 70
     1
102
RTVSPropertyOp36
 70
     1
102
RTVSPropertyOp37
 70
     1
102
RTVSPropertyOp38
 70
     1
102
RTVSPropertyOp39
 70
     1
102
RTVSPropertyOp40
 70
     1
102
RTVSPropertyOp41
 70
     1
102
RTVSPropertyOp42
 70
     1
102
RTVSPropertyOp43
 70
     1
102
RTVSPropertyOp44
 70
     1
102
RTVSPropertyOp45
 70
     1
102
RTVSPropertyOp46
 70
     1
102
RTVSPropertyOp47
 70
     1
102
RTVSPropertyOp48
 70
     1
102
RTVSPropertyOp49
 70
     1
102
RTVSPropertyOp50
 70
     1
102
RTVSPropertyOp51
 70
     0
102
RTVSPropertyOp52
 70
     0
102
RTVSPropertyOp53
 70
     1
102
RTVSPropertyOp54
 70
     1
102
RTVSPropertyOp55
 70
     1
102
RTVSPropertyOp56
 70
     1
102
RTVSPropertyOp57
 70
     1
102
RTVSPropertyOp58
 70
     1
102
RTVSPropertyOp59
 70
     1
102
RTVSPropertyOp60
 70
     1
102
RTVSPropertyOp61
 70
     1
102
RTVSPropertyOp62
 70
     1
  0
ENDSEC
  0
EOF
