  0
SECTION
  2
HEADER
  9
$ACADVER
  1
AC1027
  9
$ACADMAINTVER
 70
   125
  9
$DWGCODEPAGE
  3
ANSI_1252
  9
$LASTSAVEDBY
  1
ufficio.tecnico
  9
$REQUIREDVERSIONS
160
                 0
  9
$INSBASE
 10
0.0
 20
0.0
 30
0.0
  9
$EXTMIN
 10
66.3085696
 20
68.15536
 30
0.0
  9
$EXTMAX
 10
1240.4715232
 20
1784.351296
 30
0.0
  9
$LIMMIN
 10
0.0
 20
0.0
  9
$LIMMAX
 10
420.0
 20
297.0
  9
$ORTHOMODE
 70
     0
  9
$REGENMODE
 70
     1
  9
$FILLMODE
 70
     1
  9
$QTEXTMODE
 70
     0
  9
$MIRRTEXT
 70
     0
  9
$LTSCALE
 40
1.0
  9
$ATTMODE
 70
     1
  9
$TEXTSIZE
 40
2.5
  9
$TRACEWID
 40
1.0
  9
$TEXTSTYLE
  7
Standard
  9
$CLAYER
  8
0
  9
$CELTYPE
  6
ByLayer
  9
$CECOLOR
 62
   256
  9
$CELTSCALE
 40
1.0
  9
$DISPSILH
 70
     0
  9
$DIMSCALE
 40
1.0
  9
$DIMASZ
 40
2.5
  9
$DIMEXO
 40
0.625
  9
$DIMDLI
 40
3.75
  9
$DIMRND
 40
0.0
  9
$DIMDLE
 40
0.0
  9
$DIMEXE
 40
1.25
  9
$DIMTP
 40
0.0
  9
$DIMTM
 40
0.0
  9
$DIMTXT
 40
2.5
  9
$DIMCEN
 40
2.5
  9
$DIMTSZ
 40
0.0
  9
$DIMTOL
 70
     0
  9
$DIMLIM
 70
     0
  9
$DIMTIH
 70
     0
  9
$DIMTOH
 70
     0
  9
$DIMSE1
 70
     0
  9
$DIMSE2
 70
     0
  9
$DIMTAD
 70
     1
  9
$DIMZIN
 70
     8
  9
$DIMBLK
  1

  9
$DIMASO
 70
     1
  9
$DIMSHO
 70
     1
  9
$DIMPOST
  1

  9
$DIMAPOST
  1

  9
$DIMALT
 70
     0
  9
$DIMALTD
 70
     3
  9
$DIMALTF
 40
0.03937007874016
  9
$DIMLFAC
 40
1.0
  9
$DIMTOFL
 70
     1
  9
$DIMTVP
 40
0.0
  9
$DIMTIX
 70
     0
  9
$DIMSOXD
 70
     0
  9
$DIMSAH
 70
     0
  9
$DIMBLK1
  1

  9
$DIMBLK2
  1

  9
$DIMSTYLE
  2
ISO-25
  9
$DIMCLRD
 70
     0
  9
$DIMCLRE
 70
     0
  9
$DIMCLRT
 70
     0
  9
$DIMTFAC
 40
1.0
  9
$DIMGAP
 40
0.625
  9
$DIMJUST
 70
     0
  9
$DIMSD1
 70
     0
  9
$DIMSD2
 70
     0
  9
$DIMTOLJ
 70
     0
  9
$DIMTZIN
 70
     8
  9
$DIMALTZ
 70
     0
  9
$DIMALTTZ
 70
     0
  9
$DIMUPT
 70
     0
  9
$DIMDEC
 70
     2
  9
$DIMTDEC
 70
     2
  9
$DIMALTU
 70
     2
  9
$DIMALTTD
 70
     3
  9
$DIMTXSTY
  7
Standard
  9
$DIMAUNIT
 70
     0
  9
$DIMADEC
 70
     0
  9
$DIMALTRND
 40
0.0
  9
$DIMAZIN
 70
     0
  9
$DIMDSEP
 70
    44
  9
$DIMATFIT
 70
     3
  9
$DIMFRAC
 70
     0
  9
$DIMLDRBLK
  1

  9
$DIMLUNIT
 70
     2
  9
$DIMLWD
 70
    -2
  9
$DIMLWE
 70
    -2
  9
$DIMTMOVE
 70
     0
  9
$DIMFXL
 40
1.0
  9
$DIMFXLON
 70
     0
  9
$DIMJOGANG
 40
0.7853981633974483
  9
$DIMTFILL
 70
     0
  9
$DIMTFILLCLR
 70
     0
  9
$DIMARCSYM
 70
     0
  9
$DIMLTYPE
  6

  9
$DIMLTEX1
  6

  9
$DIMLTEX2
  6

  9
$DIMTXTDIRECTION
 70
     0
  9
$LUNITS
 70
     2
  9
$LUPREC
 70
     4
  9
$SKETCHINC
 40
1.0
  9
$FILLETRAD
 40
0.0
  9
$AUNITS
 70
     0
  9
$AUPREC
 70
     0
  9
$MENU
  1
.
  9
$ELEVATION
 40
0.0
  9
$PELEVATION
 40
0.0
  9
$THICKNESS
 40
0.0
  9
$LIMCHECK
 70
     0
  9
$CHAMFERA
 40
0.0
  9
$CHAMFERB
 40
0.0
  9
$CHAMFERC
 40
0.0
  9
$CHAMFERD
 40
0.0
  9
$SKPOLY
 70
     0
  9
$TDCREATE
 40
2459809.463402778
  9
$TDUCREATE
 40
2459809.380069445
  9
$TDUPDATE
 40
2459809.464317129
  9
$TDUUPDATE
 40
2459809.380983796
  9
$TDINDWG
 40
0.0009143519
  9
$TDUSRTIMER
 40
0.0009143519
  9
$USRTIMER
 70
     1
  9
$ANGBASE
 50
0.0
  9
$ANGDIR
 70
     0
  9
$PDMODE
 70
     0
  9
$PDSIZE
 40
0.0
  9
$PLINEWID
 40
0.0
  9
$SPLFRAME
 70
     0
  9
$SPLINETYPE
 70
     6
  9
$SPLINESEGS
 70
     8
  9
$HANDSEED
  5
88A
  9
$SURFTAB1
 70
     6
  9
$SURFTAB2
 70
     6
  9
$SURFTYPE
 70
     6
  9
$SURFU
 70
     6
  9
$SURFV
 70
     6
  9
$UCSBASE
  2

  9
$UCSNAME
  2

  9
$UCSORG
 10
0.0
 20
0.0
 30
0.0
  9
$UCSXDIR
 10
1.0
 20
0.0
 30
0.0
  9
$UCSYDIR
 10
0.0
 20
1.0
 30
0.0
  9
$UCSORTHOREF
  2

  9
$UCSORTHOVIEW
 70
     0
  9
$UCSORGTOP
 10
0.0
 20
0.0
 30
0.0
  9
$UCSORGBOTTOM
 10
0.0
 20
0.0
 30
0.0
  9
$UCSORGLEFT
 10
0.0
 20
0.0
 30
0.0
  9
$UCSORGRIGHT
 10
0.0
 20
0.0
 30
0.0
  9
$UCSORGFRONT
 10
0.0
 20
0.0
 30
0.0
  9
$UCSORGBACK
 10
0.0
 20
0.0
 30
0.0
  9
$PUCSBASE
  2

  9
$PUCSNAME
  2

  9
$PUCSORG
 10
0.0
 20
0.0
 30
0.0
  9
$PUCSXDIR
 10
1.0
 20
0.0
 30
0.0
  9
$PUCSYDIR
 10
0.0
 20
1.0
 30
0.0
  9
$PUCSORTHOREF
  2

  9
$PUCSORTHOVIEW
 70
     0
  9
$PUCSORGTOP
 10
0.0
 20
0.0
 30
0.0
  9
$PUCSORGBOTTOM
 10
0.0
 20
0.0
 30
0.0
  9
$PUCSORGLEFT
 10
0.0
 20
0.0
 30
0.0
  9
$PUCSORGRIGHT
 10
0.0
 20
0.0
 30
0.0
  9
$PUCSORGFRONT
 10
0.0
 20
0.0
 30
0.0
  9
$PUCSORGBACK
 10
0.0
 20
0.0
 30
0.0
  9
$USERI1
 70
     0
  9
$USERI2
 70
     0
  9
$USERI3
 70
     0
  9
$USERI4
 70
     0
  9
$USERI5
 70
     0
  9
$USERR1
 40
0.0
  9
$USERR2
 40
0.0
  9
$USERR3
 40
0.0
  9
$USERR4
 40
0.0
  9
$USERR5
 40
0.0
  9
$WORLDVIEW
 70
     1
  9
$SHADEDGE
 70
     3
  9
$SHADEDIF
 70
    70
  9
$TILEMODE
 70
     1
  9
$MAXACTVP
 70
    64
  9
$PINSBASE
 10
0.0
 20
0.0
 30
0.0
  9
$PLIMCHECK
 70
     0
  9
$PEXTMIN
 10
0.0
 20
0.0
 30
0.0
  9
$PEXTMAX
 10
0.0
 20
0.0
 30
0.0
  9
$PLIMMIN
 10
0.0
 20
0.0
  9
$PLIMMAX
 10
12.0
 20
9.0
  9
$UNITMODE
 70
     0
  9
$VISRETAIN
 70
     1
  9
$PLINEGEN
 70
     0
  9
$PSLTSCALE
 70
     1
  9
$TREEDEPTH
 70
  3020
  9
$CMLSTYLE
  2
Standard
  9
$CMLJUST
 70
     0
  9
$CMLSCALE
 40
20.0
  9
$PROXYGRAPHICS
 70
     1
  9
$MEASUREMENT
 70
     1
  9
$CELWEIGHT
370
    -1
  9
$ENDCAPS
280
     0
  9
$JOINSTYLE
280
     0
  9
$LWDISPLAY
290
     0
  9
$INSUNITS
 70
     4
  9
$HYPERLINKBASE
  1

  9
$STYLESHEET
  1

  9
$XEDIT
290
     1
  9
$CEPSNTYPE
380
     0
  9
$PSTYLEMODE
290
     1
  9
$FINGERPRINTGUID
  2
{46585C2D-CA02-3B49-8A3F-1042A0F2183F}
  9
$VERSIONGUID
  2
{B997D152-3C68-5E41-AD95-409774AC4121}
  9
$EXTNAMES
290
     1
  9
$PSVPSCALE
 40
0.0
  9
$OLESTARTUP
290
     0
  9
$SORTENTS
280
   127
  9
$INDEXCTL
280
     0
  9
$HIDETEXT
280
     1
  9
$XCLIPFRAME
280
     2
  9
$HALOGAP
280
     0
  9
$OBSCOLOR
 70
   257
  9
$OBSLTYPE
280
     0
  9
$INTERSECTIONDISPLAY
280
     0
  9
$INTERSECTIONCOLOR
 70
   257
  9
$DIMASSOC
280
     2
  9
$PROJECTNAME
  1

  9
$CAMERADISPLAY
290
     0
  9
$LENSLENGTH
 40
50.0
  9
$CAMERAHEIGHT
 40
0.0
  9
$STEPSPERSEC
 40
2.0
  9
$STEPSIZE
 40
6.0
  9
$3DDWFPREC
 40
2.0
  9
$PSOLWIDTH
 40
5.0
  9
$PSOLHEIGHT
 40
80.0
  9
$LOFTANG1
 40
1.570796326794896
  9
$LOFTANG2
 40
1.570796326794896
  9
$LOFTMAG1
 40
0.0
  9
$LOFTMAG2
 40
0.0
  9
$LOFTPARAM
 70
     7
  9
$LOFTNORMALS
280
     1
  9
$LATITUDE
 40
37.795
  9
$LONGITUDE
 40
-122.394
  9
$NORTHDIRECTION
 40
0.0
  9
$TIMEZONE
 70
 -8000
  9
$LIGHTGLYPHDISPLAY
280
     1
  9
$TILEMODELIGHTSYNCH
280
     1
  9
$CMATERIAL
347
EC
  9
$SOLIDHIST
280
     0
  9
$SHOWHIST
280
     1
  9
$DWFFRAME
280
     2
  9
$DGNFRAME
280
     0
  9
$REALWORLDSCALE
290
     1
  9
$INTERFERECOLOR
 62
     1
  9
$INTERFEREOBJVS
345
F9
  9
$INTERFEREVPVS
346
F6
  9
$CSHADOW
280
     0
  9
$SHADOWPLANELOCATION
 40
0.0
  0
ENDSEC
  0
SECTION
  2
CLASSES
  0
CLASS
  1
ACDBDICTIONARYWDFLT
  2
AcDbDictionaryWithDefault
  3
ObjectDBX Classes
 90
        0
 91
        1
280
     0
281
     0
  0
CLASS
  1
DICTIONARYVAR
  2
AcDbDictionaryVar
  3
ObjectDBX Classes
 90
        0
 91
       11
280
     0
281
     0
  0
CLASS
  1
TABLESTYLE
  2
AcDbTableStyle
  3
ObjectDBX Classes
 90
     4095
 91
        1
280
     0
281
     0
  0
CLASS
  1
MATERIAL
  2
AcDbMaterial
  3
ObjectDBX Classes
 90
     1153
 91
        3
280
     0
281
     0
  0
CLASS
  1
VISUALSTYLE
  2
AcDbVisualStyle
  3
ObjectDBX Classes
 90
     4095
 91
       24
280
     0
281
     0
  0
CLASS
  1
SCALE
  2
AcDbScale
  3
ObjectDBX Classes
 90
     1153
 91
       17
280
     0
281
     0
  0
CLASS
  1
MLEADERSTYLE
  2
AcDbMLeaderStyle
  3
ACDB_MLEADERSTYLE_CLASS
 90
     4095
 91
        2
280
     0
281
     0
  0
CLASS
  1
CELLSTYLEMAP
  2
AcDbCellStyleMap
  3
ObjectDBX Classes
 90
     1152
 91
        1
280
     0
281
     0
  0
CLASS
  1
EXACXREFPANELOBJECT
  2
ExAcXREFPanelObject
  3
EXAC_ESW
 90
     1025
 91
        0
280
     0
281
     0
  0
CLASS
  1
NPOCOLLECTION
  2
AcDbImpNonPersistentObjectsCollection
  3
ObjectDBX Classes
 90
     1153
 91
        0
280
     0
281
     0
  0
CLASS
  1
LAYER_INDEX
  2
AcDbLayerIndex
  3
ObjectDBX Classes
 90
        0
 91
        0
280
     0
281
     0
  0
CLASS
  1
SPATIAL_INDEX
  2
AcDbSpatialIndex
  3
ObjectDBX Classes
 90
        0
 91
        0
280
     0
281
     0
  0
CLASS
  1
IDBUFFER
  2
AcDbIdBuffer
  3
ObjectDBX Classes
 90
        0
 91
        0
280
     0
281
     0
  0
CLASS
  1
ACDBSECTIONVIEWSTYLE
  2
AcDbSectionViewStyle
  3
ObjectDBX Classes
 90
     1025
 91
        1
280
     0
281
     0
  0
CLASS
  1
ACDBDETAILVIEWSTYLE
  2
AcDbDetailViewStyle
  3
ObjectDBX Classes
 90
     1025
 91
        1
280
     0
281
     0
  0
ENDSEC
  0
SECTION
  2
TABLES
  0
TABLE
  2
VPORT
  5
8
330
0
100
AcDbSymbolTable
 70
     1
1001
ACAD
1000
DbSaveVer
1071
      249
  0
VPORT
  5
EA
330
8
100
AcDbSymbolTableRecord
100
AcDbViewportTableRecord
  2
*Active
 70
     0
 10
0.0
 20
0.0
 11
1.0
 21
1.0
 12
1838.227601865847
 22
1104.198761244361
 13
0.0
 23
0.0
 14
10.0
 24
10.0
 15
10.0
 25
10.0
 16
0.0
 26
0.0
 36
1.0
 17
0.0
 27
0.0
 37
0.0
 40
5222.100328312101
 41
1.662952646239554
 42
50.0
 43
0.0
 44
0.0
 50
0.0
 51
0.0
 71
     0
 72
  1000
 73
     1
 74
     3
 75
     0
 76
     1
 77
     0
 78
     0
281
     0
 65
     1
110
0.0
120
0.0
130
0.0
111
1.0
121
0.0
131
0.0
112
0.0
122
1.0
132
0.0
 79
     0
146
0.0
348
F5
 60
     3
 61
     5
292
     1
282
     1
141
0.0
142
0.0
 63
   250
421
  3355443
1001
ACAD_NAV_VCDISPLAY
1070
     3
  0
ENDTAB
  0
TABLE
  2
LTYPE
  5
5
330
0
100
AcDbSymbolTable
 70
     1
  0
LTYPE
  5
14
330
5
100
AcDbSymbolTableRecord
100
AcDbLinetypeTableRecord
  2
ByBlock
 70
     0
  3

 72
    65
 73
     0
 40
0.0
  0
LTYPE
  5
15
330
5
100
AcDbSymbolTableRecord
100
AcDbLinetypeTableRecord
  2
ByLayer
 70
     0
  3

 72
    65
 73
     0
 40
0.0
  0
LTYPE
  5
16
330
5
100
AcDbSymbolTableRecord
100
AcDbLinetypeTableRecord
  2
Continuous
 70
     0
  3
Solid line
 72
    65
 73
     0
 40
0.0
  0
ENDTAB
  0
TABLE
  2
LAYER
  5
2
102
{ACAD_XDICTIONARY
360
1FF
102
}
330
0
100
AcDbSymbolTable
 70
     3
  0
LAYER
  5
10
102
{ACAD_XDICTIONARY
360
13C
102
}
330
2
100
AcDbSymbolTableRecord
100
AcDbLayerTableRecord
  2
0
 70
     0
 62
     7
  6
Continuous
370
    -3
390
F
347
EE
348
0
  0
LAYER
  5
2A2
330
2
100
AcDbSymbolTableRecord
100
AcDbLayerTableRecord
  2
PDF _0
 70
     0
 62
     7
  6
Continuous
370
    -3
390
F
347
EE
348
0
  0
LAYER
  5
2A5
330
2
100
AcDbSymbolTableRecord
100
AcDbLayerTableRecord
  2
PDF _Testo
 70
     0
 62
     7
  6
Continuous
370
    -3
390
F
347
EE
348
0
  0
ENDTAB
  0
TABLE
  2
STYLE
  5
3
330
0
100
AcDbSymbolTable
 70
     5
  0
STYLE
  5
11
330
3
100
AcDbSymbolTableRecord
100
AcDbTextStyleTableRecord
  2
Standard
 70
     0
 40
0.0
 41
1.0
 50
0.0
 71
     0
 42
2.5
  3
arial.ttf
  4

1001
ACAD
1000
Arial
1071
       34
  0
STYLE
  5
132
330
3
100
AcDbSymbolTableRecord
100
AcDbTextStyleTableRecord
  2
Annotativa
 70
     0
 40
0.0
 41
1.0
 50
0.0
 71
     0
 42
2.5
  3
arial.ttf
  4

1001
AcadAnnotative
1000
AnnotativeData
1002
{
1070
     1
1070
     1
1002
}
1001
ACAD
1000
Arial
1071
       34
  0
STYLE
  5
2A4
330
3
100
AcDbSymbolTableRecord
100
AcDbTextStyleTableRecord
  2
PDF Microsoft YaHei
 70
     0
 40
0.0
 41
1.0
 50
0.0
 71
     0
 42
2.5
  3
Microsoft YaHei.ttf
  4

1001
ACAD
1000
Microsoft YaHei
1071
       34
  0
STYLE
  5
2A7
330
3
100
AcDbSymbolTableRecord
100
AcDbTextStyleTableRecord
  2
PDF Times New Roman
 70
     0
 40
0.0
 41
1.0
 50
0.0
 71
     0
 42
2.5
  3
times.ttf
  4

1001
ACAD
1000
Times New Roman
1071
       18
  0
STYLE
  5
2A8
330
3
100
AcDbSymbolTableRecord
100
AcDbTextStyleTableRecord
  2
PDF Arial
 70
     0
 40
0.0
 41
1.0
 50
0.0
 71
     0
 42
2.5
  3
arial.ttf
  4

1001
ACAD
1000
Arial
1071
       34
  0
ENDTAB
  0
TABLE
  2
VIEW
  5
6
330
0
100
AcDbSymbolTable
 70
     0
  0
ENDTAB
  0
TABLE
  2
UCS
  5
7
330
0
100
AcDbSymbolTable
 70
     0
  0
ENDTAB
  0
TABLE
  2
APPID
  5
9
330
0
100
AcDbSymbolTable
 70
     8
  0
APPID
  5
12
330
9
100
AcDbSymbolTableRecord
100
AcDbRegAppTableRecord
  2
ACAD
 70
     0
  0
APPID
  5
9E
330
9
100
AcDbSymbolTableRecord
100
AcDbRegAppTableRecord
  2
ACAD_PSEXT
 70
     0
  0
APPID
  5
133
330
9
100
AcDbSymbolTableRecord
100
AcDbRegAppTableRecord
  2
AcadAnnoPO
 70
     0
  0
APPID
  5
134
330
9
100
AcDbSymbolTableRecord
100
AcDbRegAppTableRecord
  2
AcadAnnotative
 70
     0
  0
APPID
  5
135
330
9
100
AcDbSymbolTableRecord
100
AcDbRegAppTableRecord
  2
ACAD_DSTYLE_DIMJAG
 70
     0
  0
APPID
  5
136
330
9
100
AcDbSymbolTableRecord
100
AcDbRegAppTableRecord
  2
ACAD_DSTYLE_DIMTALN
 70
     0
  0
APPID
  5
165
330
9
100
AcDbSymbolTableRecord
100
AcDbRegAppTableRecord
  2
ACAD_MLEADERVER
 70
     0
  0
APPID
  5
217
330
9
100
AcDbSymbolTableRecord
100
AcDbRegAppTableRecord
  2
ACAD_NAV_VCDISPLAY
 70
     0
  0
ENDTAB
  0
TABLE
  2
DIMSTYLE
  5
A
330
0
100
AcDbSymbolTable
 70
     3
100
AcDbDimStyleTable
 71
     2
340
27
340
137
  0
DIMSTYLE
105
1B0
330
A
100
AcDbSymbolTableRecord
100
AcDbDimStyleTableRecord
  2
Standard
 70
     0
340
11
  0
DIMSTYLE
105
137
330
A
100
AcDbSymbolTableRecord
100
AcDbDimStyleTableRecord
  2
Annotativa
 70
     0
 40
0.0
 41
2.5
 42
0.625
 43
3.75
 44
1.25
 73
     0
 74
     0
 77
     1
 78
     8
140
2.5
141
2.5
143
0.03937007874016
147
0.625
171
     3
172
     1
271
     2
272
     2
274
     3
278
    44
283
     0
284
     8
340
11
1001
AcadAnnotative
1000
AnnotativeData
1002
{
1070
     1
1070
     1
1002
}
1001
ACAD_DSTYLE_DIMJAG
1070
   388
1040
1.5
1001
ACAD_DSTYLE_DIMTALN
1070
   392
1070
     0
  0
DIMSTYLE
105
27
330
A
100
AcDbSymbolTableRecord
100
AcDbDimStyleTableRecord
  2
ISO-25
 70
     0
 41
2.5
 42
0.625
 43
3.75
 44
1.25
 73
     0
 74
     0
 77
     1
 78
     8
140
2.5
141
2.5
143
0.03937007874016
147
0.625
171
     3
172
     1
271
     2
272
     2
274
     3
278
    44
283
     0
284
     8
340
11
  0
ENDTAB
  0
TABLE
  2
BLOCK_RECORD
  5
1
330
0
100
AcDbSymbolTable
 70
     1
  0
BLOCK_RECORD
  5
1F
102
{ACAD_XDICTIONARY
360
1CE
102
}
330
1
100
AcDbSymbolTableRecord
100
AcDbBlockTableRecord
  2
*Model_Space
340
22
 70
     0
280
     1
281
     0
  0
BLOCK_RECORD
  5
D2
330
1
100
AcDbSymbolTableRecord
100
AcDbBlockTableRecord
  2
*Paper_Space
340
D3
 70
     0
280
     1
281
     0
  0
BLOCK_RECORD
  5
D6
330
1
100
AcDbSymbolTableRecord
100
AcDbBlockTableRecord
  2
*Paper_Space0
340
D7
 70
     0
280
     1
281
     0
  0
ENDTAB
  0
ENDSEC
  0
SECTION
  2
BLOCKS
  0
BLOCK
  5
20
330
1F
100
AcDbEntity
  8
0
100
AcDbBlockBegin
  2
*Model_Space
 70
     0
 10
0.0
 20
0.0
 30
0.0
  3
*Model_Space
  1

  0
ENDBLK
  5
21
330
1F
100
AcDbEntity
  8
0
100
AcDbBlockEnd
  0
BLOCK
  5
D4
330
D2
100
AcDbEntity
 67
     1
  8
0
100
AcDbBlockBegin
  2
*Paper_Space
 70
     0
 10
0.0
 20
0.0
 30
0.0
  3
*Paper_Space
  1

  0
ENDBLK
  5
D5
330
D2
100
AcDbEntity
 67
     1
  8
0
100
AcDbBlockEnd
  0
BLOCK
  5
D8
330
D6
100
AcDbEntity
 67
     1
  8
0
100
AcDbBlockBegin
  2
*Paper_Space0
 70
     0
 10
0.0
 20
0.0
 30
0.0
  3
*Paper_Space0
  1

  0
ENDBLK
  5
D9
330
D6
100
AcDbEntity
 67
     1
  8
0
100
AcDbBlockEnd
  0
ENDSEC
  0
SECTION
  2
ENTITIES
  0
LWPOLYLINE
  5
2A9
330
1F
100
AcDbEntity
  8
PDF _0
370
    25
100
AcDbPolyline
 90
        2
 70
     0
 43
0.0
 10
341.3484256
 20
814.5225088
 10
240.962176
 20
814.5225088
  0
ARC
  5
2AA
330
1F
100
AcDbEntity
  8
PDF _0
370
    25
100
AcDbCircle
 10
291.1553008
 20
768.3839499209583
 30
0.0
 40
67.82112049048328
100
AcDbArc
 50
42.26168134488355
 51
137.7383186551164
  0
LWPOLYLINE
  5
2AB
330
1F
100
AcDbEntity
  8
PDF _0
370
    25
100
AcDbPolyline
 90
        4
 70
     0
 43
0.0
 10
717.4340992000001
 20
955.6700608000001
 10
717.4340992000001
 20
1026.2438368
 10
667.3069312000001
 20
1026.2438368
 10
667.3069312000001
 20
955.6700608000001
  0
LWPOLYLINE
  5
2AC
330
1F
100
AcDbEntity
  8
PDF _0
370
    25
100
AcDbPolyline
 90
        2
 70
     0
 43
0.0
 10
717.4340992000001
 20
1025.188528
 10
667.3069312000001
 20
1025.188528
  0
LWPOLYLINE
  5
2AD
330
1F
100
AcDbEntity
  8
PDF _0
370
    25
100
AcDbPolyline
 90
        6
 70
     1
 43
0.0
 10
667.3069312000001
 20
955.6700608000001
 10
668.3622400000001
 20
955.6700608000001
 10
667.3069312000001
 20
955.6700608000001
 10
667.3069312000001
 20
885.6239392
 10
717.4340992000001
 20
885.6239392
 10
717.4340992000001
 20
955.6700608000001
  0
LWPOLYLINE
  5
2AE
330
1F
100
AcDbEntity
  8
PDF _0
370
    25
100
AcDbPolyline
 90
        5
 70
     0
 43
0.0
 10
717.4340992000001
 20
885.0962848000001
 10
717.4340992000001
 20
815.0501632
 10
667.3069312000001
 20
815.0501632
 10
667.3069312000001
 20
885.0962848000001
 10
668.3622400000001
 20
885.0962848000001
  0
LWPOLYLINE
  5
2AF
330
1F
100
AcDbEntity
  8
PDF _0
370
    25
100
AcDbPolyline
 90
        3
 70
     0
 43
0.0
 10
718.0936672000001
 20
986.5378432000001
 10
718.6213216000001
 20
986.0101888
 10
719.148976
 20
986.5378432000001
  0
SOLID
  5
2B0
330
1F
100
AcDbEntity
  8
PDF _0
440
 33554559
100
AcDbTrace
 10
718.6213216000001
 20
986.5378432000001
 30
0.0
 11
718.7532352
 21
986.5378432000001
 31
0.0
 12
718.4894080000001
 22
986.5378432000001
 32
0.0
 13
718.4894080000001
 23
986.5378432000001
 33
0.0
  0
SOLID
  5
2B1
330
1F
100
AcDbEntity
  8
PDF _0
440
 33554559
100
AcDbTrace
 10
718.7532352
 20
986.5378432000001
 30
0.0
 11
718.4894080000001
 21
986.5378432000001
 31
0.0
 12
718.8851488000001
 22
986.5378432000001
 32
0.0
 13
718.8851488000001
 23
986.5378432000001
 33
0.0
  0
SOLID
  5
2B2
330
1F
100
AcDbEntity
  8
PDF _0
440
 33554559
100
AcDbTrace
 10
718.4894080000001
 20
986.5378432000001
 30
0.0
 11
718.8851488000001
 21
986.5378432000001
 31
0.0
 12
718.3574944
 22
986.5378432000001
 32
0.0
 13
718.3574944
 23
986.5378432000001
 33
0.0
  0
SOLID
  5
2B3
330
1F
100
AcDbEntity
  8
PDF _0
440
 33554559
100
AcDbTrace
 10
718.8851488000001
 20
986.5378432000001
 30
0.0
 11
718.3574944
 21
986.5378432000001
 31
0.0
 12
718.2255808
 22
986.5378432000001
 32
0.0
 13
718.2255808
 23
986.5378432000001
 33
0.0
  0
SOLID
  5
2B4
330
1F
100
AcDbEntity
  8
PDF _0
440
 33554559
100
AcDbTrace
 10
718.3574944
 20
986.5378432000001
 30
0.0
 11
718.8851488000001
 21
986.5378432000001
 31
0.0
 12
718.8851488000001
 22
986.5378432000001
 32
0.0
 13
718.8851488000001
 23
986.5378432000001
 33
0.0
  0
SOLID
  5
2B5
330
1F
100
AcDbEntity
  8
PDF _0
440
 33554559
100
AcDbTrace
 10
718.8851488000001
 20
986.5378432000001
 30
0.0
 11
718.2255808
 21
986.5378432000001
 31
0.0
 12
719.0170624000001
 22
986.4059296000002
 32
0.0
 13
719.0170624000001
 23
986.4059296000002
 33
0.0
  0
SOLID
  5
2B6
330
1F
100
AcDbEntity
  8
PDF _0
440
 33554559
100
AcDbTrace
 10
718.2255808
 20
986.5378432000001
 30
0.0
 11
719.0170624000001
 21
986.4059296000002
 31
0.0
 12
718.0936672000001
 22
986.4059296000002
 32
0.0
 13
718.0936672000001
 23
986.4059296000002
 33
0.0
  0
SOLID
  5
2B7
330
1F
100
AcDbEntity
  8
PDF _0
440
 33554559
100
AcDbTrace
 10
719.148976
 20
986.4059296000002
 30
0.0
 11
719.148976
 21
986.4059296000002
 31
0.0
 12
718.0936672000001
 22
986.4059296000002
 32
0.0
 13
718.0936672000001
 23
986.4059296000002
 33
0.0
  0
SOLID
  5
2B8
330
1F
100
AcDbEntity
  8
PDF _0
440
 33554559
100
AcDbTrace
 10
719.148976
 20
986.4059296000002
 30
0.0
 11
718.0936672000001
 21
986.4059296000002
 31
0.0
 12
719.0170624000001
 22
986.4059296000002
 32
0.0
 13
719.0170624000001
 23
986.4059296000002
 33
0.0
  0
SOLID
  5
2B9
330
1F
100
AcDbEntity
  8
PDF _0
440
 33554559
100
AcDbTrace
 10
719.148976
 20
986.4059296000002
 30
0.0
 11
718.0936672000001
 21
986.4059296000002
 31
0.0
 12
719.2808896000001
 22
986.4059296000002
 32
0.0
 13
719.2808896000001
 23
986.4059296000002
 33
0.0
  0
SOLID
  5
2BA
330
1F
100
AcDbEntity
  8
PDF _0
440
 33554559
100
AcDbTrace
 10
718.0936672000001
 20
986.4059296000002
 30
0.0
 11
719.2808896000001
 21
986.4059296000002
 31
0.0
 12
717.9617536000001
 22
986.4059296000002
 32
0.0
 13
717.9617536000001
 23
986.4059296000002
 33
0.0
  0
SOLID
  5
2BB
330
1F
100
AcDbEntity
  8
PDF _0
440
 33554559
100
AcDbTrace
 10
719.2808896000001
 20
986.4059296000002
 30
0.0
 11
717.9617536000001
 21
986.4059296000002
 31
0.0
 12
719.2808896000001
 22
986.2740160000001
 32
0.0
 13
719.2808896000001
 23
986.2740160000001
 33
0.0
  0
SOLID
  5
2BC
330
1F
100
AcDbEntity
  8
PDF _0
440
 33554559
100
AcDbTrace
 10
717.9617536000001
 20
986.4059296000002
 30
0.0
 11
719.2808896000001
 21
986.2740160000001
 31
0.0
 12
717.82984
 22
986.2740160000001
 32
0.0
 13
717.82984
 23
986.2740160000001
 33
0.0
  0
SOLID
  5
2BD
330
1F
100
AcDbEntity
  8
PDF _0
440
 33554559
100
AcDbTrace
 10
719.4128032
 20
986.2740160000001
 30
0.0
 11
719.4128032
 21
986.2740160000001
 31
0.0
 12
717.82984
 22
986.2740160000001
 32
0.0
 13
717.82984
 23
986.2740160000001
 33
0.0
  0
SOLID
  5
2BE
330
1F
100
AcDbEntity
  8
PDF _0
440
 33554559
100
AcDbTrace
 10
719.4128032
 20
986.2740160000001
 30
0.0
 11
717.82984
 21
986.2740160000001
 31
0.0
 12
719.2808896000001
 22
986.2740160000001
 32
0.0
 13
719.2808896000001
 23
986.2740160000001
 33
0.0
  0
SOLID
  5
2BF
330
1F
100
AcDbEntity
  8
PDF _0
440
 33554559
100
AcDbTrace
 10
719.4128032
 20
986.2740160000001
 30
0.0
 11
717.82984
 21
986.2740160000001
 31
0.0
 12
719.4128032
 22
986.1421024000001
 32
0.0
 13
719.4128032
 23
986.1421024000001
 33
0.0
  0
SOLID
  5
2C0
330
1F
100
AcDbEntity
  8
PDF _0
440
 33554559
100
AcDbTrace
 10
717.82984
 20
986.2740160000001
 30
0.0
 11
719.4128032
 21
986.1421024000001
 31
0.0
 12
717.6979264000001
 22
986.1421024000001
 32
0.0
 13
717.6979264000001
 23
986.1421024000001
 33
0.0
  0
SOLID
  5
2C1
330
1F
100
AcDbEntity
  8
PDF _0
440
 33554559
100
AcDbTrace
 10
719.4128032
 20
986.1421024000001
 30
0.0
 11
717.6979264000001
 21
986.1421024000001
 31
0.0
 12
719.5447168000001
 22
986.0101888
 32
0.0
 13
719.5447168000001
 23
986.0101888
 33
0.0
  0
SOLID
  5
2C2
330
1F
100
AcDbEntity
  8
PDF _0
440
 33554559
100
AcDbTrace
 10
717.6979264000001
 20
986.1421024000001
 30
0.0
 11
719.5447168000001
 21
986.0101888
 31
0.0
 12
717.6979264000001
 22
986.0101888
 32
0.0
 13
717.6979264000001
 23
986.0101888
 33
0.0
  0
SOLID
  5
2C3
330
1F
100
AcDbEntity
  8
PDF _0
440
 33554559
100
AcDbTrace
 10
719.5447168000001
 20
986.0101888
 30
0.0
 11
717.6979264000001
 21
986.0101888
 31
0.0
 12
717.5660128
 22
986.0101888
 32
0.0
 13
717.5660128
 23
986.0101888
 33
0.0
  0
SOLID
  5
2C4
330
1F
100
AcDbEntity
  8
PDF _0
440
 33554559
100
AcDbTrace
 10
717.6979264000001
 20
986.0101888
 30
0.0
 11
719.5447168000001
 21
986.0101888
 31
0.0
 12
719.5447168000001
 22
986.0101888
 32
0.0
 13
719.5447168000001
 23
986.0101888
 33
0.0
  0
SOLID
  5
2C5
330
1F
100
AcDbEntity
  8
PDF _0
440
 33554559
100
AcDbTrace
 10
719.5447168000001
 20
986.0101888
 30
0.0
 11
717.5660128
 21
986.0101888
 31
0.0
 12
719.5447168000001
 22
985.8782752000001
 32
0.0
 13
719.5447168000001
 23
985.8782752000001
 33
0.0
  0
SOLID
  5
2C6
330
1F
100
AcDbEntity
  8
PDF _0
440
 33554559
100
AcDbTrace
 10
717.5660128
 20
986.0101888
 30
0.0
 11
719.5447168000001
 21
985.8782752000001
 31
0.0
 12
717.5660128
 22
985.8782752000001
 32
0.0
 13
717.5660128
 23
985.8782752000001
 33
0.0
  0
SOLID
  5
2C7
330
1F
100
AcDbEntity
  8
PDF _0
440
 33554559
100
AcDbTrace
 10
719.5447168000001
 20
985.8782752000001
 30
0.0
 11
717.5660128
 21
985.8782752000001
 31
0.0
 12
719.6766304000001
 22
985.7463616000002
 32
0.0
 13
719.6766304000001
 23
985.7463616000002
 33
0.0
  0
SOLID
  5
2C8
330
1F
100
AcDbEntity
  8
PDF _0
440
 33554559
100
AcDbTrace
 10
717.5660128
 20
985.8782752000001
 30
0.0
 11
719.6766304000001
 21
985.7463616000002
 31
0.0
 12
717.5660128
 22
985.7463616000002
 32
0.0
 13
717.5660128
 23
985.7463616000002
 33
0.0
  0
SOLID
  5
2C9
330
1F
100
AcDbEntity
  8
PDF _0
440
 33554559
100
AcDbTrace
 10
719.6766304000001
 20
985.7463616000002
 30
0.0
 11
717.5660128
 21
985.7463616000002
 31
0.0
 12
719.6766304000001
 22
985.6144480000001
 32
0.0
 13
719.6766304000001
 23
985.6144480000001
 33
0.0
  0
SOLID
  5
2CA
330
1F
100
AcDbEntity
  8
PDF _0
440
 33554559
100
AcDbTrace
 10
717.5660128
 20
985.7463616000002
 30
0.0
 11
719.6766304000001
 21
985.6144480000001
 31
0.0
 12
717.5660128
 22
985.6144480000001
 32
0.0
 13
717.5660128
 23
985.6144480000001
 33
0.0
  0
SOLID
  5
2CB
330
1F
100
AcDbEntity
  8
PDF _0
440
 33554559
100
AcDbTrace
 10
719.6766304000001
 20
985.6144480000001
 30
0.0
 11
717.5660128
 21
985.6144480000001
 31
0.0
 12
717.4340992000001
 22
985.6144480000001
 32
0.0
 13
717.4340992000001
 23
985.6144480000001
 33
0.0
  0
SOLID
  5
2CC
330
1F
100
AcDbEntity
  8
PDF _0
440
 33554559
100
AcDbTrace
 10
717.5660128
 20
985.6144480000001
 30
0.0
 11
719.6766304000001
 21
985.6144480000001
 31
0.0
 12
719.6766304000001
 22
985.6144480000001
 32
0.0
 13
719.6766304000001
 23
985.6144480000001
 33
0.0
  0
SOLID
  5
2CD
330
1F
100
AcDbEntity
  8
PDF _0
440
 33554559
100
AcDbTrace
 10
719.6766304000001
 20
985.6144480000001
 30
0.0
 11
717.4340992000001
 21
985.6144480000001
 31
0.0
 12
719.6766304000001
 22
985.4825344000001
 32
0.0
 13
719.6766304000001
 23
985.4825344000001
 33
0.0
  0
SOLID
  5
2CE
330
1F
100
AcDbEntity
  8
PDF _0
440
 33554559
100
AcDbTrace
 10
717.4340992000001
 20
985.6144480000001
 30
0.0
 11
719.6766304000001
 21
985.4825344000001
 31
0.0
 12
717.4340992000001
 22
985.4825344000001
 32
0.0
 13
717.4340992000001
 23
985.4825344000001
 33
0.0
  0
SOLID
  5
2CF
330
1F
100
AcDbEntity
  8
PDF _0
440
 33554559
100
AcDbTrace
 10
719.6766304000001
 20
985.4825344000001
 30
0.0
 11
717.4340992000001
 21
985.4825344000001
 31
0.0
 12
719.6766304000001
 22
985.3506208
 32
0.0
 13
719.6766304000001
 23
985.3506208
 33
0.0
  0
SOLID
  5
2D0
330
1F
100
AcDbEntity
  8
PDF _0
440
 33554559
100
AcDbTrace
 10
717.4340992000001
 20
985.4825344000001
 30
0.0
 11
719.6766304000001
 21
985.3506208
 31
0.0
 12
717.4340992000001
 22
985.3506208
 32
0.0
 13
717.4340992000001
 23
985.3506208
 33
0.0
  0
SOLID
  5
2D1
330
1F
100
AcDbEntity
  8
PDF _0
440
 33554559
100
AcDbTrace
 10
719.6766304000001
 20
985.3506208
 30
0.0
 11
717.4340992000001
 21
985.3506208
 31
0.0
 12
719.6766304000001
 22
985.2187072000001
 32
0.0
 13
719.6766304000001
 23
985.2187072000001
 33
0.0
  0
SOLID
  5
2D2
330
1F
100
AcDbEntity
  8
PDF _0
440
 33554559
100
AcDbTrace
 10
717.4340992000001
 20
985.3506208
 30
0.0
 11
719.6766304000001
 21
985.2187072000001
 31
0.0
 12
717.5660128
 22
985.2187072000001
 32
0.0
 13
717.5660128
 23
985.2187072000001
 33
0.0
  0
SOLID
  5
2D3
330
1F
100
AcDbEntity
  8
PDF _0
440
 33554559
100
AcDbTrace
 10
719.6766304000001
 20
985.2187072000001
 30
0.0
 11
717.5660128
 21
985.2187072000001
 31
0.0
 12
719.6766304000001
 22
985.0867936
 32
0.0
 13
719.6766304000001
 23
985.0867936
 33
0.0
  0
SOLID
  5
2D4
330
1F
100
AcDbEntity
  8
PDF _0
440
 33554559
100
AcDbTrace
 10
717.5660128
 20
985.2187072000001
 30
0.0
 11
719.6766304000001
 21
985.0867936
 31
0.0
 12
717.5660128
 22
985.0867936
 32
0.0
 13
717.5660128
 23
985.0867936
 33
0.0
  0
SOLID
  5
2D5
330
1F
100
AcDbEntity
  8
PDF _0
440
 33554559
100
AcDbTrace
 10
719.5447168000001
 20
985.0867936
 30
0.0
 11
719.5447168000001
 21
985.0867936
 31
0.0
 12
717.5660128
 22
985.0867936
 32
0.0
 13
717.5660128
 23
985.0867936
 33
0.0
  0
SOLID
  5
2D6
330
1F
100
AcDbEntity
  8
PDF _0
440
 33554559
100
AcDbTrace
 10
719.5447168000001
 20
985.0867936
 30
0.0
 11
717.5660128
 21
985.0867936
 31
0.0
 12
719.6766304000001
 22
985.0867936
 32
0.0
 13
719.6766304000001
 23
985.0867936
 33
0.0
  0
SOLID
  5
2D7
330
1F
100
AcDbEntity
  8
PDF _0
440
 33554559
100
AcDbTrace
 10
719.5447168000001
 20
985.0867936
 30
0.0
 11
717.5660128
 21
985.0867936
 31
0.0
 12
719.5447168000001
 22
984.95488
 32
0.0
 13
719.5447168000001
 23
984.95488
 33
0.0
  0
SOLID
  5
2D8
330
1F
100
AcDbEntity
  8
PDF _0
440
 33554559
100
AcDbTrace
 10
717.5660128
 20
985.0867936
 30
0.0
 11
719.5447168000001
 21
984.95488
 31
0.0
 12
717.5660128
 22
984.95488
 32
0.0
 13
717.5660128
 23
984.95488
 33
0.0
  0
SOLID
  5
2D9
330
1F
100
AcDbEntity
  8
PDF _0
440
 33554559
100
AcDbTrace
 10
719.5447168000001
 20
984.95488
 30
0.0
 11
717.5660128
 21
984.95488
 31
0.0
 12
719.5447168000001
 22
984.8229664000001
 32
0.0
 13
719.5447168000001
 23
984.8229664000001
 33
0.0
  0
SOLID
  5
2DA
330
1F
100
AcDbEntity
  8
PDF _0
440
 33554559
100
AcDbTrace
 10
717.5660128
 20
984.95488
 30
0.0
 11
719.5447168000001
 21
984.8229664000001
 31
0.0
 12
717.6979264000001
 22
984.8229664000001
 32
0.0
 13
717.6979264000001
 23
984.8229664000001
 33
0.0
  0
SOLID
  5
2DB
330
1F
100
AcDbEntity
  8
PDF _0
440
 33554559
100
AcDbTrace
 10
719.4128032
 20
984.8229664000001
 30
0.0
 11
719.4128032
 21
984.8229664000001
 31
0.0
 12
717.6979264000001
 22
984.8229664000001
 32
0.0
 13
717.6979264000001
 23
984.8229664000001
 33
0.0
  0
SOLID
  5
2DC
330
1F
100
AcDbEntity
  8
PDF _0
440
 33554559
100
AcDbTrace
 10
719.4128032
 20
984.8229664000001
 30
0.0
 11
717.6979264000001
 21
984.8229664000001
 31
0.0
 12
719.5447168000001
 22
984.8229664000001
 32
0.0
 13
719.5447168000001
 23
984.8229664000001
 33
0.0
  0
SOLID
  5
2DD
330
1F
100
AcDbEntity
  8
PDF _0
440
 33554559
100
AcDbTrace
 10
719.4128032
 20
984.8229664000001
 30
0.0
 11
717.6979264000001
 21
984.8229664000001
 31
0.0
 12
719.4128032
 22
984.6910528
 32
0.0
 13
719.4128032
 23
984.6910528
 33
0.0
  0
SOLID
  5
2DE
330
1F
100
AcDbEntity
  8
PDF _0
440
 33554559
100
AcDbTrace
 10
717.6979264000001
 20
984.8229664000001
 30
0.0
 11
719.4128032
 21
984.6910528
 31
0.0
 12
717.82984
 22
984.6910528
 32
0.0
 13
717.82984
 23
984.6910528
 33
0.0
  0
SOLID
  5
2DF
330
1F
100
AcDbEntity
  8
PDF _0
440
 33554559
100
AcDbTrace
 10
719.4128032
 20
984.6910528
 30
0.0
 11
717.82984
 21
984.6910528
 31
0.0
 12
719.2808896000001
 22
984.5591392000001
 32
0.0
 13
719.2808896000001
 23
984.5591392000001
 33
0.0
  0
SOLID
  5
2E0
330
1F
100
AcDbEntity
  8
PDF _0
440
 33554559
100
AcDbTrace
 10
717.82984
 20
984.6910528
 30
0.0
 11
719.2808896000001
 21
984.5591392000001
 31
0.0
 12
717.82984
 22
984.5591392000001
 32
0.0
 13
717.82984
 23
984.5591392000001
 33
0.0
  0
SOLID
  5
2E1
330
1F
100
AcDbEntity
  8
PDF _0
440
 33554559
100
AcDbTrace
 10
719.2808896000001
 20
984.5591392000001
 30
0.0
 11
717.82984
 21
984.5591392000001
 31
0.0
 12
717.9617536000001
 22
984.5591392000001
 32
0.0
 13
717.9617536000001
 23
984.5591392000001
 33
0.0
  0
SOLID
  5
2E2
330
1F
100
AcDbEntity
  8
PDF _0
440
 33554559
100
AcDbTrace
 10
717.82984
 20
984.5591392000001
 30
0.0
 11
719.2808896000001
 21
984.5591392000001
 31
0.0
 12
719.2808896000001
 22
984.5591392000001
 32
0.0
 13
719.2808896000001
 23
984.5591392000001
 33
0.0
  0
SOLID
  5
2E3
330
1F
100
AcDbEntity
  8
PDF _0
440
 33554559
100
AcDbTrace
 10
719.2808896000001
 20
984.5591392000001
 30
0.0
 11
717.9617536000001
 21
984.5591392000001
 31
0.0
 12
719.148976
 22
984.5591392000001
 32
0.0
 13
719.148976
 23
984.5591392000001
 33
0.0
  0
SOLID
  5
2E4
330
1F
100
AcDbEntity
  8
PDF _0
440
 33554559
100
AcDbTrace
 10
717.9617536000001
 20
984.5591392000001
 30
0.0
 11
719.148976
 21
984.5591392000001
 31
0.0
 12
718.0936672000001
 22
984.5591392000001
 32
0.0
 13
718.0936672000001
 23
984.5591392000001
 33
0.0
  0
SOLID
  5
2E5
330
1F
100
AcDbEntity
  8
PDF _0
440
 33554559
100
AcDbTrace
 10
719.148976
 20
984.5591392000001
 30
0.0
 11
718.0936672000001
 21
984.5591392000001
 31
0.0
 12
719.0170624000001
 22
984.4272256000001
 32
0.0
 13
719.0170624000001
 23
984.4272256000001
 33
0.0
  0
SOLID
  5
2E6
330
1F
100
AcDbEntity
  8
PDF _0
440
 33554559
100
AcDbTrace
 10
718.0936672000001
 20
984.5591392000001
 30
0.0
 11
719.0170624000001
 21
984.4272256000001
 31
0.0
 12
718.0936672000001
 22
984.4272256000001
 32
0.0
 13
718.0936672000001
 23
984.4272256000001
 33
0.0
  0
SOLID
  5
2E7
330
1F
100
AcDbEntity
  8
PDF _0
440
 33554559
100
AcDbTrace
 10
719.0170624000001
 20
984.4272256000001
 30
0.0
 11
718.0936672000001
 21
984.4272256000001
 31
0.0
 12
718.8851488000001
 22
984.4272256000001
 32
0.0
 13
718.8851488000001
 23
984.4272256000001
 33
0.0
  0
SOLID
  5
2E8
330
1F
100
AcDbEntity
  8
PDF _0
440
 33554559
100
AcDbTrace
 10
718.0936672000001
 20
984.4272256000001
 30
0.0
 11
718.8851488000001
 21
984.4272256000001
 31
0.0
 12
718.2255808
 22
984.4272256000001
 32
0.0
 13
718.2255808
 23
984.4272256000001
 33
0.0
  0
SOLID
  5
2E9
330
1F
100
AcDbEntity
  8
PDF _0
440
 33554559
100
AcDbTrace
 10
718.8851488000001
 20
984.4272256000001
 30
0.0
 11
718.2255808
 21
984.4272256000001
 31
0.0
 12
718.3574944
 22
984.4272256000001
 32
0.0
 13
718.3574944
 23
984.4272256000001
 33
0.0
  0
SOLID
  5
2EA
330
1F
100
AcDbEntity
  8
PDF _0
440
 33554559
100
AcDbTrace
 10
718.2255808
 20
984.4272256000001
 30
0.0
 11
718.8851488000001
 21
984.4272256000001
 31
0.0
 12
718.8851488000001
 22
984.4272256000001
 32
0.0
 13
718.8851488000001
 23
984.4272256000001
 33
0.0
  0
SOLID
  5
2EB
330
1F
100
AcDbEntity
  8
PDF _0
440
 33554559
100
AcDbTrace
 10
718.3574944
 20
984.4272256000001
 30
0.0
 11
718.4894080000001
 21
984.295312
 31
0.0
 12
718.7532352
 22
984.295312
 32
0.0
 13
718.7532352
 23
984.295312
 33
0.0
  0
SOLID
  5
2EC
330
1F
100
AcDbEntity
  8
PDF _0
440
 33554559
100
AcDbTrace
 10
718.4894080000001
 20
984.295312
 30
0.0
 11
718.7532352
 21
984.295312
 31
0.0
 12
718.6213216000001
 22
984.295312
 32
0.0
 13
718.6213216000001
 23
984.295312
 33
0.0
  0
SOLID
  5
2ED
330
1F
100
AcDbEntity
  8
PDF _0
440
 33554559
100
AcDbTrace
 10
718.3574944
 20
984.4272256000001
 30
0.0
 11
718.8851488000001
 21
984.4272256000001
 31
0.0
 12
718.7532352
 22
984.295312
 32
0.0
 13
718.7532352
 23
984.295312
 33
0.0
  0
LWPOLYLINE
  5
2EF
330
1F
100
AcDbEntity
  8
PDF _0
370
    25
100
AcDbPolyline
 90
        2
 70
     0
 43
0.0
 10
717.4340992000001
 20
986.5378432000001
 10
717.4340992000001
 20
996.4313632000001
  0
LWPOLYLINE
  5
2F0
330
1F
100
AcDbEntity
  8
PDF _0
370
    25
100
AcDbPolyline
 90
        3
 70
     0
 43
0.0
 10
719.148976
 20
996.4313632000001
 10
718.6213216000001
 20
997.0909312000001
 10
718.0936672000001
 20
996.4313632000001
  0
SOLID
  5
2F1
330
1F
100
AcDbEntity
  8
PDF _0
440
 33554559
100
AcDbTrace
 10
718.6213216000001
 20
998.6738944
 30
0.0
 11
718.7532352
 21
998.6738944
 31
0.0
 12
718.4894080000001
 22
998.6738944
 32
0.0
 13
718.4894080000001
 23
998.6738944
 33
0.0
  0
SOLID
  5
2F2
330
1F
100
AcDbEntity
  8
PDF _0
440
 33554559
100
AcDbTrace
 10
718.7532352
 20
998.6738944
 30
0.0
 11
718.4894080000001
 21
998.6738944
 31
0.0
 12
718.8851488000001
 22
998.6738944
 32
0.0
 13
718.8851488000001
 23
998.6738944
 33
0.0
  0
SOLID
  5
2F3
330
1F
100
AcDbEntity
  8
PDF _0
440
 33554559
100
AcDbTrace
 10
718.4894080000001
 20
998.6738944
 30
0.0
 11
718.8851488000001
 21
998.6738944
 31
0.0
 12
718.3574944
 22
998.6738944
 32
0.0
 13
718.3574944
 23
998.6738944
 33
0.0
  0
SOLID
  5
2F4
330
1F
100
AcDbEntity
  8
PDF _0
440
 33554559
100
AcDbTrace
 10
718.8851488000001
 20
998.6738944
 30
0.0
 11
718.3574944
 21
998.6738944
 31
0.0
 12
718.2255808
 22
998.6738944
 32
0.0
 13
718.2255808
 23
998.6738944
 33
0.0
  0
SOLID
  5
2F5
330
1F
100
AcDbEntity
  8
PDF _0
440
 33554559
100
AcDbTrace
 10
718.3574944
 20
998.6738944
 30
0.0
 11
718.8851488000001
 21
998.6738944
 31
0.0
 12
718.8851488000001
 22
998.6738944
 32
0.0
 13
718.8851488000001
 23
998.6738944
 33
0.0
  0
SOLID
  5
2F6
330
1F
100
AcDbEntity
  8
PDF _0
440
 33554559
100
AcDbTrace
 10
718.8851488000001
 20
998.6738944
 30
0.0
 11
718.2255808
 21
998.6738944
 31
0.0
 12
719.0170624000001
 22
998.5419808000001
 32
0.0
 13
719.0170624000001
 23
998.5419808000001
 33
0.0
  0
SOLID
  5
2F7
330
1F
100
AcDbEntity
  8
PDF _0
440
 33554559
100
AcDbTrace
 10
718.2255808
 20
998.6738944
 30
0.0
 11
719.0170624000001
 21
998.5419808000001
 31
0.0
 12
718.0936672000001
 22
998.5419808000001
 32
0.0
 13
718.0936672000001
 23
998.5419808000001
 33
0.0
  0
SOLID
  5
2F8
330
1F
100
AcDbEntity
  8
PDF _0
440
 33554559
100
AcDbTrace
 10
719.148976
 20
998.5419808000001
 30
0.0
 11
719.148976
 21
998.5419808000001
 31
0.0
 12
718.0936672000001
 22
998.5419808000001
 32
0.0
 13
718.0936672000001
 23
998.5419808000001
 33
0.0
  0
SOLID
  5
2F9
330
1F
100
AcDbEntity
  8
PDF _0
440
 33554559
100
AcDbTrace
 10
719.148976
 20
998.5419808000001
 30
0.0
 11
718.0936672000001
 21
998.5419808000001
 31
0.0
 12
719.0170624000001
 22
998.5419808000001
 32
0.0
 13
719.0170624000001
 23
998.5419808000001
 33
0.0
  0
SOLID
  5
2FA
330
1F
100
AcDbEntity
  8
PDF _0
440
 33554559
100
AcDbTrace
 10
719.148976
 20
998.5419808000001
 30
0.0
 11
718.0936672000001
 21
998.5419808000001
 31
0.0
 12
719.2808896000001
 22
998.5419808000001
 32
0.0
 13
719.2808896000001
 23
998.5419808000001
 33
0.0
  0
SOLID
  5
2FB
330
1F
100
AcDbEntity
  8
PDF _0
440
 33554559
100
AcDbTrace
 10
718.0936672000001
 20
998.5419808000001
 30
0.0
 11
719.2808896000001
 21
998.5419808000001
 31
0.0
 12
717.9617536000001
 22
998.5419808000001
 32
0.0
 13
717.9617536000001
 23
998.5419808000001
 33
0.0
  0
SOLID
  5
2FC
330
1F
100
AcDbEntity
  8
PDF _0
440
 33554559
100
AcDbTrace
 10
719.2808896000001
 20
998.5419808000001
 30
0.0
 11
717.9617536000001
 21
998.5419808000001
 31
0.0
 12
719.2808896000001
 22
998.4100672
 32
0.0
 13
719.2808896000001
 23
998.4100672
 33
0.0
  0
SOLID
  5
2FD
330
1F
100
AcDbEntity
  8
PDF _0
440
 33554559
100
AcDbTrace
 10
717.9617536000001
 20
998.5419808000001
 30
0.0
 11
719.2808896000001
 21
998.4100672
 31
0.0
 12
717.82984
 22
998.4100672
 32
0.0
 13
717.82984
 23
998.4100672
 33
0.0
  0
SOLID
  5
2FE
330
1F
100
AcDbEntity
  8
PDF _0
440
 33554559
100
AcDbTrace
 10
719.4128032
 20
998.4100672
 30
0.0
 11
719.4128032
 21
998.4100672
 31
0.0
 12
717.82984
 22
998.4100672
 32
0.0
 13
717.82984
 23
998.4100672
 33
0.0
  0
SOLID
  5
2FF
330
1F
100
AcDbEntity
  8
PDF _0
440
 33554559
100
AcDbTrace
 10
719.4128032
 20
998.4100672
 30
0.0
 11
717.82984
 21
998.4100672
 31
0.0
 12
719.2808896000001
 22
998.4100672
 32
0.0
 13
719.2808896000001
 23
998.4100672
 33
0.0
  0
SOLID
  5
300
330
1F
100
AcDbEntity
  8
PDF _0
440
 33554559
100
AcDbTrace
 10
719.4128032
 20
998.4100672
 30
0.0
 11
717.82984
 21
998.4100672
 31
0.0
 12
719.4128032
 22
998.2781536
 32
0.0
 13
719.4128032
 23
998.2781536
 33
0.0
  0
SOLID
  5
301
330
1F
100
AcDbEntity
  8
PDF _0
440
 33554559
100
AcDbTrace
 10
717.82984
 20
998.4100672
 30
0.0
 11
719.4128032
 21
998.2781536
 31
0.0
 12
717.6979264000001
 22
998.2781536
 32
0.0
 13
717.6979264000001
 23
998.2781536
 33
0.0
  0
SOLID
  5
302
330
1F
100
AcDbEntity
  8
PDF _0
440
 33554559
100
AcDbTrace
 10
719.4128032
 20
998.2781536
 30
0.0
 11
717.6979264000001
 21
998.2781536
 31
0.0
 12
719.5447168000001
 22
998.1462400000001
 32
0.0
 13
719.5447168000001
 23
998.1462400000001
 33
0.0
  0
SOLID
  5
303
330
1F
100
AcDbEntity
  8
PDF _0
440
 33554559
100
AcDbTrace
 10
717.6979264000001
 20
998.2781536
 30
0.0
 11
719.5447168000001
 21
998.1462400000001
 31
0.0
 12
717.6979264000001
 22
998.1462400000001
 32
0.0
 13
717.6979264000001
 23
998.1462400000001
 33
0.0
  0
SOLID
  5
304
330
1F
100
AcDbEntity
  8
PDF _0
440
 33554559
100
AcDbTrace
 10
719.5447168000001
 20
998.1462400000001
 30
0.0
 11
717.6979264000001
 21
998.1462400000001
 31
0.0
 12
717.5660128
 22
998.1462400000001
 32
0.0
 13
717.5660128
 23
998.1462400000001
 33
0.0
  0
SOLID
  5
305
330
1F
100
AcDbEntity
  8
PDF _0
440
 33554559
100
AcDbTrace
 10
717.6979264000001
 20
998.1462400000001
 30
0.0
 11
719.5447168000001
 21
998.1462400000001
 31
0.0
 12
719.5447168000001
 22
998.1462400000001
 32
0.0
 13
719.5447168000001
 23
998.1462400000001
 33
0.0
  0
SOLID
  5
306
330
1F
100
AcDbEntity
  8
PDF _0
440
 33554559
100
AcDbTrace
 10
719.5447168000001
 20
998.1462400000001
 30
0.0
 11
717.5660128
 21
998.1462400000001
 31
0.0
 12
719.5447168000001
 22
998.0143264
 32
0.0
 13
719.5447168000001
 23
998.0143264
 33
0.0
  0
SOLID
  5
307
330
1F
100
AcDbEntity
  8
PDF _0
440
 33554559
100
AcDbTrace
 10
717.5660128
 20
998.1462400000001
 30
0.0
 11
719.5447168000001
 21
998.0143264
 31
0.0
 12
717.5660128
 22
998.0143264
 32
0.0
 13
717.5660128
 23
998.0143264
 33
0.0
  0
SOLID
  5
308
330
1F
100
AcDbEntity
  8
PDF _0
440
 33554559
100
AcDbTrace
 10
719.5447168000001
 20
998.0143264
 30
0.0
 11
717.5660128
 21
998.0143264
 31
0.0
 12
719.6766304000001
 22
997.8824128000001
 32
0.0
 13
719.6766304000001
 23
997.8824128000001
 33
0.0
  0
SOLID
  5
309
330
1F
100
AcDbEntity
  8
PDF _0
440
 33554559
100
AcDbTrace
 10
717.5660128
 20
998.0143264
 30
0.0
 11
719.6766304000001
 21
997.8824128000001
 31
0.0
 12
717.5660128
 22
997.8824128000001
 32
0.0
 13
717.5660128
 23
997.8824128000001
 33
0.0
  0
SOLID
  5
30A
330
1F
100
AcDbEntity
  8
PDF _0
440
 33554559
100
AcDbTrace
 10
719.6766304000001
 20
997.8824128000001
 30
0.0
 11
717.5660128
 21
997.8824128000001
 31
0.0
 12
719.6766304000001
 22
997.7504992000001
 32
0.0
 13
719.6766304000001
 23
997.7504992000001
 33
0.0
  0
SOLID
  5
30B
330
1F
100
AcDbEntity
  8
PDF _0
440
 33554559
100
AcDbTrace
 10
717.5660128
 20
997.8824128000001
 30
0.0
 11
719.6766304000001
 21
997.7504992000001
 31
0.0
 12
717.5660128
 22
997.7504992000001
 32
0.0
 13
717.5660128
 23
997.7504992000001
 33
0.0
  0
SOLID
  5
30C
330
1F
100
AcDbEntity
  8
PDF _0
440
 33554559
100
AcDbTrace
 10
719.6766304000001
 20
997.7504992000001
 30
0.0
 11
717.5660128
 21
997.7504992000001
 31
0.0
 12
717.4340992000001
 22
997.7504992000001
 32
0.0
 13
717.4340992000001
 23
997.7504992000001
 33
0.0
  0
SOLID
  5
30D
330
1F
100
AcDbEntity
  8
PDF _0
440
 33554559
100
AcDbTrace
 10
717.5660128
 20
997.7504992000001
 30
0.0
 11
719.6766304000001
 21
997.7504992000001
 31
0.0
 12
719.6766304000001
 22
997.7504992000001
 32
0.0
 13
719.6766304000001
 23
997.7504992000001
 33
0.0
  0
SOLID
  5
30E
330
1F
100
AcDbEntity
  8
PDF _0
440
 33554559
100
AcDbTrace
 10
719.6766304000001
 20
997.7504992000001
 30
0.0
 11
717.4340992000001
 21
997.7504992000001
 31
0.0
 12
719.6766304000001
 22
997.6185856
 32
0.0
 13
719.6766304000001
 23
997.6185856
 33
0.0
  0
SOLID
  5
30F
330
1F
100
AcDbEntity
  8
PDF _0
440
 33554559
100
AcDbTrace
 10
717.4340992000001
 20
997.7504992000001
 30
0.0
 11
719.6766304000001
 21
997.6185856
 31
0.0
 12
717.4340992000001
 22
997.6185856
 32
0.0
 13
717.4340992000001
 23
997.6185856
 33
0.0
  0
SOLID
  5
310
330
1F
100
AcDbEntity
  8
PDF _0
440
 33554559
100
AcDbTrace
 10
719.6766304000001
 20
997.6185856
 30
0.0
 11
717.4340992000001
 21
997.6185856
 31
0.0
 12
719.6766304000001
 22
997.4866720000001
 32
0.0
 13
719.6766304000001
 23
997.4866720000001
 33
0.0
  0
SOLID
  5
311
330
1F
100
AcDbEntity
  8
PDF _0
440
 33554559
100
AcDbTrace
 10
717.4340992000001
 20
997.6185856
 30
0.0
 11
719.6766304000001
 21
997.4866720000001
 31
0.0
 12
717.4340992000001
 22
997.4866720000001
 32
0.0
 13
717.4340992000001
 23
997.4866720000001
 33
0.0
  0
SOLID
  5
312
330
1F
100
AcDbEntity
  8
PDF _0
440
 33554559
100
AcDbTrace
 10
719.6766304000001
 20
997.4866720000001
 30
0.0
 11
717.4340992000001
 21
997.4866720000001
 31
0.0
 12
719.6766304000001
 22
997.3547584000002
 32
0.0
 13
719.6766304000001
 23
997.3547584000002
 33
0.0
  0
SOLID
  5
313
330
1F
100
AcDbEntity
  8
PDF _0
440
 33554559
100
AcDbTrace
 10
717.4340992000001
 20
997.4866720000001
 30
0.0
 11
719.6766304000001
 21
997.3547584000002
 31
0.0
 12
717.5660128
 22
997.3547584000002
 32
0.0
 13
717.5660128
 23
997.3547584000002
 33
0.0
  0
SOLID
  5
314
330
1F
100
AcDbEntity
  8
PDF _0
440
 33554559
100
AcDbTrace
 10
719.6766304000001
 20
997.3547584000002
 30
0.0
 11
717.5660128
 21
997.3547584000002
 31
0.0
 12
719.6766304000001
 22
997.2228448
 32
0.0
 13
719.6766304000001
 23
997.2228448
 33
0.0
  0
SOLID
  5
315
330
1F
100
AcDbEntity
  8
PDF _0
440
 33554559
100
AcDbTrace
 10
717.5660128
 20
997.3547584000002
 30
0.0
 11
719.6766304000001
 21
997.2228448
 31
0.0
 12
717.5660128
 22
997.2228448
 32
0.0
 13
717.5660128
 23
997.2228448
 33
0.0
  0
SOLID
  5
316
330
1F
100
AcDbEntity
  8
PDF _0
440
 33554559
100
AcDbTrace
 10
719.5447168000001
 20
997.2228448
 30
0.0
 11
719.5447168000001
 21
997.2228448
 31
0.0
 12
717.5660128
 22
997.2228448
 32
0.0
 13
717.5660128
 23
997.2228448
 33
0.0
  0
SOLID
  5
317
330
1F
100
AcDbEntity
  8
PDF _0
440
 33554559
100
AcDbTrace
 10
719.5447168000001
 20
997.2228448
 30
0.0
 11
717.5660128
 21
997.2228448
 31
0.0
 12
719.6766304000001
 22
997.2228448
 32
0.0
 13
719.6766304000001
 23
997.2228448
 33
0.0
  0
SOLID
  5
318
330
1F
100
AcDbEntity
  8
PDF _0
440
 33554559
100
AcDbTrace
 10
719.5447168000001
 20
997.2228448
 30
0.0
 11
717.5660128
 21
997.2228448
 31
0.0
 12
719.5447168000001
 22
997.0909312000001
 32
0.0
 13
719.5447168000001
 23
997.0909312000001
 33
0.0
  0
SOLID
  5
319
330
1F
100
AcDbEntity
  8
PDF _0
440
 33554559
100
AcDbTrace
 10
717.5660128
 20
997.2228448
 30
0.0
 11
719.5447168000001
 21
997.0909312000001
 31
0.0
 12
717.5660128
 22
997.0909312000001
 32
0.0
 13
717.5660128
 23
997.0909312000001
 33
0.0
  0
SOLID
  5
31A
330
1F
100
AcDbEntity
  8
PDF _0
440
 33554559
100
AcDbTrace
 10
719.5447168000001
 20
997.0909312000001
 30
0.0
 11
717.5660128
 21
997.0909312000001
 31
0.0
 12
719.5447168000001
 22
996.9590176000002
 32
0.0
 13
719.5447168000001
 23
996.9590176000002
 33
0.0
  0
SOLID
  5
31B
330
1F
100
AcDbEntity
  8
PDF _0
440
 33554559
100
AcDbTrace
 10
717.5660128
 20
997.0909312000001
 30
0.0
 11
719.5447168000001
 21
996.9590176000002
 31
0.0
 12
717.6979264000001
 22
996.9590176000002
 32
0.0
 13
717.6979264000001
 23
996.9590176000002
 33
0.0
  0
SOLID
  5
31C
330
1F
100
AcDbEntity
  8
PDF _0
440
 33554559
100
AcDbTrace
 10
719.4128032
 20
996.9590176000002
 30
0.0
 11
719.4128032
 21
996.9590176000002
 31
0.0
 12
717.6979264000001
 22
996.9590176000002
 32
0.0
 13
717.6979264000001
 23
996.9590176000002
 33
0.0
  0
SOLID
  5
31D
330
1F
100
AcDbEntity
  8
PDF _0
440
 33554559
100
AcDbTrace
 10
719.4128032
 20
996.9590176000002
 30
0.0
 11
717.6979264000001
 21
996.9590176000002
 31
0.0
 12
719.5447168000001
 22
996.9590176000002
 32
0.0
 13
719.5447168000001
 23
996.9590176000002
 33
0.0
  0
SOLID
  5
31E
330
1F
100
AcDbEntity
  8
PDF _0
440
 33554559
100
AcDbTrace
 10
719.4128032
 20
996.9590176000002
 30
0.0
 11
717.6979264000001
 21
996.9590176000002
 31
0.0
 12
719.4128032
 22
996.8271040000001
 32
0.0
 13
719.4128032
 23
996.8271040000001
 33
0.0
  0
SOLID
  5
31F
330
1F
100
AcDbEntity
  8
PDF _0
440
 33554559
100
AcDbTrace
 10
717.6979264000001
 20
996.9590176000002
 30
0.0
 11
719.4128032
 21
996.8271040000001
 31
0.0
 12
717.82984
 22
996.8271040000001
 32
0.0
 13
717.82984
 23
996.8271040000001
 33
0.0
  0
SOLID
  5
320
330
1F
100
AcDbEntity
  8
PDF _0
440
 33554559
100
AcDbTrace
 10
719.4128032
 20
996.8271040000001
 30
0.0
 11
717.82984
 21
996.8271040000001
 31
0.0
 12
719.2808896000001
 22
996.6951904000001
 32
0.0
 13
719.2808896000001
 23
996.6951904000001
 33
0.0
  0
SOLID
  5
321
330
1F
100
AcDbEntity
  8
PDF _0
440
 33554559
100
AcDbTrace
 10
717.82984
 20
996.8271040000001
 30
0.0
 11
719.2808896000001
 21
996.6951904000001
 31
0.0
 12
717.82984
 22
996.6951904000001
 32
0.0
 13
717.82984
 23
996.6951904000001
 33
0.0
  0
SOLID
  5
322
330
1F
100
AcDbEntity
  8
PDF _0
440
 33554559
100
AcDbTrace
 10
719.2808896000001
 20
996.6951904000001
 30
0.0
 11
717.82984
 21
996.6951904000001
 31
0.0
 12
717.9617536000001
 22
996.6951904000001
 32
0.0
 13
717.9617536000001
 23
996.6951904000001
 33
0.0
  0
SOLID
  5
323
330
1F
100
AcDbEntity
  8
PDF _0
440
 33554559
100
AcDbTrace
 10
717.82984
 20
996.6951904000001
 30
0.0
 11
719.2808896000001
 21
996.6951904000001
 31
0.0
 12
719.2808896000001
 22
996.6951904000001
 32
0.0
 13
719.2808896000001
 23
996.6951904000001
 33
0.0
  0
SOLID
  5
324
330
1F
100
AcDbEntity
  8
PDF _0
440
 33554559
100
AcDbTrace
 10
719.2808896000001
 20
996.6951904000001
 30
0.0
 11
717.9617536000001
 21
996.6951904000001
 31
0.0
 12
719.148976
 22
996.6951904000001
 32
0.0
 13
719.148976
 23
996.6951904000001
 33
0.0
  0
SOLID
  5
325
330
1F
100
AcDbEntity
  8
PDF _0
440
 33554559
100
AcDbTrace
 10
717.9617536000001
 20
996.6951904000001
 30
0.0
 11
719.148976
 21
996.6951904000001
 31
0.0
 12
718.0936672000001
 22
996.6951904000001
 32
0.0
 13
718.0936672000001
 23
996.6951904000001
 33
0.0
  0
SOLID
  5
326
330
1F
100
AcDbEntity
  8
PDF _0
440
 33554559
100
AcDbTrace
 10
719.148976
 20
996.6951904000001
 30
0.0
 11
718.0936672000001
 21
996.6951904000001
 31
0.0
 12
719.0170624000001
 22
996.5632768000002
 32
0.0
 13
719.0170624000001
 23
996.5632768000002
 33
0.0
  0
SOLID
  5
327
330
1F
100
AcDbEntity
  8
PDF _0
440
 33554559
100
AcDbTrace
 10
718.0936672000001
 20
996.6951904000001
 30
0.0
 11
719.0170624000001
 21
996.5632768000002
 31
0.0
 12
718.0936672000001
 22
996.5632768000002
 32
0.0
 13
718.0936672000001
 23
996.5632768000002
 33
0.0
  0
SOLID
  5
328
330
1F
100
AcDbEntity
  8
PDF _0
440
 33554559
100
AcDbTrace
 10
719.0170624000001
 20
996.5632768000002
 30
0.0
 11
718.0936672000001
 21
996.5632768000002
 31
0.0
 12
718.8851488000001
 22
996.5632768000002
 32
0.0
 13
718.8851488000001
 23
996.5632768000002
 33
0.0
  0
SOLID
  5
329
330
1F
100
AcDbEntity
  8
PDF _0
440
 33554559
100
AcDbTrace
 10
718.0936672000001
 20
996.5632768000002
 30
0.0
 11
718.8851488000001
 21
996.5632768000002
 31
0.0
 12
718.2255808
 22
996.5632768000002
 32
0.0
 13
718.2255808
 23
996.5632768000002
 33
0.0
  0
SOLID
  5
32A
330
1F
100
AcDbEntity
  8
PDF _0
440
 33554559
100
AcDbTrace
 10
718.8851488000001
 20
996.5632768000002
 30
0.0
 11
718.2255808
 21
996.5632768000002
 31
0.0
 12
718.3574944
 22
996.5632768000002
 32
0.0
 13
718.3574944
 23
996.5632768000002
 33
0.0
  0
SOLID
  5
32B
330
1F
100
AcDbEntity
  8
PDF _0
440
 33554559
100
AcDbTrace
 10
718.2255808
 20
996.5632768000002
 30
0.0
 11
718.8851488000001
 21
996.5632768000002
 31
0.0
 12
718.8851488000001
 22
996.5632768000002
 32
0.0
 13
718.8851488000001
 23
996.5632768000002
 33
0.0
  0
SOLID
  5
32C
330
1F
100
AcDbEntity
  8
PDF _0
440
 33554559
100
AcDbTrace
 10
718.3574944
 20
996.5632768000002
 30
0.0
 11
718.4894080000001
 21
996.4313632000001
 31
0.0
 12
718.7532352
 22
996.4313632000001
 32
0.0
 13
718.7532352
 23
996.4313632000001
 33
0.0
  0
SOLID
  5
32D
330
1F
100
AcDbEntity
  8
PDF _0
440
 33554559
100
AcDbTrace
 10
718.4894080000001
 20
996.4313632000001
 30
0.0
 11
718.7532352
 21
996.4313632000001
 31
0.0
 12
718.6213216000001
 22
996.4313632000001
 32
0.0
 13
718.6213216000001
 23
996.4313632000001
 33
0.0
  0
SOLID
  5
32E
330
1F
100
AcDbEntity
  8
PDF _0
440
 33554559
100
AcDbTrace
 10
718.3574944
 20
996.5632768000002
 30
0.0
 11
718.8851488000001
 21
996.5632768000002
 31
0.0
 12
718.7532352
 22
996.4313632000001
 32
0.0
 13
718.7532352
 23
996.4313632000001
 33
0.0
  0
LWPOLYLINE
  5
330
330
1F
100
AcDbEntity
  8
PDF _0
370
    25
100
AcDbPolyline
 90
        4
 70
     0
 43
0.0
 10
945.2488864000001
 20
996.4313632000001
 10
719.6766304000001
 20
996.4313632000001
 10
719.6766304000001
 20
986.5378432000001
 10
945.2488864000001
 20
986.5378432000001
  0
LWPOLYLINE
  5
331
330
1F
100
AcDbEntity
  8
PDF _0
370
    25
100
AcDbPolyline
 90
        4
 70
     1
 43
0.0
 10
868.6070848000001
 20
996.4313632000001
 10
881.7984448
 20
996.4313632000001
 10
881.7984448
 20
1004.2142656
 10
868.6070848000001
 20
1004.2142656
  0
LWPOLYLINE
  5
332
330
1F
100
AcDbEntity
  8
PDF _0
370
    25
100
AcDbPolyline
 90
        5
 70
     0
 43
0.0
 10
582.8822272
 20
995.3760544000001
 10
665.5920544
 20
995.3760544000001
 10
665.5920544
 20
984.95488
 10
666.2516224
 20
984.295312
 10
666.7792768
 20
984.95488
  0
SOLID
  5
333
330
1F
100
AcDbEntity
  8
PDF _0
440
 33554559
100
AcDbTrace
 10
666.2516224
 20
985.4825344000001
 30
0.0
 11
665.9877952
 21
985.4825344000001
 31
0.0
 12
665.9877952
 22
985.4825344000001
 32
0.0
 13
665.9877952
 23
985.4825344000001
 33
0.0
  0
SOLID
  5
334
330
1F
100
AcDbEntity
  8
PDF _0
440
 33554559
100
AcDbTrace
 10
666.5154496000001
 20
985.4825344000001
 30
0.0
 11
666.5154496000001
 21
985.4825344000001
 31
0.0
 12
665.9877952
 22
985.4825344000001
 32
0.0
 13
665.9877952
 23
985.4825344000001
 33
0.0
  0
SOLID
  5
335
330
1F
100
AcDbEntity
  8
PDF _0
440
 33554559
100
AcDbTrace
 10
666.5154496000001
 20
985.4825344000001
 30
0.0
 11
665.9877952
 21
985.4825344000001
 31
0.0
 12
666.2516224
 22
985.4825344000001
 32
0.0
 13
666.2516224
 23
985.4825344000001
 33
0.0
  0
SOLID
  5
336
330
1F
100
AcDbEntity
  8
PDF _0
440
 33554559
100
AcDbTrace
 10
666.5154496000001
 20
985.4825344000001
 30
0.0
 11
665.9877952
 21
985.4825344000001
 31
0.0
 12
666.5154496000001
 22
985.3506208
 32
0.0
 13
666.5154496000001
 23
985.3506208
 33
0.0
  0
SOLID
  5
337
330
1F
100
AcDbEntity
  8
PDF _0
440
 33554559
100
AcDbTrace
 10
665.9877952
 20
985.4825344000001
 30
0.0
 11
666.5154496000001
 21
985.3506208
 31
0.0
 12
665.8558816000001
 22
985.3506208
 32
0.0
 13
665.8558816000001
 23
985.3506208
 33
0.0
  0
SOLID
  5
338
330
1F
100
AcDbEntity
  8
PDF _0
440
 33554559
100
AcDbTrace
 10
666.5154496000001
 20
985.3506208
 30
0.0
 11
665.8558816000001
 21
985.3506208
 31
0.0
 12
666.6473632
 22
985.3506208
 32
0.0
 13
666.6473632
 23
985.3506208
 33
0.0
  0
SOLID
  5
339
330
1F
100
AcDbEntity
  8
PDF _0
440
 33554559
100
AcDbTrace
 10
665.8558816000001
 20
985.3506208
 30
0.0
 11
666.6473632
 21
985.3506208
 31
0.0
 12
665.7239680000001
 22
985.3506208
 32
0.0
 13
665.7239680000001
 23
985.3506208
 33
0.0
  0
SOLID
  5
33A
330
1F
100
AcDbEntity
  8
PDF _0
440
 33554559
100
AcDbTrace
 10
666.6473632
 20
985.3506208
 30
0.0
 11
665.7239680000001
 21
985.3506208
 31
0.0
 12
666.7792768
 22
985.3506208
 32
0.0
 13
666.7792768
 23
985.3506208
 33
0.0
  0
SOLID
  5
33B
330
1F
100
AcDbEntity
  8
PDF _0
440
 33554559
100
AcDbTrace
 10
665.7239680000001
 20
985.3506208
 30
0.0
 11
666.7792768
 21
985.3506208
 31
0.0
 12
665.5920544
 22
985.3506208
 32
0.0
 13
665.5920544
 23
985.3506208
 33
0.0
  0
SOLID
  5
33C
330
1F
100
AcDbEntity
  8
PDF _0
440
 33554559
100
AcDbTrace
 10
666.7792768
 20
985.3506208
 30
0.0
 11
665.5920544
 21
985.3506208
 31
0.0
 12
666.7792768
 22
985.2187072000001
 32
0.0
 13
666.7792768
 23
985.2187072000001
 33
0.0
  0
SOLID
  5
33D
330
1F
100
AcDbEntity
  8
PDF _0
440
 33554559
100
AcDbTrace
 10
665.5920544
 20
985.3506208
 30
0.0
 11
666.7792768
 21
985.2187072000001
 31
0.0
 12
665.5920544
 22
985.2187072000001
 32
0.0
 13
665.5920544
 23
985.2187072000001
 33
0.0
  0
SOLID
  5
33E
330
1F
100
AcDbEntity
  8
PDF _0
440
 33554559
100
AcDbTrace
 10
666.7792768
 20
985.2187072000001
 30
0.0
 11
665.5920544
 21
985.2187072000001
 31
0.0
 12
666.9111904000001
 22
985.2187072000001
 32
0.0
 13
666.9111904000001
 23
985.2187072000001
 33
0.0
  0
SOLID
  5
33F
330
1F
100
AcDbEntity
  8
PDF _0
440
 33554559
100
AcDbTrace
 10
665.5920544
 20
985.2187072000001
 30
0.0
 11
666.9111904000001
 21
985.2187072000001
 31
0.0
 12
665.4601408000001
 22
985.2187072000001
 32
0.0
 13
665.4601408000001
 23
985.2187072000001
 33
0.0
  0
SOLID
  5
340
330
1F
100
AcDbEntity
  8
PDF _0
440
 33554559
100
AcDbTrace
 10
666.9111904000001
 20
985.2187072000001
 30
0.0
 11
665.4601408000001
 21
985.2187072000001
 31
0.0
 12
667.0431040000001
 22
985.0867936
 32
0.0
 13
667.0431040000001
 23
985.0867936
 33
0.0
  0
SOLID
  5
341
330
1F
100
AcDbEntity
  8
PDF _0
440
 33554559
100
AcDbTrace
 10
665.4601408000001
 20
985.2187072000001
 30
0.0
 11
667.0431040000001
 21
985.0867936
 31
0.0
 12
665.4601408000001
 22
985.0867936
 32
0.0
 13
665.4601408000001
 23
985.0867936
 33
0.0
  0
SOLID
  5
342
330
1F
100
AcDbEntity
  8
PDF _0
440
 33554559
100
AcDbTrace
 10
667.0431040000001
 20
985.0867936
 30
0.0
 11
665.4601408000001
 21
985.0867936
 31
0.0
 12
665.3282272000001
 22
985.0867936
 32
0.0
 13
665.3282272000001
 23
985.0867936
 33
0.0
  0
SOLID
  5
343
330
1F
100
AcDbEntity
  8
PDF _0
440
 33554559
100
AcDbTrace
 10
665.4601408000001
 20
985.0867936
 30
0.0
 11
667.0431040000001
 21
985.0867936
 31
0.0
 12
667.0431040000001
 22
985.0867936
 32
0.0
 13
667.0431040000001
 23
985.0867936
 33
0.0
  0
SOLID
  5
344
330
1F
100
AcDbEntity
  8
PDF _0
440
 33554559
100
AcDbTrace
 10
667.0431040000001
 20
985.0867936
 30
0.0
 11
665.3282272000001
 21
985.0867936
 31
0.0
 12
667.1750176
 22
984.95488
 32
0.0
 13
667.1750176
 23
984.95488
 33
0.0
  0
SOLID
  5
345
330
1F
100
AcDbEntity
  8
PDF _0
440
 33554559
100
AcDbTrace
 10
665.3282272000001
 20
985.0867936
 30
0.0
 11
667.1750176
 21
984.95488
 31
0.0
 12
665.3282272000001
 22
984.95488
 32
0.0
 13
665.3282272000001
 23
984.95488
 33
0.0
  0
SOLID
  5
346
330
1F
100
AcDbEntity
  8
PDF _0
440
 33554559
100
AcDbTrace
 10
667.1750176
 20
984.95488
 30
0.0
 11
665.3282272000001
 21
984.95488
 31
0.0
 12
667.1750176
 22
984.8229664000001
 32
0.0
 13
667.1750176
 23
984.8229664000001
 33
0.0
  0
SOLID
  5
347
330
1F
100
AcDbEntity
  8
PDF _0
440
 33554559
100
AcDbTrace
 10
665.3282272000001
 20
984.95488
 30
0.0
 11
667.1750176
 21
984.8229664000001
 31
0.0
 12
665.1963136
 22
984.8229664000001
 32
0.0
 13
665.1963136
 23
984.8229664000001
 33
0.0
  0
SOLID
  5
348
330
1F
100
AcDbEntity
  8
PDF _0
440
 33554559
100
AcDbTrace
 10
665.1963136
 20
984.8229664000001
 30
0.0
 11
667.1750176
 21
984.8229664000001
 31
0.0
 12
667.1750176
 22
984.8229664000001
 32
0.0
 13
667.1750176
 23
984.8229664000001
 33
0.0
  0
LWPOLYLINE
  5
349
330
1F
100
AcDbEntity
  8
PDF _0
370
     0
100
AcDbPolyline
 90
        3
 70
     0
 43
0.0
 10
667.1750176
 20
984.8229664000001
 10
665.1963136
 20
984.8229664000001
 10
667.1750176
 20
984.8229664000001
  0
SOLID
  5
34A
330
1F
100
AcDbEntity
  8
PDF _0
440
 33554559
100
AcDbTrace
 10
667.1750176
 20
984.8229664000001
 30
0.0
 11
665.1963136
 21
984.8229664000001
 31
0.0
 12
667.3069312000001
 22
984.6910528
 32
0.0
 13
667.3069312000001
 23
984.6910528
 33
0.0
  0
SOLID
  5
34B
330
1F
100
AcDbEntity
  8
PDF _0
440
 33554559
100
AcDbTrace
 10
665.1963136
 20
984.8229664000001
 30
0.0
 11
667.3069312000001
 21
984.6910528
 31
0.0
 12
665.1963136
 22
984.6910528
 32
0.0
 13
665.1963136
 23
984.6910528
 33
0.0
  0
SOLID
  5
34C
330
1F
100
AcDbEntity
  8
PDF _0
440
 33554559
100
AcDbTrace
 10
667.3069312000001
 20
984.6910528
 30
0.0
 11
665.1963136
 21
984.6910528
 31
0.0
 12
667.3069312000001
 22
984.5591392000001
 32
0.0
 13
667.3069312000001
 23
984.5591392000001
 33
0.0
  0
SOLID
  5
34D
330
1F
100
AcDbEntity
  8
PDF _0
440
 33554559
100
AcDbTrace
 10
665.1963136
 20
984.6910528
 30
0.0
 11
667.3069312000001
 21
984.5591392000001
 31
0.0
 12
665.0644
 22
984.5591392000001
 32
0.0
 13
665.0644
 23
984.5591392000001
 33
0.0
  0
SOLID
  5
34E
330
1F
100
AcDbEntity
  8
PDF _0
440
 33554559
100
AcDbTrace
 10
667.3069312000001
 20
984.5591392000001
 30
0.0
 11
665.0644
 21
984.5591392000001
 31
0.0
 12
667.3069312000001
 22
984.4272256000001
 32
0.0
 13
667.3069312000001
 23
984.4272256000001
 33
0.0
  0
SOLID
  5
34F
330
1F
100
AcDbEntity
  8
PDF _0
440
 33554559
100
AcDbTrace
 10
665.0644
 20
984.5591392000001
 30
0.0
 11
667.3069312000001
 21
984.4272256000001
 31
0.0
 12
665.0644
 22
984.4272256000001
 32
0.0
 13
665.0644
 23
984.4272256000001
 33
0.0
  0
SOLID
  5
350
330
1F
100
AcDbEntity
  8
PDF _0
440
 33554559
100
AcDbTrace
 10
667.3069312000001
 20
984.4272256000001
 30
0.0
 11
665.0644
 21
984.4272256000001
 31
0.0
 12
667.3069312000001
 22
984.295312
 32
0.0
 13
667.3069312000001
 23
984.295312
 33
0.0
  0
SOLID
  5
351
330
1F
100
AcDbEntity
  8
PDF _0
440
 33554559
100
AcDbTrace
 10
665.0644
 20
984.4272256000001
 30
0.0
 11
667.3069312000001
 21
984.295312
 31
0.0
 12
665.0644
 22
984.295312
 32
0.0
 13
665.0644
 23
984.295312
 33
0.0
  0
SOLID
  5
352
330
1F
100
AcDbEntity
  8
PDF _0
440
 33554559
100
AcDbTrace
 10
665.0644
 20
984.295312
 30
0.0
 11
667.3069312000001
 21
984.295312
 31
0.0
 12
667.3069312000001
 22
984.295312
 32
0.0
 13
667.3069312000001
 23
984.295312
 33
0.0
  0
LWPOLYLINE
  5
353
330
1F
100
AcDbEntity
  8
PDF _0
370
     0
100
AcDbPolyline
 90
        3
 70
     0
 43
0.0
 10
667.3069312000001
 20
984.295312
 10
665.0644
 20
984.295312
 10
667.3069312000001
 20
984.295312
  0
SOLID
  5
354
330
1F
100
AcDbEntity
  8
PDF _0
440
 33554559
100
AcDbTrace
 10
667.3069312000001
 20
984.295312
 30
0.0
 11
665.0644
 21
984.295312
 31
0.0
 12
667.3069312000001
 22
984.1633984000001
 32
0.0
 13
667.3069312000001
 23
984.1633984000001
 33
0.0
  0
SOLID
  5
355
330
1F
100
AcDbEntity
  8
PDF _0
440
 33554559
100
AcDbTrace
 10
665.0644
 20
984.295312
 30
0.0
 11
667.3069312000001
 21
984.1633984000001
 31
0.0
 12
665.0644
 22
984.1633984000001
 32
0.0
 13
665.0644
 23
984.1633984000001
 33
0.0
  0
SOLID
  5
356
330
1F
100
AcDbEntity
  8
PDF _0
440
 33554559
100
AcDbTrace
 10
667.3069312000001
 20
984.1633984000001
 30
0.0
 11
665.0644
 21
984.1633984000001
 31
0.0
 12
667.3069312000001
 22
984.0314848000002
 32
0.0
 13
667.3069312000001
 23
984.0314848000002
 33
0.0
  0
SOLID
  5
357
330
1F
100
AcDbEntity
  8
PDF _0
440
 33554559
100
AcDbTrace
 10
665.0644
 20
984.1633984000001
 30
0.0
 11
667.3069312000001
 21
984.0314848000002
 31
0.0
 12
665.1963136
 22
984.0314848000002
 32
0.0
 13
665.1963136
 23
984.0314848000002
 33
0.0
  0
SOLID
  5
358
330
1F
100
AcDbEntity
  8
PDF _0
440
 33554559
100
AcDbTrace
 10
667.3069312000001
 20
984.0314848000002
 30
0.0
 11
665.1963136
 21
984.0314848000002
 31
0.0
 12
667.1750176
 22
983.8995712
 32
0.0
 13
667.1750176
 23
983.8995712
 33
0.0
  0
SOLID
  5
359
330
1F
100
AcDbEntity
  8
PDF _0
440
 33554559
100
AcDbTrace
 10
665.1963136
 20
984.0314848000002
 30
0.0
 11
667.1750176
 21
983.8995712
 31
0.0
 12
665.1963136
 22
983.8995712
 32
0.0
 13
665.1963136
 23
983.8995712
 33
0.0
  0
SOLID
  5
35A
330
1F
100
AcDbEntity
  8
PDF _0
440
 33554559
100
AcDbTrace
 10
665.1963136
 20
983.8995712
 30
0.0
 11
667.1750176
 21
983.8995712
 31
0.0
 12
667.1750176
 22
983.8995712
 32
0.0
 13
667.1750176
 23
983.8995712
 33
0.0
  0
LWPOLYLINE
  5
35B
330
1F
100
AcDbEntity
  8
PDF _0
370
     0
100
AcDbPolyline
 90
        3
 70
     0
 43
0.0
 10
667.1750176
 20
983.8995712
 10
665.1963136
 20
983.8995712
 10
667.1750176
 20
983.8995712
  0
SOLID
  5
35C
330
1F
100
AcDbEntity
  8
PDF _0
440
 33554559
100
AcDbTrace
 10
667.1750176
 20
983.8995712
 30
0.0
 11
665.1963136
 21
983.8995712
 31
0.0
 12
667.1750176
 22
983.7676576000001
 32
0.0
 13
667.1750176
 23
983.7676576000001
 33
0.0
  0
SOLID
  5
35D
330
1F
100
AcDbEntity
  8
PDF _0
440
 33554559
100
AcDbTrace
 10
665.1963136
 20
983.8995712
 30
0.0
 11
667.1750176
 21
983.7676576000001
 31
0.0
 12
665.3282272000001
 22
983.7676576000001
 32
0.0
 13
665.3282272000001
 23
983.7676576000001
 33
0.0
  0
SOLID
  5
35E
330
1F
100
AcDbEntity
  8
PDF _0
440
 33554559
100
AcDbTrace
 10
667.1750176
 20
983.7676576000001
 30
0.0
 11
665.3282272000001
 21
983.7676576000001
 31
0.0
 12
667.0431040000001
 22
983.6357440000002
 32
0.0
 13
667.0431040000001
 23
983.6357440000002
 33
0.0
  0
SOLID
  5
35F
330
1F
100
AcDbEntity
  8
PDF _0
440
 33554559
100
AcDbTrace
 10
665.3282272000001
 20
983.7676576000001
 30
0.0
 11
667.0431040000001
 21
983.6357440000002
 31
0.0
 12
665.3282272000001
 22
983.6357440000002
 32
0.0
 13
665.3282272000001
 23
983.6357440000002
 33
0.0
  0
SOLID
  5
360
330
1F
100
AcDbEntity
  8
PDF _0
440
 33554559
100
AcDbTrace
 10
667.0431040000001
 20
983.6357440000002
 30
0.0
 11
665.3282272000001
 21
983.6357440000002
 31
0.0
 12
665.4601408000001
 22
983.6357440000002
 32
0.0
 13
665.4601408000001
 23
983.6357440000002
 33
0.0
  0
SOLID
  5
361
330
1F
100
AcDbEntity
  8
PDF _0
440
 33554559
100
AcDbTrace
 10
665.3282272000001
 20
983.6357440000002
 30
0.0
 11
667.0431040000001
 21
983.6357440000002
 31
0.0
 12
667.0431040000001
 22
983.6357440000002
 32
0.0
 13
667.0431040000001
 23
983.6357440000002
 33
0.0
  0
SOLID
  5
362
330
1F
100
AcDbEntity
  8
PDF _0
440
 33554559
100
AcDbTrace
 10
667.0431040000001
 20
983.6357440000002
 30
0.0
 11
665.4601408000001
 21
983.6357440000002
 31
0.0
 12
666.9111904000001
 22
983.5038304000001
 32
0.0
 13
666.9111904000001
 23
983.5038304000001
 33
0.0
  0
SOLID
  5
363
330
1F
100
AcDbEntity
  8
PDF _0
440
 33554559
100
AcDbTrace
 10
665.4601408000001
 20
983.6357440000002
 30
0.0
 11
666.9111904000001
 21
983.5038304000001
 31
0.0
 12
665.4601408000001
 22
983.5038304000001
 32
0.0
 13
665.4601408000001
 23
983.5038304000001
 33
0.0
  0
SOLID
  5
364
330
1F
100
AcDbEntity
  8
PDF _0
440
 33554559
100
AcDbTrace
 10
666.9111904000001
 20
983.5038304000001
 30
0.0
 11
665.4601408000001
 21
983.5038304000001
 31
0.0
 12
666.7792768
 22
983.5038304000001
 32
0.0
 13
666.7792768
 23
983.5038304000001
 33
0.0
  0
SOLID
  5
365
330
1F
100
AcDbEntity
  8
PDF _0
440
 33554559
100
AcDbTrace
 10
665.4601408000001
 20
983.5038304000001
 30
0.0
 11
666.7792768
 21
983.5038304000001
 31
0.0
 12
665.5920544
 22
983.5038304000001
 32
0.0
 13
665.5920544
 23
983.5038304000001
 33
0.0
  0
SOLID
  5
366
330
1F
100
AcDbEntity
  8
PDF _0
440
 33554559
100
AcDbTrace
 10
666.7792768
 20
983.5038304000001
 30
0.0
 11
665.5920544
 21
983.5038304000001
 31
0.0
 12
666.7792768
 22
983.3719168000001
 32
0.0
 13
666.7792768
 23
983.3719168000001
 33
0.0
  0
SOLID
  5
367
330
1F
100
AcDbEntity
  8
PDF _0
440
 33554559
100
AcDbTrace
 10
665.5920544
 20
983.5038304000001
 30
0.0
 11
666.7792768
 21
983.3719168000001
 31
0.0
 12
665.5920544
 22
983.3719168000001
 32
0.0
 13
665.5920544
 23
983.3719168000001
 33
0.0
  0
SOLID
  5
368
330
1F
100
AcDbEntity
  8
PDF _0
440
 33554559
100
AcDbTrace
 10
666.7792768
 20
983.3719168000001
 30
0.0
 11
665.5920544
 21
983.3719168000001
 31
0.0
 12
666.6473632
 22
983.3719168000001
 32
0.0
 13
666.6473632
 23
983.3719168000001
 33
0.0
  0
SOLID
  5
369
330
1F
100
AcDbEntity
  8
PDF _0
440
 33554559
100
AcDbTrace
 10
665.5920544
 20
983.3719168000001
 30
0.0
 11
666.6473632
 21
983.3719168000001
 31
0.0
 12
665.7239680000001
 22
983.3719168000001
 32
0.0
 13
665.7239680000001
 23
983.3719168000001
 33
0.0
  0
SOLID
  5
36A
330
1F
100
AcDbEntity
  8
PDF _0
440
 33554559
100
AcDbTrace
 10
666.6473632
 20
983.3719168000001
 30
0.0
 11
665.7239680000001
 21
983.3719168000001
 31
0.0
 12
666.5154496000001
 22
983.3719168000001
 32
0.0
 13
666.5154496000001
 23
983.3719168000001
 33
0.0
  0
SOLID
  5
36B
330
1F
100
AcDbEntity
  8
PDF _0
440
 33554559
100
AcDbTrace
 10
665.7239680000001
 20
983.3719168000001
 30
0.0
 11
666.5154496000001
 21
983.3719168000001
 31
0.0
 12
665.8558816000001
 22
983.3719168000001
 32
0.0
 13
665.8558816000001
 23
983.3719168000001
 33
0.0
  0
SOLID
  5
36C
330
1F
100
AcDbEntity
  8
PDF _0
440
 33554559
100
AcDbTrace
 10
666.5154496000001
 20
983.3719168000001
 30
0.0
 11
665.8558816000001
 21
983.3719168000001
 31
0.0
 12
666.5154496000001
 22
983.2400032000002
 32
0.0
 13
666.5154496000001
 23
983.2400032000002
 33
0.0
  0
SOLID
  5
36D
330
1F
100
AcDbEntity
  8
PDF _0
440
 33554559
100
AcDbTrace
 10
665.8558816000001
 20
983.3719168000001
 30
0.0
 11
666.5154496000001
 21
983.2400032000002
 31
0.0
 12
665.9877952
 22
983.2400032000002
 32
0.0
 13
665.9877952
 23
983.2400032000002
 33
0.0
  0
SOLID
  5
36E
330
1F
100
AcDbEntity
  8
PDF _0
440
 33554559
100
AcDbTrace
 10
665.9877952
 20
983.2400032000002
 30
0.0
 11
666.2516224
 21
983.2400032000002
 31
0.0
 12
666.2516224
 22
983.2400032000002
 32
0.0
 13
666.2516224
 23
983.2400032000002
 33
0.0
  0
SOLID
  5
36F
330
1F
100
AcDbEntity
  8
PDF _0
440
 33554559
100
AcDbTrace
 10
666.2516224
 20
983.2400032000002
 30
0.0
 11
666.2516224
 21
983.2400032000002
 31
0.0
 12
665.9877952
 22
983.2400032000002
 32
0.0
 13
665.9877952
 23
983.2400032000002
 33
0.0
  0
SOLID
  5
370
330
1F
100
AcDbEntity
  8
PDF _0
440
 33554559
100
AcDbTrace
 10
666.2516224
 20
983.2400032000002
 30
0.0
 11
665.9877952
 21
983.2400032000002
 31
0.0
 12
666.5154496000001
 22
983.2400032000002
 32
0.0
 13
666.5154496000001
 23
983.2400032000002
 33
0.0
  0
LWPOLYLINE
  5
372
330
1F
100
AcDbEntity
  8
PDF _0
370
    25
100
AcDbPolyline
 90
        2
 70
     0
 43
0.0
 10
667.3069312000001
 20
984.95488
 10
667.3069312000001
 20
995.3760544000001
  0
LWPOLYLINE
  5
373
330
1F
100
AcDbEntity
  8
PDF _0
370
    25
100
AcDbPolyline
 90
        3
 70
     0
 43
0.0
 10
666.7792768
 20
995.3760544000001
 10
666.2516224
 20
995.9037088
 10
665.5920544
 20
995.3760544000001
  0
SOLID
  5
374
330
1F
100
AcDbEntity
  8
PDF _0
440
 33554559
100
AcDbTrace
 10
666.2516224
 20
997.0909312000001
 30
0.0
 11
666.2516224
 21
996.9590176000002
 31
0.0
 12
665.9877952
 22
996.9590176000002
 32
0.0
 13
665.9877952
 23
996.9590176000002
 33
0.0
  0
SOLID
  5
375
330
1F
100
AcDbEntity
  8
PDF _0
440
 33554559
100
AcDbTrace
 10
666.5154496000001
 20
996.9590176000002
 30
0.0
 11
666.5154496000001
 21
996.9590176000002
 31
0.0
 12
665.9877952
 22
996.9590176000002
 32
0.0
 13
665.9877952
 23
996.9590176000002
 33
0.0
  0
SOLID
  5
376
330
1F
100
AcDbEntity
  8
PDF _0
440
 33554559
100
AcDbTrace
 10
666.5154496000001
 20
996.9590176000002
 30
0.0
 11
665.9877952
 21
996.9590176000002
 31
0.0
 12
666.2516224
 22
996.9590176000002
 32
0.0
 13
666.2516224
 23
996.9590176000002
 33
0.0
  0
SOLID
  5
377
330
1F
100
AcDbEntity
  8
PDF _0
440
 33554559
100
AcDbTrace
 10
665.9877952
 20
996.9590176000002
 30
0.0
 11
666.5154496000001
 21
996.9590176000002
 31
0.0
 12
665.8558816000001
 22
996.9590176000002
 32
0.0
 13
665.8558816000001
 23
996.9590176000002
 33
0.0
  0
LWPOLYLINE
  5
378
330
1F
100
AcDbEntity
  8
PDF _0
370
     0
100
AcDbPolyline
 90
        3
 70
     0
 43
0.0
 10
666.5154496000001
 20
996.9590176000002
 10
665.9877952
 20
996.9590176000002
 10
666.5154496000001
 20
996.9590176000002
  0
SOLID
  5
379
330
1F
100
AcDbEntity
  8
PDF _0
440
 33554559
100
AcDbTrace
 10
666.5154496000001
 20
996.9590176000002
 30
0.0
 11
665.8558816000001
 21
996.9590176000002
 31
0.0
 12
666.6473632
 22
996.9590176000002
 32
0.0
 13
666.6473632
 23
996.9590176000002
 33
0.0
  0
SOLID
  5
37A
330
1F
100
AcDbEntity
  8
PDF _0
440
 33554559
100
AcDbTrace
 10
665.8558816000001
 20
996.9590176000002
 30
0.0
 11
666.6473632
 21
996.9590176000002
 31
0.0
 12
665.7239680000001
 22
996.9590176000002
 32
0.0
 13
665.7239680000001
 23
996.9590176000002
 33
0.0
  0
SOLID
  5
37B
330
1F
100
AcDbEntity
  8
PDF _0
440
 33554559
100
AcDbTrace
 10
666.6473632
 20
996.9590176000002
 30
0.0
 11
665.7239680000001
 21
996.9590176000002
 31
0.0
 12
666.7792768
 22
996.8271040000001
 32
0.0
 13
666.7792768
 23
996.8271040000001
 33
0.0
  0
SOLID
  5
37C
330
1F
100
AcDbEntity
  8
PDF _0
440
 33554559
100
AcDbTrace
 10
665.7239680000001
 20
996.9590176000002
 30
0.0
 11
666.7792768
 21
996.8271040000001
 31
0.0
 12
665.5920544
 22
996.8271040000001
 32
0.0
 13
665.5920544
 23
996.8271040000001
 33
0.0
  0
SOLID
  5
37D
330
1F
100
AcDbEntity
  8
PDF _0
440
 33554559
100
AcDbTrace
 10
665.5920544
 20
996.8271040000001
 30
0.0
 11
666.7792768
 21
996.8271040000001
 31
0.0
 12
666.7792768
 22
996.8271040000001
 32
0.0
 13
666.7792768
 23
996.8271040000001
 33
0.0
  0
LWPOLYLINE
  5
37E
330
1F
100
AcDbEntity
  8
PDF _0
370
     0
100
AcDbPolyline
 90
        3
 70
     0
 43
0.0
 10
666.7792768
 20
996.8271040000001
 10
665.5920544
 20
996.8271040000001
 10
666.7792768
 20
996.8271040000001
  0
SOLID
  5
37F
330
1F
100
AcDbEntity
  8
PDF _0
440
 33554559
100
AcDbTrace
 10
666.7792768
 20
996.8271040000001
 30
0.0
 11
665.5920544
 21
996.8271040000001
 31
0.0
 12
666.9111904000001
 22
996.8271040000001
 32
0.0
 13
666.9111904000001
 23
996.8271040000001
 33
0.0
  0
SOLID
  5
380
330
1F
100
AcDbEntity
  8
PDF _0
440
 33554559
100
AcDbTrace
 10
665.5920544
 20
996.8271040000001
 30
0.0
 11
666.9111904000001
 21
996.8271040000001
 31
0.0
 12
665.4601408000001
 22
996.8271040000001
 32
0.0
 13
665.4601408000001
 23
996.8271040000001
 33
0.0
  0
SOLID
  5
381
330
1F
100
AcDbEntity
  8
PDF _0
440
 33554559
100
AcDbTrace
 10
666.9111904000001
 20
996.8271040000001
 30
0.0
 11
665.4601408000001
 21
996.8271040000001
 31
0.0
 12
667.0431040000001
 22
996.6951904000001
 32
0.0
 13
667.0431040000001
 23
996.6951904000001
 33
0.0
  0
SOLID
  5
382
330
1F
100
AcDbEntity
  8
PDF _0
440
 33554559
100
AcDbTrace
 10
665.4601408000001
 20
996.8271040000001
 30
0.0
 11
667.0431040000001
 21
996.6951904000001
 31
0.0
 12
665.4601408000001
 22
996.6951904000001
 32
0.0
 13
665.4601408000001
 23
996.6951904000001
 33
0.0
  0
SOLID
  5
383
330
1F
100
AcDbEntity
  8
PDF _0
440
 33554559
100
AcDbTrace
 10
667.0431040000001
 20
996.6951904000001
 30
0.0
 11
665.4601408000001
 21
996.6951904000001
 31
0.0
 12
667.0431040000001
 22
996.5632768000002
 32
0.0
 13
667.0431040000001
 23
996.5632768000002
 33
0.0
  0
SOLID
  5
384
330
1F
100
AcDbEntity
  8
PDF _0
440
 33554559
100
AcDbTrace
 10
665.4601408000001
 20
996.6951904000001
 30
0.0
 11
667.0431040000001
 21
996.5632768000002
 31
0.0
 12
665.3282272000001
 22
996.5632768000002
 32
0.0
 13
665.3282272000001
 23
996.5632768000002
 33
0.0
  0
SOLID
  5
385
330
1F
100
AcDbEntity
  8
PDF _0
440
 33554559
100
AcDbTrace
 10
667.1750176
 20
996.5632768000002
 30
0.0
 11
667.1750176
 21
996.5632768000002
 31
0.0
 12
665.3282272000001
 22
996.5632768000002
 32
0.0
 13
665.3282272000001
 23
996.5632768000002
 33
0.0
  0
SOLID
  5
386
330
1F
100
AcDbEntity
  8
PDF _0
440
 33554559
100
AcDbTrace
 10
667.1750176
 20
996.5632768000002
 30
0.0
 11
665.3282272000001
 21
996.5632768000002
 31
0.0
 12
667.0431040000001
 22
996.5632768000002
 32
0.0
 13
667.0431040000001
 23
996.5632768000002
 33
0.0
  0
SOLID
  5
387
330
1F
100
AcDbEntity
  8
PDF _0
440
 33554559
100
AcDbTrace
 10
667.1750176
 20
996.5632768000002
 30
0.0
 11
665.3282272000001
 21
996.5632768000002
 31
0.0
 12
667.1750176
 22
996.4313632000001
 32
0.0
 13
667.1750176
 23
996.4313632000001
 33
0.0
  0
SOLID
  5
388
330
1F
100
AcDbEntity
  8
PDF _0
440
 33554559
100
AcDbTrace
 10
665.3282272000001
 20
996.5632768000002
 30
0.0
 11
667.1750176
 21
996.4313632000001
 31
0.0
 12
665.1963136
 22
996.4313632000001
 32
0.0
 13
665.1963136
 23
996.4313632000001
 33
0.0
  0
SOLID
  5
389
330
1F
100
AcDbEntity
  8
PDF _0
440
 33554559
100
AcDbTrace
 10
667.1750176
 20
996.4313632000001
 30
0.0
 11
665.1963136
 21
996.4313632000001
 31
0.0
 12
667.1750176
 22
996.2994496000002
 32
0.0
 13
667.1750176
 23
996.2994496000002
 33
0.0
  0
SOLID
  5
38A
330
1F
100
AcDbEntity
  8
PDF _0
440
 33554559
100
AcDbTrace
 10
665.1963136
 20
996.4313632000001
 30
0.0
 11
667.1750176
 21
996.2994496000002
 31
0.0
 12
665.1963136
 22
996.2994496000002
 32
0.0
 13
665.1963136
 23
996.2994496000002
 33
0.0
  0
SOLID
  5
38B
330
1F
100
AcDbEntity
  8
PDF _0
440
 33554559
100
AcDbTrace
 10
667.3069312000001
 20
996.2994496000002
 30
0.0
 11
667.3069312000001
 21
996.2994496000002
 31
0.0
 12
665.1963136
 22
996.2994496000002
 32
0.0
 13
665.1963136
 23
996.2994496000002
 33
0.0
  0
SOLID
  5
38C
330
1F
100
AcDbEntity
  8
PDF _0
440
 33554559
100
AcDbTrace
 10
667.3069312000001
 20
996.2994496000002
 30
0.0
 11
665.1963136
 21
996.2994496000002
 31
0.0
 12
667.1750176
 22
996.2994496000002
 32
0.0
 13
667.1750176
 23
996.2994496000002
 33
0.0
  0
SOLID
  5
38D
330
1F
100
AcDbEntity
  8
PDF _0
440
 33554559
100
AcDbTrace
 10
667.3069312000001
 20
996.2994496000002
 30
0.0
 11
665.1963136
 21
996.2994496000002
 31
0.0
 12
667.3069312000001
 22
996.167536
 32
0.0
 13
667.3069312000001
 23
996.167536
 33
0.0
  0
SOLID
  5
38E
330
1F
100
AcDbEntity
  8
PDF _0
440
 33554559
100
AcDbTrace
 10
665.1963136
 20
996.2994496000002
 30
0.0
 11
667.3069312000001
 21
996.167536
 31
0.0
 12
665.0644
 22
996.167536
 32
0.0
 13
665.0644
 23
996.167536
 33
0.0
  0
SOLID
  5
38F
330
1F
100
AcDbEntity
  8
PDF _0
440
 33554559
100
AcDbTrace
 10
667.3069312000001
 20
996.167536
 30
0.0
 11
665.0644
 21
996.167536
 31
0.0
 12
667.3069312000001
 22
996.0356224000001
 32
0.0
 13
667.3069312000001
 23
996.0356224000001
 33
0.0
  0
SOLID
  5
390
330
1F
100
AcDbEntity
  8
PDF _0
440
 33554559
100
AcDbTrace
 10
665.0644
 20
996.167536
 30
0.0
 11
667.3069312000001
 21
996.0356224000001
 31
0.0
 12
665.0644
 22
996.0356224000001
 32
0.0
 13
665.0644
 23
996.0356224000001
 33
0.0
  0
SOLID
  5
391
330
1F
100
AcDbEntity
  8
PDF _0
440
 33554559
100
AcDbTrace
 10
667.3069312000001
 20
996.0356224000001
 30
0.0
 11
665.0644
 21
996.0356224000001
 31
0.0
 12
667.3069312000001
 22
995.9037088
 32
0.0
 13
667.3069312000001
 23
995.9037088
 33
0.0
  0
SOLID
  5
392
330
1F
100
AcDbEntity
  8
PDF _0
440
 33554559
100
AcDbTrace
 10
665.0644
 20
996.0356224000001
 30
0.0
 11
667.3069312000001
 21
995.9037088
 31
0.0
 12
665.0644
 22
995.9037088
 32
0.0
 13
665.0644
 23
995.9037088
 33
0.0
  0
SOLID
  5
393
330
1F
100
AcDbEntity
  8
PDF _0
440
 33554559
100
AcDbTrace
 10
667.3069312000001
 20
995.9037088
 30
0.0
 11
665.0644
 21
995.9037088
 31
0.0
 12
667.3069312000001
 22
995.7717952000001
 32
0.0
 13
667.3069312000001
 23
995.7717952000001
 33
0.0
  0
SOLID
  5
394
330
1F
100
AcDbEntity
  8
PDF _0
440
 33554559
100
AcDbTrace
 10
665.0644
 20
995.9037088
 30
0.0
 11
667.3069312000001
 21
995.7717952000001
 31
0.0
 12
665.0644
 22
995.7717952000001
 32
0.0
 13
665.0644
 23
995.7717952000001
 33
0.0
  0
SOLID
  5
395
330
1F
100
AcDbEntity
  8
PDF _0
440
 33554559
100
AcDbTrace
 10
665.0644
 20
995.7717952000001
 30
0.0
 11
667.3069312000001
 21
995.7717952000001
 31
0.0
 12
667.3069312000001
 22
995.7717952000001
 32
0.0
 13
667.3069312000001
 23
995.7717952000001
 33
0.0
  0
LWPOLYLINE
  5
396
330
1F
100
AcDbEntity
  8
PDF _0
370
     0
100
AcDbPolyline
 90
        3
 70
     0
 43
0.0
 10
667.3069312000001
 20
995.7717952000001
 10
665.0644
 20
995.7717952000001
 10
667.3069312000001
 20
995.7717952000001
  0
SOLID
  5
397
330
1F
100
AcDbEntity
  8
PDF _0
440
 33554559
100
AcDbTrace
 10
667.3069312000001
 20
995.7717952000001
 30
0.0
 11
665.0644
 21
995.7717952000001
 31
0.0
 12
667.3069312000001
 22
995.6398816000001
 32
0.0
 13
667.3069312000001
 23
995.6398816000001
 33
0.0
  0
SOLID
  5
398
330
1F
100
AcDbEntity
  8
PDF _0
440
 33554559
100
AcDbTrace
 10
665.0644
 20
995.7717952000001
 30
0.0
 11
667.3069312000001
 21
995.6398816000001
 31
0.0
 12
665.1963136
 22
995.6398816000001
 32
0.0
 13
665.1963136
 23
995.6398816000001
 33
0.0
  0
SOLID
  5
399
330
1F
100
AcDbEntity
  8
PDF _0
440
 33554559
100
AcDbTrace
 10
667.3069312000001
 20
995.6398816000001
 30
0.0
 11
665.1963136
 21
995.6398816000001
 31
0.0
 12
667.1750176
 22
995.507968
 32
0.0
 13
667.1750176
 23
995.507968
 33
0.0
  0
SOLID
  5
39A
330
1F
100
AcDbEntity
  8
PDF _0
440
 33554559
100
AcDbTrace
 10
665.1963136
 20
995.6398816000001
 30
0.0
 11
667.1750176
 21
995.507968
 31
0.0
 12
665.1963136
 22
995.507968
 32
0.0
 13
665.1963136
 23
995.507968
 33
0.0
  0
SOLID
  5
39B
330
1F
100
AcDbEntity
  8
PDF _0
440
 33554559
100
AcDbTrace
 10
667.1750176
 20
995.507968
 30
0.0
 11
665.1963136
 21
995.507968
 31
0.0
 12
667.1750176
 22
995.3760544000001
 32
0.0
 13
667.1750176
 23
995.3760544000001
 33
0.0
  0
SOLID
  5
39C
330
1F
100
AcDbEntity
  8
PDF _0
440
 33554559
100
AcDbTrace
 10
665.1963136
 20
995.507968
 30
0.0
 11
667.1750176
 21
995.3760544000001
 31
0.0
 12
665.1963136
 22
995.3760544000001
 32
0.0
 13
665.1963136
 23
995.3760544000001
 33
0.0
  0
SOLID
  5
39D
330
1F
100
AcDbEntity
  8
PDF _0
440
 33554559
100
AcDbTrace
 10
667.1750176
 20
995.3760544000001
 30
0.0
 11
665.1963136
 21
995.3760544000001
 31
0.0
 12
665.3282272000001
 22
995.3760544000001
 32
0.0
 13
665.3282272000001
 23
995.3760544000001
 33
0.0
  0
SOLID
  5
39E
330
1F
100
AcDbEntity
  8
PDF _0
440
 33554559
100
AcDbTrace
 10
665.1963136
 20
995.3760544000001
 30
0.0
 11
667.1750176
 21
995.3760544000001
 31
0.0
 12
667.1750176
 22
995.3760544000001
 32
0.0
 13
667.1750176
 23
995.3760544000001
 33
0.0
  0
SOLID
  5
39F
330
1F
100
AcDbEntity
  8
PDF _0
440
 33554559
100
AcDbTrace
 10
667.1750176
 20
995.3760544000001
 30
0.0
 11
665.3282272000001
 21
995.3760544000001
 31
0.0
 12
667.0431040000001
 22
995.2441408
 32
0.0
 13
667.0431040000001
 23
995.2441408
 33
0.0
  0
SOLID
  5
3A0
330
1F
100
AcDbEntity
  8
PDF _0
440
 33554559
100
AcDbTrace
 10
665.3282272000001
 20
995.3760544000001
 30
0.0
 11
667.0431040000001
 21
995.2441408
 31
0.0
 12
665.3282272000001
 22
995.2441408
 32
0.0
 13
665.3282272000001
 23
995.2441408
 33
0.0
  0
SOLID
  5
3A1
330
1F
100
AcDbEntity
  8
PDF _0
440
 33554559
100
AcDbTrace
 10
667.0431040000001
 20
995.2441408
 30
0.0
 11
665.3282272000001
 21
995.2441408
 31
0.0
 12
667.0431040000001
 22
995.1122272
 32
0.0
 13
667.0431040000001
 23
995.1122272
 33
0.0
  0
SOLID
  5
3A2
330
1F
100
AcDbEntity
  8
PDF _0
440
 33554559
100
AcDbTrace
 10
665.3282272000001
 20
995.2441408
 30
0.0
 11
667.0431040000001
 21
995.1122272
 31
0.0
 12
665.4601408000001
 22
995.1122272
 32
0.0
 13
665.4601408000001
 23
995.1122272
 33
0.0
  0
SOLID
  5
3A3
330
1F
100
AcDbEntity
  8
PDF _0
440
 33554559
100
AcDbTrace
 10
666.9111904000001
 20
995.1122272
 30
0.0
 11
666.9111904000001
 21
995.1122272
 31
0.0
 12
665.4601408000001
 22
995.1122272
 32
0.0
 13
665.4601408000001
 23
995.1122272
 33
0.0
  0
SOLID
  5
3A4
330
1F
100
AcDbEntity
  8
PDF _0
440
 33554559
100
AcDbTrace
 10
666.9111904000001
 20
995.1122272
 30
0.0
 11
665.4601408000001
 21
995.1122272
 31
0.0
 12
667.0431040000001
 22
995.1122272
 32
0.0
 13
667.0431040000001
 23
995.1122272
 33
0.0
  0
SOLID
  5
3A5
330
1F
100
AcDbEntity
  8
PDF _0
440
 33554559
100
AcDbTrace
 10
666.9111904000001
 20
995.1122272
 30
0.0
 11
665.4601408000001
 21
995.1122272
 31
0.0
 12
666.7792768
 22
994.9803136000001
 32
0.0
 13
666.7792768
 23
994.9803136000001
 33
0.0
  0
SOLID
  5
3A6
330
1F
100
AcDbEntity
  8
PDF _0
440
 33554559
100
AcDbTrace
 10
665.4601408000001
 20
995.1122272
 30
0.0
 11
666.7792768
 21
994.9803136000001
 31
0.0
 12
665.5920544
 22
994.9803136000001
 32
0.0
 13
665.5920544
 23
994.9803136000001
 33
0.0
  0
SOLID
  5
3A7
330
1F
100
AcDbEntity
  8
PDF _0
440
 33554559
100
AcDbTrace
 10
665.5920544
 20
994.9803136000001
 30
0.0
 11
666.7792768
 21
994.9803136000001
 31
0.0
 12
666.7792768
 22
994.9803136000001
 32
0.0
 13
666.7792768
 23
994.9803136000001
 33
0.0
  0
LWPOLYLINE
  5
3A8
330
1F
100
AcDbEntity
  8
PDF _0
370
     0
100
AcDbPolyline
 90
        3
 70
     0
 43
0.0
 10
666.7792768
 20
994.9803136000001
 10
665.5920544
 20
994.9803136000001
 10
666.7792768
 20
994.9803136000001
  0
SOLID
  5
3A9
330
1F
100
AcDbEntity
  8
PDF _0
440
 33554559
100
AcDbTrace
 10
666.7792768
 20
994.9803136000001
 30
0.0
 11
665.5920544
 21
994.9803136000001
 31
0.0
 12
666.6473632
 22
994.9803136000001
 32
0.0
 13
666.6473632
 23
994.9803136000001
 33
0.0
  0
SOLID
  5
3AA
330
1F
100
AcDbEntity
  8
PDF _0
440
 33554559
100
AcDbTrace
 10
665.5920544
 20
994.9803136000001
 30
0.0
 11
666.6473632
 21
994.9803136000001
 31
0.0
 12
665.7239680000001
 22
994.9803136000001
 32
0.0
 13
665.7239680000001
 23
994.9803136000001
 33
0.0
  0
SOLID
  5
3AB
330
1F
100
AcDbEntity
  8
PDF _0
440
 33554559
100
AcDbTrace
 10
666.6473632
 20
994.9803136000001
 30
0.0
 11
665.7239680000001
 21
994.9803136000001
 31
0.0
 12
666.5154496000001
 22
994.8484
 32
0.0
 13
666.5154496000001
 23
994.8484
 33
0.0
  0
SOLID
  5
3AC
330
1F
100
AcDbEntity
  8
PDF _0
440
 33554559
100
AcDbTrace
 10
665.7239680000001
 20
994.9803136000001
 30
0.0
 11
666.5154496000001
 21
994.8484
 31
0.0
 12
665.8558816000001
 22
994.8484
 32
0.0
 13
665.8558816000001
 23
994.8484
 33
0.0
  0
SOLID
  5
3AD
330
1F
100
AcDbEntity
  8
PDF _0
440
 33554559
100
AcDbTrace
 10
666.5154496000001
 20
994.8484
 30
0.0
 11
665.8558816000001
 21
994.8484
 31
0.0
 12
665.9877952
 22
994.8484
 32
0.0
 13
665.9877952
 23
994.8484
 33
0.0
  0
SOLID
  5
3AE
330
1F
100
AcDbEntity
  8
PDF _0
440
 33554559
100
AcDbTrace
 10
665.8558816000001
 20
994.8484
 30
0.0
 11
666.5154496000001
 21
994.8484
 31
0.0
 12
666.5154496000001
 22
994.8484
 32
0.0
 13
666.5154496000001
 23
994.8484
 33
0.0
  0
SOLID
  5
3AF
330
1F
100
AcDbEntity
  8
PDF _0
440
 33554559
100
AcDbTrace
 10
665.9877952
 20
994.8484
 30
0.0
 11
666.2516224
 21
994.8484
 31
0.0
 12
666.2516224
 22
994.8484
 32
0.0
 13
666.2516224
 23
994.8484
 33
0.0
  0
SOLID
  5
3B0
330
1F
100
AcDbEntity
  8
PDF _0
440
 33554559
100
AcDbTrace
 10
666.2516224
 20
994.8484
 30
0.0
 11
666.2516224
 21
994.8484
 31
0.0
 12
665.9877952
 22
994.8484
 32
0.0
 13
665.9877952
 23
994.8484
 33
0.0
  0
SOLID
  5
3B1
330
1F
100
AcDbEntity
  8
PDF _0
440
 33554559
100
AcDbTrace
 10
666.2516224
 20
994.8484
 30
0.0
 11
665.9877952
 21
994.8484
 31
0.0
 12
666.5154496000001
 22
994.8484
 32
0.0
 13
666.5154496000001
 23
994.8484
 33
0.0
  0
LWPOLYLINE
  5
3B4
330
1F
100
AcDbEntity
  8
PDF _0
370
    25
100
AcDbPolyline
 90
        2
 70
     0
 43
0.0
 10
436.194304
 20
995.3760544000001
 10
220.6474816
 20
995.3760544000001
  0
LWPOLYLINE
  5
3B5
330
1F
100
AcDbEntity
  8
PDF _0
370
    25
100
AcDbPolyline
 90
        2
 70
     0
 43
0.0
 10
665.5920544
 20
984.95488
 10
579.5843872
 20
984.95488
  0
LWPOLYLINE
  5
3B6
330
1F
100
AcDbEntity
  8
PDF _0
370
    25
100
AcDbPolyline
 90
        2
 70
     0
 43
0.0
 10
439.492144
 20
984.95488
 10
220.6474816
 20
984.95488
  0
LWPOLYLINE
  5
3B7
330
1F
100
AcDbEntity
  8
PDF _0
370
    25
100
AcDbPolyline
 90
        4
 70
     1
 43
0.0
 10
284.6255776
 20
977.1719776000001
 10
297.8169376000001
 20
977.1719776000001
 10
297.8169376000001
 20
984.95488
 10
284.6255776
 20
984.95488
  0
LWPOLYLINE
  5
3B8
330
1F
100
AcDbEntity
  8
PDF _0
370
    25
100
AcDbPolyline
 90
        2
 70
     0
 43
0.0
 10
296.1020608
 20
984.95488
 10
296.1020608
 20
977.1719776000001
  0
LWPOLYLINE
  5
3B9
330
1F
100
AcDbEntity
  8
PDF _0
370
    25
100
AcDbPolyline
 90
        2
 70
     0
 43
0.0
 10
285.6808864
 20
984.95488
 10
285.6808864
 20
977.1719776000001
  0
LWPOLYLINE
  5
3BA
330
1F
100
AcDbEntity
  8
PDF _0
370
    25
100
AcDbPolyline
 90
        3
 70
     0
 43
0.0
 10
667.3069312000001
 20
885.6239392
 10
668.3622400000001
 20
885.6239392
 10
667.3069312000001
 20
885.6239392
  0
LWPOLYLINE
  5
3BB
330
1F
100
AcDbEntity
  8
PDF _0
370
    25
100
AcDbPolyline
 90
        3
 70
     0
 43
0.0
 10
665.5920544
 20
915.9640672
 10
666.2516224
 20
915.4364128
 10
666.7792768
 20
915.9640672
  0
SOLID
  5
3BC
330
1F
100
AcDbEntity
  8
PDF _0
440
 33554559
100
AcDbTrace
 10
666.2516224
 20
915.9640672
 30
0.0
 11
665.9877952
 21
915.9640672
 31
0.0
 12
665.9877952
 22
915.9640672
 32
0.0
 13
665.9877952
 23
915.9640672
 33
0.0
  0
SOLID
  5
3BD
330
1F
100
AcDbEntity
  8
PDF _0
440
 33554559
100
AcDbTrace
 10
666.5154496000001
 20
915.9640672
 30
0.0
 11
666.5154496000001
 21
915.9640672
 31
0.0
 12
665.9877952
 22
915.9640672
 32
0.0
 13
665.9877952
 23
915.9640672
 33
0.0
  0
SOLID
  5
3BE
330
1F
100
AcDbEntity
  8
PDF _0
440
 33554559
100
AcDbTrace
 10
666.5154496000001
 20
915.9640672
 30
0.0
 11
665.9877952
 21
915.9640672
 31
0.0
 12
666.2516224
 22
915.9640672
 32
0.0
 13
666.2516224
 23
915.9640672
 33
0.0
  0
SOLID
  5
3BF
330
1F
100
AcDbEntity
  8
PDF _0
440
 33554559
100
AcDbTrace
 10
665.9877952
 20
915.9640672
 30
0.0
 11
666.5154496000001
 21
915.9640672
 31
0.0
 12
665.8558816000001
 22
915.9640672
 32
0.0
 13
665.8558816000001
 23
915.9640672
 33
0.0
  0
LWPOLYLINE
  5
3C0
330
1F
100
AcDbEntity
  8
PDF _0
370
     0
100
AcDbPolyline
 90
        3
 70
     0
 43
0.0
 10
666.5154496000001
 20
915.9640672
 10
665.9877952
 20
915.9640672
 10
666.5154496000001
 20
915.9640672
  0
SOLID
  5
3C1
330
1F
100
AcDbEntity
  8
PDF _0
440
 33554559
100
AcDbTrace
 10
666.5154496000001
 20
915.9640672
 30
0.0
 11
665.8558816000001
 21
915.9640672
 31
0.0
 12
666.6473632
 22
915.8321536
 32
0.0
 13
666.6473632
 23
915.8321536
 33
0.0
  0
SOLID
  5
3C2
330
1F
100
AcDbEntity
  8
PDF _0
440
 33554559
100
AcDbTrace
 10
665.8558816000001
 20
915.9640672
 30
0.0
 11
666.6473632
 21
915.8321536
 31
0.0
 12
665.7239680000001
 22
915.8321536
 32
0.0
 13
665.7239680000001
 23
915.8321536
 33
0.0
  0
SOLID
  5
3C3
330
1F
100
AcDbEntity
  8
PDF _0
440
 33554559
100
AcDbTrace
 10
666.6473632
 20
915.8321536
 30
0.0
 11
665.7239680000001
 21
915.8321536
 31
0.0
 12
666.7792768
 22
915.8321536
 32
0.0
 13
666.7792768
 23
915.8321536
 33
0.0
  0
SOLID
  5
3C4
330
1F
100
AcDbEntity
  8
PDF _0
440
 33554559
100
AcDbTrace
 10
665.7239680000001
 20
915.8321536
 30
0.0
 11
666.7792768
 21
915.8321536
 31
0.0
 12
665.5920544
 22
915.8321536
 32
0.0
 13
665.5920544
 23
915.8321536
 33
0.0
  0
SOLID
  5
3C5
330
1F
100
AcDbEntity
  8
PDF _0
440
 33554559
100
AcDbTrace
 10
666.7792768
 20
915.8321536
 30
0.0
 11
665.5920544
 21
915.8321536
 31
0.0
 12
666.7792768
 22
915.7002400000001
 32
0.0
 13
666.7792768
 23
915.7002400000001
 33
0.0
  0
SOLID
  5
3C6
330
1F
100
AcDbEntity
  8
PDF _0
440
 33554559
100
AcDbTrace
 10
665.5920544
 20
915.8321536
 30
0.0
 11
666.7792768
 21
915.7002400000001
 31
0.0
 12
665.5920544
 22
915.7002400000001
 32
0.0
 13
665.5920544
 23
915.7002400000001
 33
0.0
  0
SOLID
  5
3C7
330
1F
100
AcDbEntity
  8
PDF _0
440
 33554559
100
AcDbTrace
 10
666.7792768
 20
915.7002400000001
 30
0.0
 11
665.5920544
 21
915.7002400000001
 31
0.0
 12
666.9111904000001
 22
915.7002400000001
 32
0.0
 13
666.9111904000001
 23
915.7002400000001
 33
0.0
  0
SOLID
  5
3C8
330
1F
100
AcDbEntity
  8
PDF _0
440
 33554559
100
AcDbTrace
 10
665.5920544
 20
915.7002400000001
 30
0.0
 11
666.9111904000001
 21
915.7002400000001
 31
0.0
 12
665.4601408000001
 22
915.7002400000001
 32
0.0
 13
665.4601408000001
 23
915.7002400000001
 33
0.0
  0
SOLID
  5
3C9
330
1F
100
AcDbEntity
  8
PDF _0
440
 33554559
100
AcDbTrace
 10
666.9111904000001
 20
915.7002400000001
 30
0.0
 11
665.4601408000001
 21
915.7002400000001
 31
0.0
 12
667.0431040000001
 22
915.5683264
 32
0.0
 13
667.0431040000001
 23
915.5683264
 33
0.0
  0
SOLID
  5
3CA
330
1F
100
AcDbEntity
  8
PDF _0
440
 33554559
100
AcDbTrace
 10
665.4601408000001
 20
915.7002400000001
 30
0.0
 11
667.0431040000001
 21
915.5683264
 31
0.0
 12
665.4601408000001
 22
915.5683264
 32
0.0
 13
665.4601408000001
 23
915.5683264
 33
0.0
  0
SOLID
  5
3CB
330
1F
100
AcDbEntity
  8
PDF _0
440
 33554559
100
AcDbTrace
 10
667.0431040000001
 20
915.5683264
 30
0.0
 11
665.4601408000001
 21
915.5683264
 31
0.0
 12
665.3282272000001
 22
915.5683264
 32
0.0
 13
665.3282272000001
 23
915.5683264
 33
0.0
  0
SOLID
  5
3CC
330
1F
100
AcDbEntity
  8
PDF _0
440
 33554559
100
AcDbTrace
 10
665.4601408000001
 20
915.5683264
 30
0.0
 11
667.0431040000001
 21
915.5683264
 31
0.0
 12
667.0431040000001
 22
915.5683264
 32
0.0
 13
667.0431040000001
 23
915.5683264
 33
0.0
  0
SOLID
  5
3CD
330
1F
100
AcDbEntity
  8
PDF _0
440
 33554559
100
AcDbTrace
 10
667.0431040000001
 20
915.5683264
 30
0.0
 11
665.3282272000001
 21
915.5683264
 31
0.0
 12
667.1750176
 22
915.4364128
 32
0.0
 13
667.1750176
 23
915.4364128
 33
0.0
  0
SOLID
  5
3CE
330
1F
100
AcDbEntity
  8
PDF _0
440
 33554559
100
AcDbTrace
 10
665.3282272000001
 20
915.5683264
 30
0.0
 11
667.1750176
 21
915.4364128
 31
0.0
 12
665.3282272000001
 22
915.4364128
 32
0.0
 13
665.3282272000001
 23
915.4364128
 33
0.0
  0
SOLID
  5
3CF
330
1F
100
AcDbEntity
  8
PDF _0
440
 33554559
100
AcDbTrace
 10
667.1750176
 20
915.4364128
 30
0.0
 11
665.3282272000001
 21
915.4364128
 31
0.0
 12
667.1750176
 22
915.3044992000001
 32
0.0
 13
667.1750176
 23
915.3044992000001
 33
0.0
  0
SOLID
  5
3D0
330
1F
100
AcDbEntity
  8
PDF _0
440
 33554559
100
AcDbTrace
 10
665.3282272000001
 20
915.4364128
 30
0.0
 11
667.1750176
 21
915.3044992000001
 31
0.0
 12
665.1963136
 22
915.3044992000001
 32
0.0
 13
665.1963136
 23
915.3044992000001
 33
0.0
  0
SOLID
  5
3D1
330
1F
100
AcDbEntity
  8
PDF _0
440
 33554559
100
AcDbTrace
 10
665.1963136
 20
915.3044992000001
 30
0.0
 11
667.1750176
 21
915.3044992000001
 31
0.0
 12
667.1750176
 22
915.3044992000001
 32
0.0
 13
667.1750176
 23
915.3044992000001
 33
0.0
  0
LWPOLYLINE
  5
3D2
330
1F
100
AcDbEntity
  8
PDF _0
370
     0
100
AcDbPolyline
 90
        3
 70
     0
 43
0.0
 10
667.1750176
 20
915.3044992000001
 10
665.1963136
 20
915.3044992000001
 10
667.1750176
 20
915.3044992000001
  0
SOLID
  5
3D3
330
1F
100
AcDbEntity
  8
PDF _0
440
 33554559
100
AcDbTrace
 10
667.1750176
 20
915.3044992000001
 30
0.0
 11
665.1963136
 21
915.3044992000001
 31
0.0
 12
667.3069312000001
 22
915.1725856
 32
0.0
 13
667.3069312000001
 23
915.1725856
 33
0.0
  0
SOLID
  5
3D4
330
1F
100
AcDbEntity
  8
PDF _0
440
 33554559
100
AcDbTrace
 10
665.1963136
 20
915.3044992000001
 30
0.0
 11
667.3069312000001
 21
915.1725856
 31
0.0
 12
665.1963136
 22
915.1725856
 32
0.0
 13
665.1963136
 23
915.1725856
 33
0.0
  0
SOLID
  5
3D5
330
1F
100
AcDbEntity
  8
PDF _0
440
 33554559
100
AcDbTrace
 10
667.3069312000001
 20
915.1725856
 30
0.0
 11
665.1963136
 21
915.1725856
 31
0.0
 12
667.3069312000001
 22
915.0406720000001
 32
0.0
 13
667.3069312000001
 23
915.0406720000001
 33
0.0
  0
SOLID
  5
3D6
330
1F
100
AcDbEntity
  8
PDF _0
440
 33554559
100
AcDbTrace
 10
665.1963136
 20
915.1725856
 30
0.0
 11
667.3069312000001
 21
915.0406720000001
 31
0.0
 12
665.0644
 22
915.0406720000001
 32
0.0
 13
665.0644
 23
915.0406720000001
 33
0.0
  0
SOLID
  5
3D7
330
1F
100
AcDbEntity
  8
PDF _0
440
 33554559
100
AcDbTrace
 10
667.3069312000001
 20
915.0406720000001
 30
0.0
 11
665.0644
 21
915.0406720000001
 31
0.0
 12
667.3069312000001
 22
914.9087584000001
 32
0.0
 13
667.3069312000001
 23
914.9087584000001
 33
0.0
  0
SOLID
  5
3D8
330
1F
100
AcDbEntity
  8
PDF _0
440
 33554559
100
AcDbTrace
 10
665.0644
 20
915.0406720000001
 30
0.0
 11
667.3069312000001
 21
914.9087584000001
 31
0.0
 12
665.0644
 22
914.9087584000001
 32
0.0
 13
665.0644
 23
914.9087584000001
 33
0.0
  0
SOLID
  5
3D9
330
1F
100
AcDbEntity
  8
PDF _0
440
 33554559
100
AcDbTrace
 10
665.0644
 20
914.9087584000001
 30
0.0
 11
667.3069312000001
 21
914.9087584000001
 31
0.0
 12
667.3069312000001
 22
914.9087584000001
 32
0.0
 13
667.3069312000001
 23
914.9087584000001
 33
0.0
  0
LWPOLYLINE
  5
3DA
330
1F
100
AcDbEntity
  8
PDF _0
370
     0
100
AcDbPolyline
 90
        3
 70
     0
 43
0.0
 10
667.3069312000001
 20
914.9087584000001
 10
665.0644
 20
914.9087584000001
 10
667.3069312000001
 20
914.9087584000001
  0
SOLID
  5
3DB
330
1F
100
AcDbEntity
  8
PDF _0
440
 33554559
100
AcDbTrace
 10
667.3069312000001
 20
914.9087584000001
 30
0.0
 11
665.0644
 21
914.9087584000001
 31
0.0
 12
667.3069312000001
 22
914.7768448
 32
0.0
 13
667.3069312000001
 23
914.7768448
 33
0.0
  0
SOLID
  5
3DC
330
1F
100
AcDbEntity
  8
PDF _0
440
 33554559
100
AcDbTrace
 10
665.0644
 20
914.9087584000001
 30
0.0
 11
667.3069312000001
 21
914.7768448
 31
0.0
 12
665.0644
 22
914.7768448
 32
0.0
 13
665.0644
 23
914.7768448
 33
0.0
  0
SOLID
  5
3DD
330
1F
100
AcDbEntity
  8
PDF _0
440
 33554559
100
AcDbTrace
 10
667.3069312000001
 20
914.7768448
 30
0.0
 11
665.0644
 21
914.7768448
 31
0.0
 12
667.3069312000001
 22
914.6449312000001
 32
0.0
 13
667.3069312000001
 23
914.6449312000001
 33
0.0
  0
SOLID
  5
3DE
330
1F
100
AcDbEntity
  8
PDF _0
440
 33554559
100
AcDbTrace
 10
665.0644
 20
914.7768448
 30
0.0
 11
667.3069312000001
 21
914.6449312000001
 31
0.0
 12
665.0644
 22
914.6449312000001
 32
0.0
 13
665.0644
 23
914.6449312000001
 33
0.0
  0
SOLID
  5
3DF
330
1F
100
AcDbEntity
  8
PDF _0
440
 33554559
100
AcDbTrace
 10
667.3069312000001
 20
914.6449312000001
 30
0.0
 11
665.0644
 21
914.6449312000001
 31
0.0
 12
667.3069312000001
 22
914.5130176000002
 32
0.0
 13
667.3069312000001
 23
914.5130176000002
 33
0.0
  0
SOLID
  5
3E0
330
1F
100
AcDbEntity
  8
PDF _0
440
 33554559
100
AcDbTrace
 10
665.0644
 20
914.6449312000001
 30
0.0
 11
667.3069312000001
 21
914.5130176000002
 31
0.0
 12
665.1963136
 22
914.5130176000002
 32
0.0
 13
665.1963136
 23
914.5130176000002
 33
0.0
  0
SOLID
  5
3E1
330
1F
100
AcDbEntity
  8
PDF _0
440
 33554559
100
AcDbTrace
 10
667.1750176
 20
914.5130176000002
 30
0.0
 11
667.1750176
 21
914.5130176000002
 31
0.0
 12
665.1963136
 22
914.5130176000002
 32
0.0
 13
665.1963136
 23
914.5130176000002
 33
0.0
  0
SOLID
  5
3E2
330
1F
100
AcDbEntity
  8
PDF _0
440
 33554559
100
AcDbTrace
 10
667.1750176
 20
914.5130176000002
 30
0.0
 11
665.1963136
 21
914.5130176000002
 31
0.0
 12
667.3069312000001
 22
914.5130176000002
 32
0.0
 13
667.3069312000001
 23
914.5130176000002
 33
0.0
  0
SOLID
  5
3E3
330
1F
100
AcDbEntity
  8
PDF _0
440
 33554559
100
AcDbTrace
 10
667.1750176
 20
914.5130176000002
 30
0.0
 11
665.1963136
 21
914.5130176000002
 31
0.0
 12
667.1750176
 22
914.3811040000001
 32
0.0
 13
667.1750176
 23
914.3811040000001
 33
0.0
  0
SOLID
  5
3E4
330
1F
100
AcDbEntity
  8
PDF _0
440
 33554559
100
AcDbTrace
 10
665.1963136
 20
914.5130176000002
 30
0.0
 11
667.1750176
 21
914.3811040000001
 31
0.0
 12
665.1963136
 22
914.3811040000001
 32
0.0
 13
665.1963136
 23
914.3811040000001
 33
0.0
  0
SOLID
  5
3E5
330
1F
100
AcDbEntity
  8
PDF _0
440
 33554559
100
AcDbTrace
 10
667.1750176
 20
914.3811040000001
 30
0.0
 11
665.1963136
 21
914.3811040000001
 31
0.0
 12
667.1750176
 22
914.2491904000001
 32
0.0
 13
667.1750176
 23
914.2491904000001
 33
0.0
  0
SOLID
  5
3E6
330
1F
100
AcDbEntity
  8
PDF _0
440
 33554559
100
AcDbTrace
 10
665.1963136
 20
914.3811040000001
 30
0.0
 11
667.1750176
 21
914.2491904000001
 31
0.0
 12
665.3282272000001
 22
914.2491904000001
 32
0.0
 13
665.3282272000001
 23
914.2491904000001
 33
0.0
  0
SOLID
  5
3E7
330
1F
100
AcDbEntity
  8
PDF _0
440
 33554559
100
AcDbTrace
 10
667.1750176
 20
914.2491904000001
 30
0.0
 11
665.3282272000001
 21
914.2491904000001
 31
0.0
 12
667.0431040000001
 22
914.1172768000002
 32
0.0
 13
667.0431040000001
 23
914.1172768000002
 33
0.0
  0
SOLID
  5
3E8
330
1F
100
AcDbEntity
  8
PDF _0
440
 33554559
100
AcDbTrace
 10
665.3282272000001
 20
914.2491904000001
 30
0.0
 11
667.0431040000001
 21
914.1172768000002
 31
0.0
 12
665.3282272000001
 22
914.1172768000002
 32
0.0
 13
665.3282272000001
 23
914.1172768000002
 33
0.0
  0
SOLID
  5
3E9
330
1F
100
AcDbEntity
  8
PDF _0
440
 33554559
100
AcDbTrace
 10
667.0431040000001
 20
914.1172768000002
 30
0.0
 11
665.3282272000001
 21
914.1172768000002
 31
0.0
 12
665.4601408000001
 22
914.1172768000002
 32
0.0
 13
665.4601408000001
 23
914.1172768000002
 33
0.0
  0
SOLID
  5
3EA
330
1F
100
AcDbEntity
  8
PDF _0
440
 33554559
100
AcDbTrace
 10
665.3282272000001
 20
914.1172768000002
 30
0.0
 11
667.0431040000001
 21
914.1172768000002
 31
0.0
 12
667.0431040000001
 22
914.1172768000002
 32
0.0
 13
667.0431040000001
 23
914.1172768000002
 33
0.0
  0
SOLID
  5
3EB
330
1F
100
AcDbEntity
  8
PDF _0
440
 33554559
100
AcDbTrace
 10
667.0431040000001
 20
914.1172768000002
 30
0.0
 11
665.4601408000001
 21
914.1172768000002
 31
0.0
 12
666.9111904000001
 22
913.9853632000001
 32
0.0
 13
666.9111904000001
 23
913.9853632000001
 33
0.0
  0
SOLID
  5
3EC
330
1F
100
AcDbEntity
  8
PDF _0
440
 33554559
100
AcDbTrace
 10
665.4601408000001
 20
914.1172768000002
 30
0.0
 11
666.9111904000001
 21
913.9853632000001
 31
0.0
 12
665.4601408000001
 22
913.9853632000001
 32
0.0
 13
665.4601408000001
 23
913.9853632000001
 33
0.0
  0
SOLID
  5
3ED
330
1F
100
AcDbEntity
  8
PDF _0
440
 33554559
100
AcDbTrace
 10
666.9111904000001
 20
913.9853632000001
 30
0.0
 11
665.4601408000001
 21
913.9853632000001
 31
0.0
 12
666.7792768
 22
913.9853632000001
 32
0.0
 13
666.7792768
 23
913.9853632000001
 33
0.0
  0
SOLID
  5
3EE
330
1F
100
AcDbEntity
  8
PDF _0
440
 33554559
100
AcDbTrace
 10
665.4601408000001
 20
913.9853632000001
 30
0.0
 11
666.7792768
 21
913.9853632000001
 31
0.0
 12
665.5920544
 22
913.9853632000001
 32
0.0
 13
665.5920544
 23
913.9853632000001
 33
0.0
  0
SOLID
  5
3EF
330
1F
100
AcDbEntity
  8
PDF _0
440
 33554559
100
AcDbTrace
 10
666.7792768
 20
913.9853632000001
 30
0.0
 11
665.5920544
 21
913.9853632000001
 31
0.0
 12
666.7792768
 22
913.8534496000001
 32
0.0
 13
666.7792768
 23
913.8534496000001
 33
0.0
  0
SOLID
  5
3F0
330
1F
100
AcDbEntity
  8
PDF _0
440
 33554559
100
AcDbTrace
 10
665.5920544
 20
913.9853632000001
 30
0.0
 11
666.7792768
 21
913.8534496000001
 31
0.0
 12
665.5920544
 22
913.8534496000001
 32
0.0
 13
665.5920544
 23
913.8534496000001
 33
0.0
  0
SOLID
  5
3F1
330
1F
100
AcDbEntity
  8
PDF _0
440
 33554559
100
AcDbTrace
 10
666.7792768
 20
913.8534496000001
 30
0.0
 11
665.5920544
 21
913.8534496000001
 31
0.0
 12
666.6473632
 22
913.8534496000001
 32
0.0
 13
666.6473632
 23
913.8534496000001
 33
0.0
  0
SOLID
  5
3F2
330
1F
100
AcDbEntity
  8
PDF _0
440
 33554559
100
AcDbTrace
 10
665.5920544
 20
913.8534496000001
 30
0.0
 11
666.6473632
 21
913.8534496000001
 31
0.0
 12
665.7239680000001
 22
913.8534496000001
 32
0.0
 13
665.7239680000001
 23
913.8534496000001
 33
0.0
  0
SOLID
  5
3F3
330
1F
100
AcDbEntity
  8
PDF _0
440
 33554559
100
AcDbTrace
 10
666.6473632
 20
913.8534496000001
 30
0.0
 11
665.7239680000001
 21
913.8534496000001
 31
0.0
 12
666.5154496000001
 22
913.8534496000001
 32
0.0
 13
666.5154496000001
 23
913.8534496000001
 33
0.0
  0
SOLID
  5
3F4
330
1F
100
AcDbEntity
  8
PDF _0
440
 33554559
100
AcDbTrace
 10
665.7239680000001
 20
913.8534496000001
 30
0.0
 11
666.5154496000001
 21
913.8534496000001
 31
0.0
 12
665.8558816000001
 22
913.8534496000001
 32
0.0
 13
665.8558816000001
 23
913.8534496000001
 33
0.0
  0
SOLID
  5
3F5
330
1F
100
AcDbEntity
  8
PDF _0
440
 33554559
100
AcDbTrace
 10
666.5154496000001
 20
913.8534496000001
 30
0.0
 11
665.8558816000001
 21
913.8534496000001
 31
0.0
 12
665.9877952
 22
913.8534496000001
 32
0.0
 13
665.9877952
 23
913.8534496000001
 33
0.0
  0
SOLID
  5
3F6
330
1F
100
AcDbEntity
  8
PDF _0
440
 33554559
100
AcDbTrace
 10
665.8558816000001
 20
913.8534496000001
 30
0.0
 11
666.5154496000001
 21
913.8534496000001
 31
0.0
 12
666.5154496000001
 22
913.8534496000001
 32
0.0
 13
666.5154496000001
 23
913.8534496000001
 33
0.0
  0
SOLID
  5
3F7
330
1F
100
AcDbEntity
  8
PDF _0
440
 33554559
100
AcDbTrace
 10
666.2516224
 20
913.721536
 30
0.0
 11
666.2516224
 21
913.721536
 31
0.0
 12
665.9877952
 22
913.721536
 32
0.0
 13
665.9877952
 23
913.721536
 33
0.0
  0
SOLID
  5
3F8
330
1F
100
AcDbEntity
  8
PDF _0
440
 33554559
100
AcDbTrace
 10
666.2516224
 20
913.721536
 30
0.0
 11
665.9877952
 21
913.721536
 31
0.0
 12
665.9877952
 22
913.8534496000001
 32
0.0
 13
665.9877952
 23
913.8534496000001
 33
0.0
  0
SOLID
  5
3F9
330
1F
100
AcDbEntity
  8
PDF _0
440
 33554559
100
AcDbTrace
 10
665.9877952
 20
913.8534496000001
 30
0.0
 11
666.5154496000001
 21
913.8534496000001
 31
0.0
 12
666.2516224
 22
913.721536
 32
0.0
 13
666.2516224
 23
913.721536
 33
0.0
  0
LWPOLYLINE
  5
3FB
330
1F
100
AcDbEntity
  8
PDF _0
370
    25
100
AcDbPolyline
 90
        2
 70
     0
 43
0.0
 10
667.3069312000001
 20
915.9640672
 10
667.3069312000001
 20
925.8575872000001
  0
LWPOLYLINE
  5
3FC
330
1F
100
AcDbEntity
  8
PDF _0
370
    25
100
AcDbPolyline
 90
        3
 70
     0
 43
0.0
 10
666.7792768
 20
925.8575872000001
 10
666.2516224
 20
926.3852416
 10
665.5920544
 20
925.8575872000001
  0
SOLID
  5
3FD
330
1F
100
AcDbEntity
  8
PDF _0
440
 33554559
100
AcDbTrace
 10
666.2516224
 20
928.1001184000002
 30
0.0
 11
665.9877952
 21
928.1001184000002
 31
0.0
 12
665.9877952
 22
928.1001184000002
 32
0.0
 13
665.9877952
 23
928.1001184000002
 33
0.0
  0
SOLID
  5
3FE
330
1F
100
AcDbEntity
  8
PDF _0
440
 33554559
100
AcDbTrace
 10
666.5154496000001
 20
928.1001184000002
 30
0.0
 11
666.5154496000001
 21
928.1001184000002
 31
0.0
 12
665.9877952
 22
928.1001184000002
 32
0.0
 13
665.9877952
 23
928.1001184000002
 33
0.0
  0
SOLID
  5
3FF
330
1F
100
AcDbEntity
  8
PDF _0
440
 33554559
100
AcDbTrace
 10
666.5154496000001
 20
928.1001184000002
 30
0.0
 11
665.9877952
 21
928.1001184000002
 31
0.0
 12
666.2516224
 22
928.1001184000002
 32
0.0
 13
666.2516224
 23
928.1001184000002
 33
0.0
  0
SOLID
  5
400
330
1F
100
AcDbEntity
  8
PDF _0
440
 33554559
100
AcDbTrace
 10
665.9877952
 20
928.1001184000002
 30
0.0
 11
666.5154496000001
 21
928.1001184000002
 31
0.0
 12
665.8558816000001
 22
928.1001184000002
 32
0.0
 13
665.8558816000001
 23
928.1001184000002
 33
0.0
  0
LWPOLYLINE
  5
401
330
1F
100
AcDbEntity
  8
PDF _0
370
     0
100
AcDbPolyline
 90
        3
 70
     0
 43
0.0
 10
666.5154496000001
 20
928.1001184000002
 10
665.9877952
 20
928.1001184000002
 10
666.5154496000001
 20
928.1001184000002
  0
SOLID
  5
402
330
1F
100
AcDbEntity
  8
PDF _0
440
 33554559
100
AcDbTrace
 10
666.5154496000001
 20
928.1001184000002
 30
0.0
 11
665.8558816000001
 21
928.1001184000002
 31
0.0
 12
666.6473632
 22
927.9682048000001
 32
0.0
 13
666.6473632
 23
927.9682048000001
 33
0.0
  0
SOLID
  5
403
330
1F
100
AcDbEntity
  8
PDF _0
440
 33554559
100
AcDbTrace
 10
665.8558816000001
 20
928.1001184000002
 30
0.0
 11
666.6473632
 21
927.9682048000001
 31
0.0
 12
665.7239680000001
 22
927.9682048000001
 32
0.0
 13
665.7239680000001
 23
927.9682048000001
 33
0.0
  0
SOLID
  5
404
330
1F
100
AcDbEntity
  8
PDF _0
440
 33554559
100
AcDbTrace
 10
666.6473632
 20
927.9682048000001
 30
0.0
 11
665.7239680000001
 21
927.9682048000001
 31
0.0
 12
666.7792768
 22
927.9682048000001
 32
0.0
 13
666.7792768
 23
927.9682048000001
 33
0.0
  0
SOLID
  5
405
330
1F
100
AcDbEntity
  8
PDF _0
440
 33554559
100
AcDbTrace
 10
665.7239680000001
 20
927.9682048000001
 30
0.0
 11
666.7792768
 21
927.9682048000001
 31
0.0
 12
665.5920544
 22
927.9682048000001
 32
0.0
 13
665.5920544
 23
927.9682048000001
 33
0.0
  0
SOLID
  5
406
330
1F
100
AcDbEntity
  8
PDF _0
440
 33554559
100
AcDbTrace
 10
666.7792768
 20
927.9682048000001
 30
0.0
 11
665.5920544
 21
927.9682048000001
 31
0.0
 12
666.7792768
 22
927.8362912000002
 32
0.0
 13
666.7792768
 23
927.8362912000002
 33
0.0
  0
SOLID
  5
407
330
1F
100
AcDbEntity
  8
PDF _0
440
 33554559
100
AcDbTrace
 10
665.5920544
 20
927.9682048000001
 30
0.0
 11
666.7792768
 21
927.8362912000002
 31
0.0
 12
665.5920544
 22
927.8362912000002
 32
0.0
 13
665.5920544
 23
927.8362912000002
 33
0.0
  0
SOLID
  5
408
330
1F
100
AcDbEntity
  8
PDF _0
440
 33554559
100
AcDbTrace
 10
666.7792768
 20
927.8362912000002
 30
0.0
 11
665.5920544
 21
927.8362912000002
 31
0.0
 12
666.9111904000001
 22
927.8362912000002
 32
0.0
 13
666.9111904000001
 23
927.8362912000002
 33
0.0
  0
SOLID
  5
409
330
1F
100
AcDbEntity
  8
PDF _0
440
 33554559
100
AcDbTrace
 10
665.5920544
 20
927.8362912000002
 30
0.0
 11
666.9111904000001
 21
927.8362912000002
 31
0.0
 12
665.4601408000001
 22
927.8362912000002
 32
0.0
 13
665.4601408000001
 23
927.8362912000002
 33
0.0
  0
SOLID
  5
40A
330
1F
100
AcDbEntity
  8
PDF _0
440
 33554559
100
AcDbTrace
 10
666.9111904000001
 20
927.8362912000002
 30
0.0
 11
665.4601408000001
 21
927.8362912000002
 31
0.0
 12
667.0431040000001
 22
927.7043776000001
 32
0.0
 13
667.0431040000001
 23
927.7043776000001
 33
0.0
  0
SOLID
  5
40B
330
1F
100
AcDbEntity
  8
PDF _0
440
 33554559
100
AcDbTrace
 10
665.4601408000001
 20
927.8362912000002
 30
0.0
 11
667.0431040000001
 21
927.7043776000001
 31
0.0
 12
665.4601408000001
 22
927.7043776000001
 32
0.0
 13
665.4601408000001
 23
927.7043776000001
 33
0.0
  0
SOLID
  5
40C
330
1F
100
AcDbEntity
  8
PDF _0
440
 33554559
100
AcDbTrace
 10
667.0431040000001
 20
927.7043776000001
 30
0.0
 11
665.4601408000001
 21
927.7043776000001
 31
0.0
 12
665.3282272000001
 22
927.7043776000001
 32
0.0
 13
665.3282272000001
 23
927.7043776000001
 33
0.0
  0
SOLID
  5
40D
330
1F
100
AcDbEntity
  8
PDF _0
440
 33554559
100
AcDbTrace
 10
665.4601408000001
 20
927.7043776000001
 30
0.0
 11
667.0431040000001
 21
927.7043776000001
 31
0.0
 12
667.0431040000001
 22
927.7043776000001
 32
0.0
 13
667.0431040000001
 23
927.7043776000001
 33
0.0
  0
SOLID
  5
40E
330
1F
100
AcDbEntity
  8
PDF _0
440
 33554559
100
AcDbTrace
 10
667.0431040000001
 20
927.7043776000001
 30
0.0
 11
665.3282272000001
 21
927.7043776000001
 31
0.0
 12
667.1750176
 22
927.5724640000001
 32
0.0
 13
667.1750176
 23
927.5724640000001
 33
0.0
  0
SOLID
  5
40F
330
1F
100
AcDbEntity
  8
PDF _0
440
 33554559
100
AcDbTrace
 10
665.3282272000001
 20
927.7043776000001
 30
0.0
 11
667.1750176
 21
927.5724640000001
 31
0.0
 12
665.3282272000001
 22
927.5724640000001
 32
0.0
 13
665.3282272000001
 23
927.5724640000001
 33
0.0
  0
SOLID
  5
410
330
1F
100
AcDbEntity
  8
PDF _0
440
 33554559
100
AcDbTrace
 10
667.1750176
 20
927.5724640000001
 30
0.0
 11
665.3282272000001
 21
927.5724640000001
 31
0.0
 12
667.1750176
 22
927.4405504
 32
0.0
 13
667.1750176
 23
927.4405504
 33
0.0
  0
SOLID
  5
411
330
1F
100
AcDbEntity
  8
PDF _0
440
 33554559
100
AcDbTrace
 10
665.3282272000001
 20
927.5724640000001
 30
0.0
 11
667.1750176
 21
927.4405504
 31
0.0
 12
665.1963136
 22
927.4405504
 32
0.0
 13
665.1963136
 23
927.4405504
 33
0.0
  0
SOLID
  5
412
330
1F
100
AcDbEntity
  8
PDF _0
440
 33554559
100
AcDbTrace
 10
665.1963136
 20
927.4405504
 30
0.0
 11
667.1750176
 21
927.4405504
 31
0.0
 12
667.1750176
 22
927.4405504
 32
0.0
 13
667.1750176
 23
927.4405504
 33
0.0
  0
LWPOLYLINE
  5
413
330
1F
100
AcDbEntity
  8
PDF _0
370
     0
100
AcDbPolyline
 90
        3
 70
     0
 43
0.0
 10
667.1750176
 20
927.4405504
 10
665.1963136
 20
927.4405504
 10
667.1750176
 20
927.4405504
  0
SOLID
  5
414
330
1F
100
AcDbEntity
  8
PDF _0
440
 33554559
100
AcDbTrace
 10
667.1750176
 20
927.4405504
 30
0.0
 11
665.1963136
 21
927.4405504
 31
0.0
 12
667.3069312000001
 22
927.3086368000001
 32
0.0
 13
667.3069312000001
 23
927.3086368000001
 33
0.0
  0
SOLID
  5
415
330
1F
100
AcDbEntity
  8
PDF _0
440
 33554559
100
AcDbTrace
 10
665.1963136
 20
927.4405504
 30
0.0
 11
667.3069312000001
 21
927.3086368000001
 31
0.0
 12
665.1963136
 22
927.3086368000001
 32
0.0
 13
665.1963136
 23
927.3086368000001
 33
0.0
  0
SOLID
  5
416
330
1F
100
AcDbEntity
  8
PDF _0
440
 33554559
100
AcDbTrace
 10
667.3069312000001
 20
927.3086368000001
 30
0.0
 11
665.1963136
 21
927.3086368000001
 31
0.0
 12
667.3069312000001
 22
927.1767232
 32
0.0
 13
667.3069312000001
 23
927.1767232
 33
0.0
  0
SOLID
  5
417
330
1F
100
AcDbEntity
  8
PDF _0
440
 33554559
100
AcDbTrace
 10
665.1963136
 20
927.3086368000001
 30
0.0
 11
667.3069312000001
 21
927.1767232
 31
0.0
 12
665.0644
 22
927.1767232
 32
0.0
 13
665.0644
 23
927.1767232
 33
0.0
  0
SOLID
  5
418
330
1F
100
AcDbEntity
  8
PDF _0
440
 33554559
100
AcDbTrace
 10
667.3069312000001
 20
927.1767232
 30
0.0
 11
665.0644
 21
927.1767232
 31
0.0
 12
667.3069312000001
 22
927.0448096
 32
0.0
 13
667.3069312000001
 23
927.0448096
 33
0.0
  0
SOLID
  5
419
330
1F
100
AcDbEntity
  8
PDF _0
440
 33554559
100
AcDbTrace
 10
665.0644
 20
927.1767232
 30
0.0
 11
667.3069312000001
 21
927.0448096
 31
0.0
 12
665.0644
 22
927.0448096
 32
0.0
 13
665.0644
 23
927.0448096
 33
0.0
  0
SOLID
  5
41A
330
1F
100
AcDbEntity
  8
PDF _0
440
 33554559
100
AcDbTrace
 10
665.0644
 20
927.0448096
 30
0.0
 11
667.3069312000001
 21
927.0448096
 31
0.0
 12
667.3069312000001
 22
927.0448096
 32
0.0
 13
667.3069312000001
 23
927.0448096
 33
0.0
  0
LWPOLYLINE
  5
41B
330
1F
100
AcDbEntity
  8
PDF _0
370
     0
100
AcDbPolyline
 90
        3
 70
     0
 43
0.0
 10
667.3069312000001
 20
927.0448096
 10
665.0644
 20
927.0448096
 10
667.3069312000001
 20
927.0448096
  0
SOLID
  5
41C
330
1F
100
AcDbEntity
  8
PDF _0
440
 33554559
100
AcDbTrace
 10
667.3069312000001
 20
927.0448096
 30
0.0
 11
665.0644
 21
927.0448096
 31
0.0
 12
667.3069312000001
 22
926.9128960000001
 32
0.0
 13
667.3069312000001
 23
926.9128960000001
 33
0.0
  0
SOLID
  5
41D
330
1F
100
AcDbEntity
  8
PDF _0
440
 33554559
100
AcDbTrace
 10
665.0644
 20
927.0448096
 30
0.0
 11
667.3069312000001
 21
926.9128960000001
 31
0.0
 12
665.0644
 22
926.9128960000001
 32
0.0
 13
665.0644
 23
926.9128960000001
 33
0.0
  0
SOLID
  5
41E
330
1F
100
AcDbEntity
  8
PDF _0
440
 33554559
100
AcDbTrace
 10
667.3069312000001
 20
926.9128960000001
 30
0.0
 11
665.0644
 21
926.9128960000001
 31
0.0
 12
667.3069312000001
 22
926.7809824
 32
0.0
 13
667.3069312000001
 23
926.7809824
 33
0.0
  0
SOLID
  5
41F
330
1F
100
AcDbEntity
  8
PDF _0
440
 33554559
100
AcDbTrace
 10
665.0644
 20
926.9128960000001
 30
0.0
 11
667.3069312000001
 21
926.7809824
 31
0.0
 12
665.0644
 22
926.7809824
 32
0.0
 13
665.0644
 23
926.7809824
 33
0.0
  0
SOLID
  5
420
330
1F
100
AcDbEntity
  8
PDF _0
440
 33554559
100
AcDbTrace
 10
667.3069312000001
 20
926.7809824
 30
0.0
 11
665.0644
 21
926.7809824
 31
0.0
 12
667.3069312000001
 22
926.6490688000001
 32
0.0
 13
667.3069312000001
 23
926.6490688000001
 33
0.0
  0
SOLID
  5
421
330
1F
100
AcDbEntity
  8
PDF _0
440
 33554559
100
AcDbTrace
 10
665.0644
 20
926.7809824
 30
0.0
 11
667.3069312000001
 21
926.6490688000001
 31
0.0
 12
665.1963136
 22
926.6490688000001
 32
0.0
 13
665.1963136
 23
926.6490688000001
 33
0.0
  0
SOLID
  5
422
330
1F
100
AcDbEntity
  8
PDF _0
440
 33554559
100
AcDbTrace
 10
667.1750176
 20
926.6490688000001
 30
0.0
 11
667.1750176
 21
926.6490688000001
 31
0.0
 12
665.1963136
 22
926.6490688000001
 32
0.0
 13
665.1963136
 23
926.6490688000001
 33
0.0
  0
SOLID
  5
423
330
1F
100
AcDbEntity
  8
PDF _0
440
 33554559
100
AcDbTrace
 10
667.1750176
 20
926.6490688000001
 30
0.0
 11
665.1963136
 21
926.6490688000001
 31
0.0
 12
667.3069312000001
 22
926.6490688000001
 32
0.0
 13
667.3069312000001
 23
926.6490688000001
 33
0.0
  0
SOLID
  5
424
330
1F
100
AcDbEntity
  8
PDF _0
440
 33554559
100
AcDbTrace
 10
667.1750176
 20
926.6490688000001
 30
0.0
 11
665.1963136
 21
926.6490688000001
 31
0.0
 12
667.1750176
 22
926.5171551999999
 32
0.0
 13
667.1750176
 23
926.5171551999999
 33
0.0
  0
SOLID
  5
425
330
1F
100
AcDbEntity
  8
PDF _0
440
 33554559
100
AcDbTrace
 10
665.1963136
 20
926.6490688000001
 30
0.0
 11
667.1750176
 21
926.5171551999999
 31
0.0
 12
665.1963136
 22
926.5171551999999
 32
0.0
 13
665.1963136
 23
926.5171551999999
 33
0.0
  0
SOLID
  5
426
330
1F
100
AcDbEntity
  8
PDF _0
440
 33554559
100
AcDbTrace
 10
667.1750176
 20
926.5171551999999
 30
0.0
 11
665.1963136
 21
926.5171551999999
 31
0.0
 12
667.1750176
 22
926.3852416
 32
0.0
 13
667.1750176
 23
926.3852416
 33
0.0
  0
SOLID
  5
427
330
1F
100
AcDbEntity
  8
PDF _0
440
 33554559
100
AcDbTrace
 10
665.1963136
 20
926.5171551999999
 30
0.0
 11
667.1750176
 21
926.3852416
 31
0.0
 12
665.3282272000001
 22
926.3852416
 32
0.0
 13
665.3282272000001
 23
926.3852416
 33
0.0
  0
SOLID
  5
428
330
1F
100
AcDbEntity
  8
PDF _0
440
 33554559
100
AcDbTrace
 10
667.1750176
 20
926.3852416
 30
0.0
 11
665.3282272000001
 21
926.3852416
 31
0.0
 12
667.0431040000001
 22
926.2533280000001
 32
0.0
 13
667.0431040000001
 23
926.2533280000001
 33
0.0
  0
SOLID
  5
429
330
1F
100
AcDbEntity
  8
PDF _0
440
 33554559
100
AcDbTrace
 10
665.3282272000001
 20
926.3852416
 30
0.0
 11
667.0431040000001
 21
926.2533280000001
 31
0.0
 12
665.3282272000001
 22
926.2533280000001
 32
0.0
 13
665.3282272000001
 23
926.2533280000001
 33
0.0
  0
SOLID
  5
42A
330
1F
100
AcDbEntity
  8
PDF _0
440
 33554559
100
AcDbTrace
 10
667.0431040000001
 20
926.2533280000001
 30
0.0
 11
665.3282272000001
 21
926.2533280000001
 31
0.0
 12
665.4601408000001
 22
926.2533280000001
 32
0.0
 13
665.4601408000001
 23
926.2533280000001
 33
0.0
  0
SOLID
  5
42B
330
1F
100
AcDbEntity
  8
PDF _0
440
 33554559
100
AcDbTrace
 10
665.3282272000001
 20
926.2533280000001
 30
0.0
 11
667.0431040000001
 21
926.2533280000001
 31
0.0
 12
667.0431040000001
 22
926.2533280000001
 32
0.0
 13
667.0431040000001
 23
926.2533280000001
 33
0.0
  0
SOLID
  5
42C
330
1F
100
AcDbEntity
  8
PDF _0
440
 33554559
100
AcDbTrace
 10
667.0431040000001
 20
926.2533280000001
 30
0.0
 11
665.4601408000001
 21
926.2533280000001
 31
0.0
 12
666.9111904000001
 22
926.1214144
 32
0.0
 13
666.9111904000001
 23
926.1214144
 33
0.0
  0
SOLID
  5
42D
330
1F
100
AcDbEntity
  8
PDF _0
440
 33554559
100
AcDbTrace
 10
665.4601408000001
 20
926.2533280000001
 30
0.0
 11
666.9111904000001
 21
926.1214144
 31
0.0
 12
665.4601408000001
 22
926.1214144
 32
0.0
 13
665.4601408000001
 23
926.1214144
 33
0.0
  0
SOLID
  5
42E
330
1F
100
AcDbEntity
  8
PDF _0
440
 33554559
100
AcDbTrace
 10
666.9111904000001
 20
926.1214144
 30
0.0
 11
665.4601408000001
 21
926.1214144
 31
0.0
 12
666.7792768
 22
926.1214144
 32
0.0
 13
666.7792768
 23
926.1214144
 33
0.0
  0
SOLID
  5
42F
330
1F
100
AcDbEntity
  8
PDF _0
440
 33554559
100
AcDbTrace
 10
665.4601408000001
 20
926.1214144
 30
0.0
 11
666.7792768
 21
926.1214144
 31
0.0
 12
665.5920544
 22
926.1214144
 32
0.0
 13
665.5920544
 23
926.1214144
 33
0.0
  0
SOLID
  5
430
330
1F
100
AcDbEntity
  8
PDF _0
440
 33554559
100
AcDbTrace
 10
666.7792768
 20
926.1214144
 30
0.0
 11
665.5920544
 21
926.1214144
 31
0.0
 12
666.7792768
 22
925.9895008
 32
0.0
 13
666.7792768
 23
925.9895008
 33
0.0
  0
SOLID
  5
431
330
1F
100
AcDbEntity
  8
PDF _0
440
 33554559
100
AcDbTrace
 10
665.5920544
 20
926.1214144
 30
0.0
 11
666.7792768
 21
925.9895008
 31
0.0
 12
665.5920544
 22
925.9895008
 32
0.0
 13
665.5920544
 23
925.9895008
 33
0.0
  0
SOLID
  5
432
330
1F
100
AcDbEntity
  8
PDF _0
440
 33554559
100
AcDbTrace
 10
666.7792768
 20
925.9895008
 30
0.0
 11
665.5920544
 21
925.9895008
 31
0.0
 12
666.6473632
 22
925.9895008
 32
0.0
 13
666.6473632
 23
925.9895008
 33
0.0
  0
SOLID
  5
433
330
1F
100
AcDbEntity
  8
PDF _0
440
 33554559
100
AcDbTrace
 10
665.5920544
 20
925.9895008
 30
0.0
 11
666.6473632
 21
925.9895008
 31
0.0
 12
665.7239680000001
 22
925.9895008
 32
0.0
 13
665.7239680000001
 23
925.9895008
 33
0.0
  0
SOLID
  5
434
330
1F
100
AcDbEntity
  8
PDF _0
440
 33554559
100
AcDbTrace
 10
666.6473632
 20
925.9895008
 30
0.0
 11
665.7239680000001
 21
925.9895008
 31
0.0
 12
666.5154496000001
 22
925.9895008
 32
0.0
 13
666.5154496000001
 23
925.9895008
 33
0.0
  0
SOLID
  5
435
330
1F
100
AcDbEntity
  8
PDF _0
440
 33554559
100
AcDbTrace
 10
665.7239680000001
 20
925.9895008
 30
0.0
 11
666.5154496000001
 21
925.9895008
 31
0.0
 12
665.8558816000001
 22
925.9895008
 32
0.0
 13
665.8558816000001
 23
925.9895008
 33
0.0
  0
SOLID
  5
436
330
1F
100
AcDbEntity
  8
PDF _0
440
 33554559
100
AcDbTrace
 10
666.5154496000001
 20
925.9895008
 30
0.0
 11
665.8558816000001
 21
925.9895008
 31
0.0
 12
665.9877952
 22
925.9895008
 32
0.0
 13
665.9877952
 23
925.9895008
 33
0.0
  0
SOLID
  5
437
330
1F
100
AcDbEntity
  8
PDF _0
440
 33554559
100
AcDbTrace
 10
665.8558816000001
 20
925.9895008
 30
0.0
 11
666.5154496000001
 21
925.9895008
 31
0.0
 12
666.5154496000001
 22
925.9895008
 32
0.0
 13
666.5154496000001
 23
925.9895008
 33
0.0
  0
SOLID
  5
438
330
1F
100
AcDbEntity
  8
PDF _0
440
 33554559
100
AcDbTrace
 10
666.2516224
 20
925.8575872000001
 30
0.0
 11
666.2516224
 21
925.8575872000001
 31
0.0
 12
665.9877952
 22
925.8575872000001
 32
0.0
 13
665.9877952
 23
925.8575872000001
 33
0.0
  0
SOLID
  5
439
330
1F
100
AcDbEntity
  8
PDF _0
440
 33554559
100
AcDbTrace
 10
666.2516224
 20
925.8575872000001
 30
0.0
 11
665.9877952
 21
925.8575872000001
 31
0.0
 12
665.9877952
 22
925.9895008
 32
0.0
 13
665.9877952
 23
925.9895008
 33
0.0
  0
SOLID
  5
43A
330
1F
100
AcDbEntity
  8
PDF _0
440
 33554559
100
AcDbTrace
 10
665.9877952
 20
925.9895008
 30
0.0
 11
666.5154496000001
 21
925.9895008
 31
0.0
 12
666.2516224
 22
925.8575872000001
 32
0.0
 13
666.2516224
 23
925.8575872000001
 33
0.0
  0
LWPOLYLINE
  5
43C
330
1F
100
AcDbEntity
  8
PDF _0
370
    25
100
AcDbPolyline
 90
        4
 70
     0
 43
0.0
 10
438.9644896
 20
925.8575872000001
 10
665.0644
 20
925.8575872000001
 10
665.0644
 20
915.9640672
 10
438.9644896
 20
915.9640672
  0
LWPOLYLINE
  5
43D
330
1F
100
AcDbEntity
  8
PDF _0
370
    25
100
AcDbPolyline
 90
        4
 70
     1
 43
0.0
 10
516.1339456
 20
925.8575872000001
 10
502.9425856000001
 20
925.8575872000001
 10
502.9425856000001
 20
934.168144
 10
516.1339456
 20
934.168144
  0
LWPOLYLINE
  5
43E
330
1F
100
AcDbEntity
  8
PDF _0
370
    25
100
AcDbPolyline
 90
        2
 70
     0
 43
0.0
 10
504.6574624
 20
934.168144
 10
504.6574624
 20
925.8575872000001
  0
LWPOLYLINE
  5
43F
330
1F
100
AcDbEntity
  8
PDF _0
370
    25
100
AcDbPolyline
 90
        2
 70
     0
 43
0.0
 10
514.5509824
 20
934.168144
 10
514.5509824
 20
925.8575872000001
  0
LWPOLYLINE
  5
440
330
1F
100
AcDbEntity
  8
PDF _0
370
    25
100
AcDbPolyline
 90
        6
 70
     0
 43
0.0
 10
718.6213216000001
 20
924.8022784000001
 10
718.0936672000001
 20
925.3299328
 10
717.4340992000001
 20
924.8022784000001
 10
717.4340992000001
 20
914.9087584000001
 10
718.0936672000001
 20
914.2491904000001
 10
718.6213216000001
 20
914.9087584000001
  0
SOLID
  5
441
330
1F
100
AcDbEntity
  8
PDF _0
440
 33554559
100
AcDbTrace
 10
718.0936672000001
 20
914.9087584000001
 30
0.0
 11
717.82984
 21
914.9087584000001
 31
0.0
 12
717.82984
 22
914.9087584000001
 32
0.0
 13
717.82984
 23
914.9087584000001
 33
0.0
  0
SOLID
  5
442
330
1F
100
AcDbEntity
  8
PDF _0
440
 33554559
100
AcDbTrace
 10
718.0936672000001
 20
914.9087584000001
 30
0.0
 11
717.82984
 21
914.9087584000001
 31
0.0
 12
718.2255808
 22
914.7768448
 32
0.0
 13
718.2255808
 23
914.7768448
 33
0.0
  0
SOLID
  5
443
330
1F
100
AcDbEntity
  8
PDF _0
440
 33554559
100
AcDbTrace
 10
717.82984
 20
914.9087584000001
 30
0.0
 11
718.2255808
 21
914.7768448
 31
0.0
 12
717.82984
 22
914.7768448
 32
0.0
 13
717.82984
 23
914.7768448
 33
0.0
  0
SOLID
  5
444
330
1F
100
AcDbEntity
  8
PDF _0
440
 33554559
100
AcDbTrace
 10
718.2255808
 20
914.7768448
 30
0.0
 11
717.82984
 21
914.7768448
 31
0.0
 12
718.3574944
 22
914.7768448
 32
0.0
 13
718.3574944
 23
914.7768448
 33
0.0
  0
SOLID
  5
445
330
1F
100
AcDbEntity
  8
PDF _0
440
 33554559
100
AcDbTrace
 10
717.82984
 20
914.7768448
 30
0.0
 11
718.3574944
 21
914.7768448
 31
0.0
 12
717.6979264000001
 22
914.7768448
 32
0.0
 13
717.6979264000001
 23
914.7768448
 33
0.0
  0
SOLID
  5
446
330
1F
100
AcDbEntity
  8
PDF _0
440
 33554559
100
AcDbTrace
 10
718.3574944
 20
914.7768448
 30
0.0
 11
717.6979264000001
 21
914.7768448
 31
0.0
 12
718.4894080000001
 22
914.7768448
 32
0.0
 13
718.4894080000001
 23
914.7768448
 33
0.0
  0
SOLID
  5
447
330
1F
100
AcDbEntity
  8
PDF _0
440
 33554559
100
AcDbTrace
 10
717.6979264000001
 20
914.7768448
 30
0.0
 11
718.4894080000001
 21
914.7768448
 31
0.0
 12
717.5660128
 22
914.7768448
 32
0.0
 13
717.5660128
 23
914.7768448
 33
0.0
  0
SOLID
  5
448
330
1F
100
AcDbEntity
  8
PDF _0
440
 33554559
100
AcDbTrace
 10
718.4894080000001
 20
914.7768448
 30
0.0
 11
717.5660128
 21
914.7768448
 31
0.0
 12
718.6213216000001
 22
914.7768448
 32
0.0
 13
718.6213216000001
 23
914.7768448
 33
0.0
  0
SOLID
  5
449
330
1F
100
AcDbEntity
  8
PDF _0
440
 33554559
100
AcDbTrace
 10
717.5660128
 20
914.7768448
 30
0.0
 11
718.6213216000001
 21
914.7768448
 31
0.0
 12
717.4340992000001
 22
914.7768448
 32
0.0
 13
717.4340992000001
 23
914.7768448
 33
0.0
  0
SOLID
  5
44A
330
1F
100
AcDbEntity
  8
PDF _0
440
 33554559
100
AcDbTrace
 10
718.6213216000001
 20
914.7768448
 30
0.0
 11
717.4340992000001
 21
914.7768448
 31
0.0
 12
718.6213216000001
 22
914.6449312000001
 32
0.0
 13
718.6213216000001
 23
914.6449312000001
 33
0.0
  0
SOLID
  5
44B
330
1F
100
AcDbEntity
  8
PDF _0
440
 33554559
100
AcDbTrace
 10
717.4340992000001
 20
914.7768448
 30
0.0
 11
718.6213216000001
 21
914.6449312000001
 31
0.0
 12
717.4340992000001
 22
914.6449312000001
 32
0.0
 13
717.4340992000001
 23
914.6449312000001
 33
0.0
  0
SOLID
  5
44C
330
1F
100
AcDbEntity
  8
PDF _0
440
 33554559
100
AcDbTrace
 10
718.6213216000001
 20
914.6449312000001
 30
0.0
 11
717.4340992000001
 21
914.6449312000001
 31
0.0
 12
718.7532352
 22
914.6449312000001
 32
0.0
 13
718.7532352
 23
914.6449312000001
 33
0.0
  0
SOLID
  5
44D
330
1F
100
AcDbEntity
  8
PDF _0
440
 33554559
100
AcDbTrace
 10
717.4340992000001
 20
914.6449312000001
 30
0.0
 11
718.7532352
 21
914.6449312000001
 31
0.0
 12
717.3021856000001
 22
914.6449312000001
 32
0.0
 13
717.3021856000001
 23
914.6449312000001
 33
0.0
  0
SOLID
  5
44E
330
1F
100
AcDbEntity
  8
PDF _0
440
 33554559
100
AcDbTrace
 10
718.7532352
 20
914.6449312000001
 30
0.0
 11
717.3021856000001
 21
914.6449312000001
 31
0.0
 12
718.8851488000001
 22
914.5130176000002
 32
0.0
 13
718.8851488000001
 23
914.5130176000002
 33
0.0
  0
SOLID
  5
44F
330
1F
100
AcDbEntity
  8
PDF _0
440
 33554559
100
AcDbTrace
 10
717.3021856000001
 20
914.6449312000001
 30
0.0
 11
718.8851488000001
 21
914.5130176000002
 31
0.0
 12
717.3021856000001
 22
914.5130176000002
 32
0.0
 13
717.3021856000001
 23
914.5130176000002
 33
0.0
  0
SOLID
  5
450
330
1F
100
AcDbEntity
  8
PDF _0
440
 33554559
100
AcDbTrace
 10
718.8851488000001
 20
914.5130176000002
 30
0.0
 11
717.3021856000001
 21
914.5130176000002
 31
0.0
 12
718.8851488000001
 22
914.3811040000001
 32
0.0
 13
718.8851488000001
 23
914.3811040000001
 33
0.0
  0
SOLID
  5
451
330
1F
100
AcDbEntity
  8
PDF _0
440
 33554559
100
AcDbTrace
 10
717.3021856000001
 20
914.5130176000002
 30
0.0
 11
718.8851488000001
 21
914.3811040000001
 31
0.0
 12
717.170272
 22
914.3811040000001
 32
0.0
 13
717.170272
 23
914.3811040000001
 33
0.0
  0
SOLID
  5
452
330
1F
100
AcDbEntity
  8
PDF _0
440
 33554559
100
AcDbTrace
 10
719.0170624000001
 20
914.3811040000001
 30
0.0
 11
719.0170624000001
 21
914.3811040000001
 31
0.0
 12
717.170272
 22
914.3811040000001
 32
0.0
 13
717.170272
 23
914.3811040000001
 33
0.0
  0
SOLID
  5
453
330
1F
100
AcDbEntity
  8
PDF _0
440
 33554559
100
AcDbTrace
 10
719.0170624000001
 20
914.3811040000001
 30
0.0
 11
717.170272
 21
914.3811040000001
 31
0.0
 12
718.8851488000001
 22
914.3811040000001
 32
0.0
 13
718.8851488000001
 23
914.3811040000001
 33
0.0
  0
SOLID
  5
454
330
1F
100
AcDbEntity
  8
PDF _0
440
 33554559
100
AcDbTrace
 10
719.0170624000001
 20
914.3811040000001
 30
0.0
 11
717.170272
 21
914.3811040000001
 31
0.0
 12
719.0170624000001
 22
914.2491904000001
 32
0.0
 13
719.0170624000001
 23
914.2491904000001
 33
0.0
  0
SOLID
  5
455
330
1F
100
AcDbEntity
  8
PDF _0
440
 33554559
100
AcDbTrace
 10
717.170272
 20
914.3811040000001
 30
0.0
 11
719.0170624000001
 21
914.2491904000001
 31
0.0
 12
717.0383584000001
 22
914.2491904000001
 32
0.0
 13
717.0383584000001
 23
914.2491904000001
 33
0.0
  0
SOLID
  5
456
330
1F
100
AcDbEntity
  8
PDF _0
440
 33554559
100
AcDbTrace
 10
719.0170624000001
 20
914.2491904000001
 30
0.0
 11
717.0383584000001
 21
914.2491904000001
 31
0.0
 12
719.0170624000001
 22
914.1172768000002
 32
0.0
 13
719.0170624000001
 23
914.1172768000002
 33
0.0
  0
SOLID
  5
457
330
1F
100
AcDbEntity
  8
PDF _0
440
 33554559
100
AcDbTrace
 10
717.0383584000001
 20
914.2491904000001
 30
0.0
 11
719.0170624000001
 21
914.1172768000002
 31
0.0
 12
717.0383584000001
 22
914.1172768000002
 32
0.0
 13
717.0383584000001
 23
914.1172768000002
 33
0.0
  0
SOLID
  5
458
330
1F
100
AcDbEntity
  8
PDF _0
440
 33554559
100
AcDbTrace
 10
719.0170624000001
 20
914.1172768000002
 30
0.0
 11
717.0383584000001
 21
914.1172768000002
 31
0.0
 12
719.148976
 22
914.1172768000002
 32
0.0
 13
719.148976
 23
914.1172768000002
 33
0.0
  0
SOLID
  5
459
330
1F
100
AcDbEntity
  8
PDF _0
440
 33554559
100
AcDbTrace
 10
717.0383584000001
 20
914.1172768000002
 30
0.0
 11
719.148976
 21
914.1172768000002
 31
0.0
 12
716.9064448000001
 22
914.1172768000002
 32
0.0
 13
716.9064448000001
 23
914.1172768000002
 33
0.0
  0
SOLID
  5
45A
330
1F
100
AcDbEntity
  8
PDF _0
440
 33554559
100
AcDbTrace
 10
719.148976
 20
914.1172768000002
 30
0.0
 11
716.9064448000001
 21
914.1172768000002
 31
0.0
 12
719.148976
 22
913.9853632000001
 32
0.0
 13
719.148976
 23
913.9853632000001
 33
0.0
  0
SOLID
  5
45B
330
1F
100
AcDbEntity
  8
PDF _0
440
 33554559
100
AcDbTrace
 10
716.9064448000001
 20
914.1172768000002
 30
0.0
 11
719.148976
 21
913.9853632000001
 31
0.0
 12
716.9064448000001
 22
913.9853632000001
 32
0.0
 13
716.9064448000001
 23
913.9853632000001
 33
0.0
  0
SOLID
  5
45C
330
1F
100
AcDbEntity
  8
PDF _0
440
 33554559
100
AcDbTrace
 10
719.148976
 20
913.9853632000001
 30
0.0
 11
716.9064448000001
 21
913.9853632000001
 31
0.0
 12
719.148976
 22
913.8534496000001
 32
0.0
 13
719.148976
 23
913.8534496000001
 33
0.0
  0
SOLID
  5
45D
330
1F
100
AcDbEntity
  8
PDF _0
440
 33554559
100
AcDbTrace
 10
716.9064448000001
 20
913.9853632000001
 30
0.0
 11
719.148976
 21
913.8534496000001
 31
0.0
 12
716.9064448000001
 22
913.8534496000001
 32
0.0
 13
716.9064448000001
 23
913.8534496000001
 33
0.0
  0
SOLID
  5
45E
330
1F
100
AcDbEntity
  8
PDF _0
440
 33554559
100
AcDbTrace
 10
719.148976
 20
913.8534496000001
 30
0.0
 11
716.9064448000001
 21
913.8534496000001
 31
0.0
 12
719.148976
 22
913.721536
 32
0.0
 13
719.148976
 23
913.721536
 33
0.0
  0
SOLID
  5
45F
330
1F
100
AcDbEntity
  8
PDF _0
440
 33554559
100
AcDbTrace
 10
716.9064448000001
 20
913.8534496000001
 30
0.0
 11
719.148976
 21
913.721536
 31
0.0
 12
716.9064448000001
 22
913.721536
 32
0.0
 13
716.9064448000001
 23
913.721536
 33
0.0
  0
SOLID
  5
460
330
1F
100
AcDbEntity
  8
PDF _0
440
 33554559
100
AcDbTrace
 10
719.148976
 20
913.721536
 30
0.0
 11
716.9064448000001
 21
913.721536
 31
0.0
 12
719.148976
 22
913.5896224000001
 32
0.0
 13
719.148976
 23
913.5896224000001
 33
0.0
  0
SOLID
  5
461
330
1F
100
AcDbEntity
  8
PDF _0
440
 33554559
100
AcDbTrace
 10
716.9064448000001
 20
913.721536
 30
0.0
 11
719.148976
 21
913.5896224000001
 31
0.0
 12
716.9064448000001
 22
913.5896224000001
 32
0.0
 13
716.9064448000001
 23
913.5896224000001
 33
0.0
  0
SOLID
  5
462
330
1F
100
AcDbEntity
  8
PDF _0
440
 33554559
100
AcDbTrace
 10
716.9064448000001
 20
913.5896224000001
 30
0.0
 11
719.148976
 21
913.5896224000001
 31
0.0
 12
719.148976
 22
913.5896224000001
 32
0.0
 13
719.148976
 23
913.5896224000001
 33
0.0
  0
LWPOLYLINE
  5
463
330
1F
100
AcDbEntity
  8
PDF _0
370
     0
100
AcDbPolyline
 90
        3
 70
     0
 43
0.0
 10
719.148976
 20
913.5896224000001
 10
716.9064448000001
 20
913.5896224000001
 10
719.148976
 20
913.5896224000001
  0
SOLID
  5
464
330
1F
100
AcDbEntity
  8
PDF _0
440
 33554559
100
AcDbTrace
 10
719.148976
 20
913.5896224000001
 30
0.0
 11
716.9064448000001
 21
913.5896224000001
 31
0.0
 12
719.148976
 22
913.4577088
 32
0.0
 13
719.148976
 23
913.4577088
 33
0.0
  0
SOLID
  5
465
330
1F
100
AcDbEntity
  8
PDF _0
440
 33554559
100
AcDbTrace
 10
716.9064448000001
 20
913.5896224000001
 30
0.0
 11
719.148976
 21
913.4577088
 31
0.0
 12
716.9064448000001
 22
913.4577088
 32
0.0
 13
716.9064448000001
 23
913.4577088
 33
0.0
  0
SOLID
  5
466
330
1F
100
AcDbEntity
  8
PDF _0
440
 33554559
100
AcDbTrace
 10
719.148976
 20
913.4577088
 30
0.0
 11
716.9064448000001
 21
913.4577088
 31
0.0
 12
719.0170624000001
 22
913.3257952000001
 32
0.0
 13
719.0170624000001
 23
913.3257952000001
 33
0.0
  0
SOLID
  5
467
330
1F
100
AcDbEntity
  8
PDF _0
440
 33554559
100
AcDbTrace
 10
716.9064448000001
 20
913.4577088
 30
0.0
 11
719.0170624000001
 21
913.3257952000001
 31
0.0
 12
717.0383584000001
 22
913.3257952000001
 32
0.0
 13
717.0383584000001
 23
913.3257952000001
 33
0.0
  0
SOLID
  5
468
330
1F
100
AcDbEntity
  8
PDF _0
440
 33554559
100
AcDbTrace
 10
719.0170624000001
 20
913.3257952000001
 30
0.0
 11
717.0383584000001
 21
913.3257952000001
 31
0.0
 12
719.0170624000001
 22
913.1938815999999
 32
0.0
 13
719.0170624000001
 23
913.1938815999999
 33
0.0
  0
SOLID
  5
469
330
1F
100
AcDbEntity
  8
PDF _0
440
 33554559
100
AcDbTrace
 10
717.0383584000001
 20
913.3257952000001
 30
0.0
 11
719.0170624000001
 21
913.1938815999999
 31
0.0
 12
717.0383584000001
 22
913.1938815999999
 32
0.0
 13
717.0383584000001
 23
913.1938815999999
 33
0.0
  0
SOLID
  5
46A
330
1F
100
AcDbEntity
  8
PDF _0
440
 33554559
100
AcDbTrace
 10
719.0170624000001
 20
913.1938815999999
 30
0.0
 11
717.0383584000001
 21
913.1938815999999
 31
0.0
 12
717.170272
 22
913.1938815999999
 32
0.0
 13
717.170272
 23
913.1938815999999
 33
0.0
  0
SOLID
  5
46B
330
1F
100
AcDbEntity
  8
PDF _0
440
 33554559
100
AcDbTrace
 10
717.0383584000001
 20
913.1938815999999
 30
0.0
 11
719.0170624000001
 21
913.1938815999999
 31
0.0
 12
719.0170624000001
 22
913.1938815999999
 32
0.0
 13
719.0170624000001
 23
913.1938815999999
 33
0.0
  0
SOLID
  5
46C
330
1F
100
AcDbEntity
  8
PDF _0
440
 33554559
100
AcDbTrace
 10
719.0170624000001
 20
913.1938815999999
 30
0.0
 11
717.170272
 21
913.1938815999999
 31
0.0
 12
718.8851488000001
 22
913.061968
 32
0.0
 13
718.8851488000001
 23
913.061968
 33
0.0
  0
SOLID
  5
46D
330
1F
100
AcDbEntity
  8
PDF _0
440
 33554559
100
AcDbTrace
 10
717.170272
 20
913.1938815999999
 30
0.0
 11
718.8851488000001
 21
913.061968
 31
0.0
 12
717.170272
 22
913.061968
 32
0.0
 13
717.170272
 23
913.061968
 33
0.0
  0
SOLID
  5
46E
330
1F
100
AcDbEntity
  8
PDF _0
440
 33554559
100
AcDbTrace
 10
718.8851488000001
 20
913.061968
 30
0.0
 11
717.170272
 21
913.061968
 31
0.0
 12
717.3021856000001
 22
913.061968
 32
0.0
 13
717.3021856000001
 23
913.061968
 33
0.0
  0
SOLID
  5
46F
330
1F
100
AcDbEntity
  8
PDF _0
440
 33554559
100
AcDbTrace
 10
717.170272
 20
913.061968
 30
0.0
 11
718.8851488000001
 21
913.061968
 31
0.0
 12
718.8851488000001
 22
913.061968
 32
0.0
 13
718.8851488000001
 23
913.061968
 33
0.0
  0
SOLID
  5
470
330
1F
100
AcDbEntity
  8
PDF _0
440
 33554559
100
AcDbTrace
 10
718.8851488000001
 20
913.061968
 30
0.0
 11
717.3021856000001
 21
913.061968
 31
0.0
 12
718.7532352
 22
912.9300544000001
 32
0.0
 13
718.7532352
 23
912.9300544000001
 33
0.0
  0
SOLID
  5
471
330
1F
100
AcDbEntity
  8
PDF _0
440
 33554559
100
AcDbTrace
 10
717.3021856000001
 20
913.061968
 30
0.0
 11
718.7532352
 21
912.9300544000001
 31
0.0
 12
717.3021856000001
 22
912.9300544000001
 32
0.0
 13
717.3021856000001
 23
912.9300544000001
 33
0.0
  0
SOLID
  5
472
330
1F
100
AcDbEntity
  8
PDF _0
440
 33554559
100
AcDbTrace
 10
718.7532352
 20
912.9300544000001
 30
0.0
 11
717.3021856000001
 21
912.9300544000001
 31
0.0
 12
718.6213216000001
 22
912.7981408
 32
0.0
 13
718.6213216000001
 23
912.7981408
 33
0.0
  0
SOLID
  5
473
330
1F
100
AcDbEntity
  8
PDF _0
440
 33554559
100
AcDbTrace
 10
717.3021856000001
 20
912.9300544000001
 30
0.0
 11
718.6213216000001
 21
912.7981408
 31
0.0
 12
717.4340992000001
 22
912.7981408
 32
0.0
 13
717.4340992000001
 23
912.7981408
 33
0.0
  0
SOLID
  5
474
330
1F
100
AcDbEntity
  8
PDF _0
440
 33554559
100
AcDbTrace
 10
717.4340992000001
 20
912.7981408
 30
0.0
 11
718.6213216000001
 21
912.7981408
 31
0.0
 12
718.6213216000001
 22
912.7981408
 32
0.0
 13
718.6213216000001
 23
912.7981408
 33
0.0
  0
LWPOLYLINE
  5
475
330
1F
100
AcDbEntity
  8
PDF _0
370
     0
100
AcDbPolyline
 90
        3
 70
     0
 43
0.0
 10
718.6213216000001
 20
912.7981408
 10
717.4340992000001
 20
912.7981408
 10
718.6213216000001
 20
912.7981408
  0
SOLID
  5
476
330
1F
100
AcDbEntity
  8
PDF _0
440
 33554559
100
AcDbTrace
 10
718.6213216000001
 20
912.7981408
 30
0.0
 11
717.4340992000001
 21
912.7981408
 31
0.0
 12
718.4894080000001
 22
912.7981408
 32
0.0
 13
718.4894080000001
 23
912.7981408
 33
0.0
  0
SOLID
  5
477
330
1F
100
AcDbEntity
  8
PDF _0
440
 33554559
100
AcDbTrace
 10
717.4340992000001
 20
912.7981408
 30
0.0
 11
718.4894080000001
 21
912.7981408
 31
0.0
 12
717.5660128
 22
912.7981408
 32
0.0
 13
717.5660128
 23
912.7981408
 33
0.0
  0
SOLID
  5
478
330
1F
100
AcDbEntity
  8
PDF _0
440
 33554559
100
AcDbTrace
 10
718.4894080000001
 20
912.7981408
 30
0.0
 11
717.5660128
 21
912.7981408
 31
0.0
 12
718.3574944
 22
912.6662272
 32
0.0
 13
718.3574944
 23
912.6662272
 33
0.0
  0
SOLID
  5
479
330
1F
100
AcDbEntity
  8
PDF _0
440
 33554559
100
AcDbTrace
 10
717.5660128
 20
912.7981408
 30
0.0
 11
718.3574944
 21
912.6662272
 31
0.0
 12
717.6979264000001
 22
912.6662272
 32
0.0
 13
717.6979264000001
 23
912.6662272
 33
0.0
  0
SOLID
  5
47A
330
1F
100
AcDbEntity
  8
PDF _0
440
 33554559
100
AcDbTrace
 10
718.3574944
 20
912.6662272
 30
0.0
 11
717.6979264000001
 21
912.6662272
 31
0.0
 12
718.2255808
 22
912.6662272
 32
0.0
 13
718.2255808
 23
912.6662272
 33
0.0
  0
SOLID
  5
47B
330
1F
100
AcDbEntity
  8
PDF _0
440
 33554559
100
AcDbTrace
 10
717.6979264000001
 20
912.6662272
 30
0.0
 11
718.2255808
 21
912.6662272
 31
0.0
 12
717.82984
 22
912.6662272
 32
0.0
 13
717.82984
 23
912.6662272
 33
0.0
  0
SOLID
  5
47C
330
1F
100
AcDbEntity
  8
PDF _0
440
 33554559
100
AcDbTrace
 10
717.82984
 20
912.6662272
 30
0.0
 11
718.0936672000001
 21
912.6662272
 31
0.0
 12
718.0936672000001
 22
912.6662272
 32
0.0
 13
718.0936672000001
 23
912.6662272
 33
0.0
  0
SOLID
  5
47D
330
1F
100
AcDbEntity
  8
PDF _0
440
 33554559
100
AcDbTrace
 10
718.0936672000001
 20
912.6662272
 30
0.0
 11
718.0936672000001
 21
912.6662272
 31
0.0
 12
717.82984
 22
912.6662272
 32
0.0
 13
717.82984
 23
912.6662272
 33
0.0
  0
SOLID
  5
47E
330
1F
100
AcDbEntity
  8
PDF _0
440
 33554559
100
AcDbTrace
 10
718.0936672000001
 20
912.6662272
 30
0.0
 11
717.82984
 21
912.6662272
 31
0.0
 12
718.2255808
 22
912.6662272
 32
0.0
 13
718.2255808
 23
912.6662272
 33
0.0
  0
SOLID
  5
480
330
1F
100
AcDbEntity
  8
PDF _0
440
 33554559
100
AcDbTrace
 10
718.0936672000001
 20
927.0448096
 30
0.0
 11
717.82984
 21
927.0448096
 31
0.0
 12
717.82984
 22
927.0448096
 32
0.0
 13
717.82984
 23
927.0448096
 33
0.0
  0
SOLID
  5
481
330
1F
100
AcDbEntity
  8
PDF _0
440
 33554559
100
AcDbTrace
 10
718.0936672000001
 20
927.0448096
 30
0.0
 11
717.82984
 21
927.0448096
 31
0.0
 12
718.2255808
 22
926.9128960000001
 32
0.0
 13
718.2255808
 23
926.9128960000001
 33
0.0
  0
SOLID
  5
482
330
1F
100
AcDbEntity
  8
PDF _0
440
 33554559
100
AcDbTrace
 10
717.82984
 20
927.0448096
 30
0.0
 11
718.2255808
 21
926.9128960000001
 31
0.0
 12
717.82984
 22
926.9128960000001
 32
0.0
 13
717.82984
 23
926.9128960000001
 33
0.0
  0
SOLID
  5
483
330
1F
100
AcDbEntity
  8
PDF _0
440
 33554559
100
AcDbTrace
 10
718.2255808
 20
926.9128960000001
 30
0.0
 11
717.82984
 21
926.9128960000001
 31
0.0
 12
718.3574944
 22
926.9128960000001
 32
0.0
 13
718.3574944
 23
926.9128960000001
 33
0.0
  0
SOLID
  5
484
330
1F
100
AcDbEntity
  8
PDF _0
440
 33554559
100
AcDbTrace
 10
717.82984
 20
926.9128960000001
 30
0.0
 11
718.3574944
 21
926.9128960000001
 31
0.0
 12
717.6979264000001
 22
926.9128960000001
 32
0.0
 13
717.6979264000001
 23
926.9128960000001
 33
0.0
  0
SOLID
  5
485
330
1F
100
AcDbEntity
  8
PDF _0
440
 33554559
100
AcDbTrace
 10
718.3574944
 20
926.9128960000001
 30
0.0
 11
717.6979264000001
 21
926.9128960000001
 31
0.0
 12
718.4894080000001
 22
926.9128960000001
 32
0.0
 13
718.4894080000001
 23
926.9128960000001
 33
0.0
  0
SOLID
  5
486
330
1F
100
AcDbEntity
  8
PDF _0
440
 33554559
100
AcDbTrace
 10
717.6979264000001
 20
926.9128960000001
 30
0.0
 11
718.4894080000001
 21
926.9128960000001
 31
0.0
 12
717.5660128
 22
926.9128960000001
 32
0.0
 13
717.5660128
 23
926.9128960000001
 33
0.0
  0
SOLID
  5
487
330
1F
100
AcDbEntity
  8
PDF _0
440
 33554559
100
AcDbTrace
 10
718.4894080000001
 20
926.9128960000001
 30
0.0
 11
717.5660128
 21
926.9128960000001
 31
0.0
 12
718.6213216000001
 22
926.9128960000001
 32
0.0
 13
718.6213216000001
 23
926.9128960000001
 33
0.0
  0
SOLID
  5
488
330
1F
100
AcDbEntity
  8
PDF _0
440
 33554559
100
AcDbTrace
 10
717.5660128
 20
926.9128960000001
 30
0.0
 11
718.6213216000001
 21
926.9128960000001
 31
0.0
 12
717.4340992000001
 22
926.9128960000001
 32
0.0
 13
717.4340992000001
 23
926.9128960000001
 33
0.0
  0
SOLID
  5
489
330
1F
100
AcDbEntity
  8
PDF _0
440
 33554559
100
AcDbTrace
 10
718.6213216000001
 20
926.9128960000001
 30
0.0
 11
717.4340992000001
 21
926.9128960000001
 31
0.0
 12
718.6213216000001
 22
926.7809824
 32
0.0
 13
718.6213216000001
 23
926.7809824
 33
0.0
  0
SOLID
  5
48A
330
1F
100
AcDbEntity
  8
PDF _0
440
 33554559
100
AcDbTrace
 10
717.4340992000001
 20
926.9128960000001
 30
0.0
 11
718.6213216000001
 21
926.7809824
 31
0.0
 12
717.4340992000001
 22
926.7809824
 32
0.0
 13
717.4340992000001
 23
926.7809824
 33
0.0
  0
SOLID
  5
48B
330
1F
100
AcDbEntity
  8
PDF _0
440
 33554559
100
AcDbTrace
 10
718.6213216000001
 20
926.7809824
 30
0.0
 11
717.4340992000001
 21
926.7809824
 31
0.0
 12
718.7532352
 22
926.7809824
 32
0.0
 13
718.7532352
 23
926.7809824
 33
0.0
  0
SOLID
  5
48C
330
1F
100
AcDbEntity
  8
PDF _0
440
 33554559
100
AcDbTrace
 10
717.4340992000001
 20
926.7809824
 30
0.0
 11
718.7532352
 21
926.7809824
 31
0.0
 12
717.3021856000001
 22
926.7809824
 32
0.0
 13
717.3021856000001
 23
926.7809824
 33
0.0
  0
SOLID
  5
48D
330
1F
100
AcDbEntity
  8
PDF _0
440
 33554559
100
AcDbTrace
 10
718.7532352
 20
926.7809824
 30
0.0
 11
717.3021856000001
 21
926.7809824
 31
0.0
 12
718.8851488000001
 22
926.6490688000001
 32
0.0
 13
718.8851488000001
 23
926.6490688000001
 33
0.0
  0
SOLID
  5
48E
330
1F
100
AcDbEntity
  8
PDF _0
440
 33554559
100
AcDbTrace
 10
717.3021856000001
 20
926.7809824
 30
0.0
 11
718.8851488000001
 21
926.6490688000001
 31
0.0
 12
717.3021856000001
 22
926.6490688000001
 32
0.0
 13
717.3021856000001
 23
926.6490688000001
 33
0.0
  0
SOLID
  5
48F
330
1F
100
AcDbEntity
  8
PDF _0
440
 33554559
100
AcDbTrace
 10
718.8851488000001
 20
926.6490688000001
 30
0.0
 11
717.3021856000001
 21
926.6490688000001
 31
0.0
 12
718.8851488000001
 22
926.5171551999999
 32
0.0
 13
718.8851488000001
 23
926.5171551999999
 33
0.0
  0
SOLID
  5
490
330
1F
100
AcDbEntity
  8
PDF _0
440
 33554559
100
AcDbTrace
 10
717.3021856000001
 20
926.6490688000001
 30
0.0
 11
718.8851488000001
 21
926.5171551999999
 31
0.0
 12
717.170272
 22
926.5171551999999
 32
0.0
 13
717.170272
 23
926.5171551999999
 33
0.0
  0
SOLID
  5
491
330
1F
100
AcDbEntity
  8
PDF _0
440
 33554559
100
AcDbTrace
 10
719.0170624000001
 20
926.5171551999999
 30
0.0
 11
719.0170624000001
 21
926.5171551999999
 31
0.0
 12
717.170272
 22
926.5171551999999
 32
0.0
 13
717.170272
 23
926.5171551999999
 33
0.0
  0
SOLID
  5
492
330
1F
100
AcDbEntity
  8
PDF _0
440
 33554559
100
AcDbTrace
 10
719.0170624000001
 20
926.5171551999999
 30
0.0
 11
717.170272
 21
926.5171551999999
 31
0.0
 12
718.8851488000001
 22
926.5171551999999
 32
0.0
 13
718.8851488000001
 23
926.5171551999999
 33
0.0
  0
SOLID
  5
493
330
1F
100
AcDbEntity
  8
PDF _0
440
 33554559
100
AcDbTrace
 10
719.0170624000001
 20
926.5171551999999
 30
0.0
 11
717.170272
 21
926.5171551999999
 31
0.0
 12
719.0170624000001
 22
926.3852416
 32
0.0
 13
719.0170624000001
 23
926.3852416
 33
0.0
  0
SOLID
  5
494
330
1F
100
AcDbEntity
  8
PDF _0
440
 33554559
100
AcDbTrace
 10
717.170272
 20
926.5171551999999
 30
0.0
 11
719.0170624000001
 21
926.3852416
 31
0.0
 12
717.0383584000001
 22
926.3852416
 32
0.0
 13
717.0383584000001
 23
926.3852416
 33
0.0
  0
SOLID
  5
495
330
1F
100
AcDbEntity
  8
PDF _0
440
 33554559
100
AcDbTrace
 10
719.0170624000001
 20
926.3852416
 30
0.0
 11
717.0383584000001
 21
926.3852416
 31
0.0
 12
719.0170624000001
 22
926.2533280000001
 32
0.0
 13
719.0170624000001
 23
926.2533280000001
 33
0.0
  0
SOLID
  5
496
330
1F
100
AcDbEntity
  8
PDF _0
440
 33554559
100
AcDbTrace
 10
717.0383584000001
 20
926.3852416
 30
0.0
 11
719.0170624000001
 21
926.2533280000001
 31
0.0
 12
717.0383584000001
 22
926.2533280000001
 32
0.0
 13
717.0383584000001
 23
926.2533280000001
 33
0.0
  0
SOLID
  5
497
330
1F
100
AcDbEntity
  8
PDF _0
440
 33554559
100
AcDbTrace
 10
719.0170624000001
 20
926.2533280000001
 30
0.0
 11
717.0383584000001
 21
926.2533280000001
 31
0.0
 12
719.148976
 22
926.2533280000001
 32
0.0
 13
719.148976
 23
926.2533280000001
 33
0.0
  0
SOLID
  5
498
330
1F
100
AcDbEntity
  8
PDF _0
440
 33554559
100
AcDbTrace
 10
717.0383584000001
 20
926.2533280000001
 30
0.0
 11
719.148976
 21
926.2533280000001
 31
0.0
 12
716.9064448000001
 22
926.2533280000001
 32
0.0
 13
716.9064448000001
 23
926.2533280000001
 33
0.0
  0
SOLID
  5
499
330
1F
100
AcDbEntity
  8
PDF _0
440
 33554559
100
AcDbTrace
 10
719.148976
 20
926.2533280000001
 30
0.0
 11
716.9064448000001
 21
926.2533280000001
 31
0.0
 12
719.148976
 22
926.1214144
 32
0.0
 13
719.148976
 23
926.1214144
 33
0.0
  0
SOLID
  5
49A
330
1F
100
AcDbEntity
  8
PDF _0
440
 33554559
100
AcDbTrace
 10
716.9064448000001
 20
926.2533280000001
 30
0.0
 11
719.148976
 21
926.1214144
 31
0.0
 12
716.9064448000001
 22
926.1214144
 32
0.0
 13
716.9064448000001
 23
926.1214144
 33
0.0
  0
SOLID
  5
49B
330
1F
100
AcDbEntity
  8
PDF _0
440
 33554559
100
AcDbTrace
 10
719.148976
 20
926.1214144
 30
0.0
 11
716.9064448000001
 21
926.1214144
 31
0.0
 12
719.148976
 22
925.9895008
 32
0.0
 13
719.148976
 23
925.9895008
 33
0.0
  0
SOLID
  5
49C
330
1F
100
AcDbEntity
  8
PDF _0
440
 33554559
100
AcDbTrace
 10
716.9064448000001
 20
926.1214144
 30
0.0
 11
719.148976
 21
925.9895008
 31
0.0
 12
716.9064448000001
 22
925.9895008
 32
0.0
 13
716.9064448000001
 23
925.9895008
 33
0.0
  0
SOLID
  5
49D
330
1F
100
AcDbEntity
  8
PDF _0
440
 33554559
100
AcDbTrace
 10
719.148976
 20
925.9895008
 30
0.0
 11
716.9064448000001
 21
925.9895008
 31
0.0
 12
719.148976
 22
925.8575872000001
 32
0.0
 13
719.148976
 23
925.8575872000001
 33
0.0
  0
SOLID
  5
49E
330
1F
100
AcDbEntity
  8
PDF _0
440
 33554559
100
AcDbTrace
 10
716.9064448000001
 20
925.9895008
 30
0.0
 11
719.148976
 21
925.8575872000001
 31
0.0
 12
716.9064448000001
 22
925.8575872000001
 32
0.0
 13
716.9064448000001
 23
925.8575872000001
 33
0.0
  0
SOLID
  5
49F
330
1F
100
AcDbEntity
  8
PDF _0
440
 33554559
100
AcDbTrace
 10
719.148976
 20
925.8575872000001
 30
0.0
 11
716.9064448000001
 21
925.8575872000001
 31
0.0
 12
719.148976
 22
925.7256736
 32
0.0
 13
719.148976
 23
925.7256736
 33
0.0
  0
SOLID
  5
4A0
330
1F
100
AcDbEntity
  8
PDF _0
440
 33554559
100
AcDbTrace
 10
716.9064448000001
 20
925.8575872000001
 30
0.0
 11
719.148976
 21
925.7256736
 31
0.0
 12
716.9064448000001
 22
925.7256736
 32
0.0
 13
716.9064448000001
 23
925.7256736
 33
0.0
  0
SOLID
  5
4A1
330
1F
100
AcDbEntity
  8
PDF _0
440
 33554559
100
AcDbTrace
 10
716.9064448000001
 20
925.7256736
 30
0.0
 11
719.148976
 21
925.7256736
 31
0.0
 12
719.148976
 22
925.7256736
 32
0.0
 13
719.148976
 23
925.7256736
 33
0.0
  0
LWPOLYLINE
  5
4A2
330
1F
100
AcDbEntity
  8
PDF _0
370
     0
100
AcDbPolyline
 90
        3
 70
     0
 43
0.0
 10
719.148976
 20
925.7256736
 10
716.9064448000001
 20
925.7256736
 10
719.148976
 20
925.7256736
  0
SOLID
  5
4A3
330
1F
100
AcDbEntity
  8
PDF _0
440
 33554559
100
AcDbTrace
 10
719.148976
 20
925.7256736
 30
0.0
 11
716.9064448000001
 21
925.7256736
 31
0.0
 12
719.148976
 22
925.5937600000001
 32
0.0
 13
719.148976
 23
925.5937600000001
 33
0.0
  0
SOLID
  5
4A4
330
1F
100
AcDbEntity
  8
PDF _0
440
 33554559
100
AcDbTrace
 10
716.9064448000001
 20
925.7256736
 30
0.0
 11
719.148976
 21
925.5937600000001
 31
0.0
 12
716.9064448000001
 22
925.5937600000001
 32
0.0
 13
716.9064448000001
 23
925.5937600000001
 33
0.0
  0
SOLID
  5
4A5
330
1F
100
AcDbEntity
  8
PDF _0
440
 33554559
100
AcDbTrace
 10
719.148976
 20
925.5937600000001
 30
0.0
 11
716.9064448000001
 21
925.5937600000001
 31
0.0
 12
719.0170624000001
 22
925.4618464000001
 32
0.0
 13
719.0170624000001
 23
925.4618464000001
 33
0.0
  0
SOLID
  5
4A6
330
1F
100
AcDbEntity
  8
PDF _0
440
 33554559
100
AcDbTrace
 10
716.9064448000001
 20
925.5937600000001
 30
0.0
 11
719.0170624000001
 21
925.4618464000001
 31
0.0
 12
717.0383584000001
 22
925.4618464000001
 32
0.0
 13
717.0383584000001
 23
925.4618464000001
 33
0.0
  0
SOLID
  5
4A7
330
1F
100
AcDbEntity
  8
PDF _0
440
 33554559
100
AcDbTrace
 10
719.0170624000001
 20
925.4618464000001
 30
0.0
 11
717.0383584000001
 21
925.4618464000001
 31
0.0
 12
719.0170624000001
 22
925.3299328
 32
0.0
 13
719.0170624000001
 23
925.3299328
 33
0.0
  0
SOLID
  5
4A8
330
1F
100
AcDbEntity
  8
PDF _0
440
 33554559
100
AcDbTrace
 10
717.0383584000001
 20
925.4618464000001
 30
0.0
 11
719.0170624000001
 21
925.3299328
 31
0.0
 12
717.0383584000001
 22
925.3299328
 32
0.0
 13
717.0383584000001
 23
925.3299328
 33
0.0
  0
SOLID
  5
4A9
330
1F
100
AcDbEntity
  8
PDF _0
440
 33554559
100
AcDbTrace
 10
719.0170624000001
 20
925.3299328
 30
0.0
 11
717.0383584000001
 21
925.3299328
 31
0.0
 12
717.170272
 22
925.3299328
 32
0.0
 13
717.170272
 23
925.3299328
 33
0.0
  0
SOLID
  5
4AA
330
1F
100
AcDbEntity
  8
PDF _0
440
 33554559
100
AcDbTrace
 10
717.0383584000001
 20
925.3299328
 30
0.0
 11
719.0170624000001
 21
925.3299328
 31
0.0
 12
719.0170624000001
 22
925.3299328
 32
0.0
 13
719.0170624000001
 23
925.3299328
 33
0.0
  0
SOLID
  5
4AB
330
1F
100
AcDbEntity
  8
PDF _0
440
 33554559
100
AcDbTrace
 10
719.0170624000001
 20
925.3299328
 30
0.0
 11
717.170272
 21
925.3299328
 31
0.0
 12
718.8851488000001
 22
925.1980192000001
 32
0.0
 13
718.8851488000001
 23
925.1980192000001
 33
0.0
  0
SOLID
  5
4AC
330
1F
100
AcDbEntity
  8
PDF _0
440
 33554559
100
AcDbTrace
 10
717.170272
 20
925.3299328
 30
0.0
 11
718.8851488000001
 21
925.1980192000001
 31
0.0
 12
717.170272
 22
925.1980192000001
 32
0.0
 13
717.170272
 23
925.1980192000001
 33
0.0
  0
SOLID
  5
4AD
330
1F
100
AcDbEntity
  8
PDF _0
440
 33554559
100
AcDbTrace
 10
718.8851488000001
 20
925.1980192000001
 30
0.0
 11
717.170272
 21
925.1980192000001
 31
0.0
 12
718.8851488000001
 22
925.0661056000001
 32
0.0
 13
718.8851488000001
 23
925.0661056000001
 33
0.0
  0
SOLID
  5
4AE
330
1F
100
AcDbEntity
  8
PDF _0
440
 33554559
100
AcDbTrace
 10
717.170272
 20
925.1980192000001
 30
0.0
 11
718.8851488000001
 21
925.0661056000001
 31
0.0
 12
717.3021856000001
 22
925.0661056000001
 32
0.0
 13
717.3021856000001
 23
925.0661056000001
 33
0.0
  0
SOLID
  5
4AF
330
1F
100
AcDbEntity
  8
PDF _0
440
 33554559
100
AcDbTrace
 10
718.7532352
 20
925.0661056000001
 30
0.0
 11
718.7532352
 21
925.0661056000001
 31
0.0
 12
717.3021856000001
 22
925.0661056000001
 32
0.0
 13
717.3021856000001
 23
925.0661056000001
 33
0.0
  0
SOLID
  5
4B0
330
1F
100
AcDbEntity
  8
PDF _0
440
 33554559
100
AcDbTrace
 10
718.7532352
 20
925.0661056000001
 30
0.0
 11
717.3021856000001
 21
925.0661056000001
 31
0.0
 12
718.8851488000001
 22
925.0661056000001
 32
0.0
 13
718.8851488000001
 23
925.0661056000001
 33
0.0
  0
SOLID
  5
4B1
330
1F
100
AcDbEntity
  8
PDF _0
440
 33554559
100
AcDbTrace
 10
718.7532352
 20
925.0661056000001
 30
0.0
 11
717.3021856000001
 21
925.0661056000001
 31
0.0
 12
718.6213216000001
 22
924.934192
 32
0.0
 13
718.6213216000001
 23
924.934192
 33
0.0
  0
SOLID
  5
4B2
330
1F
100
AcDbEntity
  8
PDF _0
440
 33554559
100
AcDbTrace
 10
717.3021856000001
 20
925.0661056000001
 30
0.0
 11
718.6213216000001
 21
924.934192
 31
0.0
 12
717.4340992000001
 22
924.934192
 32
0.0
 13
717.4340992000001
 23
924.934192
 33
0.0
  0
SOLID
  5
4B3
330
1F
100
AcDbEntity
  8
PDF _0
440
 33554559
100
AcDbTrace
 10
717.4340992000001
 20
924.934192
 30
0.0
 11
718.6213216000001
 21
924.934192
 31
0.0
 12
718.6213216000001
 22
924.934192
 32
0.0
 13
718.6213216000001
 23
924.934192
 33
0.0
  0
LWPOLYLINE
  5
4B4
330
1F
100
AcDbEntity
  8
PDF _0
370
     0
100
AcDbPolyline
 90
        3
 70
     0
 43
0.0
 10
718.6213216000001
 20
924.934192
 10
717.4340992000001
 20
924.934192
 10
718.6213216000001
 20
924.934192
  0
SOLID
  5
4B5
330
1F
100
AcDbEntity
  8
PDF _0
440
 33554559
100
AcDbTrace
 10
718.6213216000001
 20
924.934192
 30
0.0
 11
717.4340992000001
 21
924.934192
 31
0.0
 12
718.4894080000001
 22
924.934192
 32
0.0
 13
718.4894080000001
 23
924.934192
 33
0.0
  0
SOLID
  5
4B6
330
1F
100
AcDbEntity
  8
PDF _0
440
 33554559
100
AcDbTrace
 10
717.4340992000001
 20
924.934192
 30
0.0
 11
718.4894080000001
 21
924.934192
 31
0.0
 12
717.5660128
 22
924.934192
 32
0.0
 13
717.5660128
 23
924.934192
 33
0.0
  0
SOLID
  5
4B7
330
1F
100
AcDbEntity
  8
PDF _0
440
 33554559
100
AcDbTrace
 10
718.4894080000001
 20
924.934192
 30
0.0
 11
717.5660128
 21
924.934192
 31
0.0
 12
718.3574944
 22
924.8022784000001
 32
0.0
 13
718.3574944
 23
924.8022784000001
 33
0.0
  0
SOLID
  5
4B8
330
1F
100
AcDbEntity
  8
PDF _0
440
 33554559
100
AcDbTrace
 10
717.5660128
 20
924.934192
 30
0.0
 11
718.3574944
 21
924.8022784000001
 31
0.0
 12
717.6979264000001
 22
924.8022784000001
 32
0.0
 13
717.6979264000001
 23
924.8022784000001
 33
0.0
  0
SOLID
  5
4B9
330
1F
100
AcDbEntity
  8
PDF _0
440
 33554559
100
AcDbTrace
 10
718.3574944
 20
924.8022784000001
 30
0.0
 11
717.6979264000001
 21
924.8022784000001
 31
0.0
 12
718.2255808
 22
924.8022784000001
 32
0.0
 13
718.2255808
 23
924.8022784000001
 33
0.0
  0
SOLID
  5
4BA
330
1F
100
AcDbEntity
  8
PDF _0
440
 33554559
100
AcDbTrace
 10
717.6979264000001
 20
924.8022784000001
 30
0.0
 11
718.2255808
 21
924.8022784000001
 31
0.0
 12
717.82984
 22
924.8022784000001
 32
0.0
 13
717.82984
 23
924.8022784000001
 33
0.0
  0
SOLID
  5
4BB
330
1F
100
AcDbEntity
  8
PDF _0
440
 33554559
100
AcDbTrace
 10
717.82984
 20
924.8022784000001
 30
0.0
 11
718.0936672000001
 21
924.8022784000001
 31
0.0
 12
718.0936672000001
 22
924.8022784000001
 32
0.0
 13
718.0936672000001
 23
924.8022784000001
 33
0.0
  0
SOLID
  5
4BC
330
1F
100
AcDbEntity
  8
PDF _0
440
 33554559
100
AcDbTrace
 10
718.0936672000001
 20
924.8022784000001
 30
0.0
 11
718.0936672000001
 21
924.8022784000001
 31
0.0
 12
717.82984
 22
924.8022784000001
 32
0.0
 13
717.82984
 23
924.8022784000001
 33
0.0
  0
SOLID
  5
4BD
330
1F
100
AcDbEntity
  8
PDF _0
440
 33554559
100
AcDbTrace
 10
718.0936672000001
 20
924.8022784000001
 30
0.0
 11
717.82984
 21
924.8022784000001
 31
0.0
 12
718.2255808
 22
924.8022784000001
 32
0.0
 13
718.2255808
 23
924.8022784000001
 33
0.0
  0
LWPOLYLINE
  5
4BF
330
1F
100
AcDbEntity
  8
PDF _0
370
    25
100
AcDbPolyline
 90
        4
 70
     0
 43
0.0
 10
1163.5658944
 20
924.8022784000001
 10
719.148976
 20
924.8022784000001
 10
719.148976
 20
914.9087584000001
 10
1163.5658944
 20
914.9087584000001
  0
LWPOLYLINE
  5
4C0
330
1F
100
AcDbEntity
  8
PDF _0
370
    25
100
AcDbPolyline
 90
        4
 70
     1
 43
0.0
 10
1100.2473664
 20
906.5982016000001
 10
1086.9240928
 20
906.5982016000001
 10
1086.9240928
 20
914.9087584000001
 10
1100.2473664
 20
914.9087584000001
  0
LWPOLYLINE
  5
4C1
330
1F
100
AcDbEntity
  8
PDF _0
370
    25
100
AcDbPolyline
 90
        3
 70
     0
 43
0.0
 10
667.3069312000001
 20
815.0501632
 10
668.3622400000001
 20
815.0501632
 10
667.3069312000001
 20
815.0501632
  0
LWPOLYLINE
  5
4C2
330
1F
100
AcDbEntity
  8
PDF _0
370
    25
100
AcDbPolyline
 90
        3
 70
     0
 43
0.0
 10
718.0936672000001
 20
845.3902912
 10
718.6213216000001
 20
844.8626368000001
 10
719.148976
 20
845.3902912
  0
SOLID
  5
4C3
330
1F
100
AcDbEntity
  8
PDF _0
440
 33554559
100
AcDbTrace
 10
718.6213216000001
 20
845.9179456000001
 30
0.0
 11
718.7532352
 21
845.9179456000001
 31
0.0
 12
718.4894080000001
 22
845.9179456000001
 32
0.0
 13
718.4894080000001
 23
845.9179456000001
 33
0.0
  0
SOLID
  5
4C4
330
1F
100
AcDbEntity
  8
PDF _0
440
 33554559
100
AcDbTrace
 10
718.7532352
 20
845.9179456000001
 30
0.0
 11
718.4894080000001
 21
845.9179456000001
 31
0.0
 12
718.8851488000001
 22
845.9179456000001
 32
0.0
 13
718.8851488000001
 23
845.9179456000001
 33
0.0
  0
SOLID
  5
4C5
330
1F
100
AcDbEntity
  8
PDF _0
440
 33554559
100
AcDbTrace
 10
718.4894080000001
 20
845.9179456000001
 30
0.0
 11
718.8851488000001
 21
845.9179456000001
 31
0.0
 12
718.3574944
 22
845.9179456000001
 32
0.0
 13
718.3574944
 23
845.9179456000001
 33
0.0
  0
SOLID
  5
4C6
330
1F
100
AcDbEntity
  8
PDF _0
440
 33554559
100
AcDbTrace
 10
718.8851488000001
 20
845.9179456000001
 30
0.0
 11
718.3574944
 21
845.9179456000001
 31
0.0
 12
718.2255808
 22
845.9179456000001
 32
0.0
 13
718.2255808
 23
845.9179456000001
 33
0.0
  0
SOLID
  5
4C7
330
1F
100
AcDbEntity
  8
PDF _0
440
 33554559
100
AcDbTrace
 10
718.3574944
 20
845.9179456000001
 30
0.0
 11
718.8851488000001
 21
845.9179456000001
 31
0.0
 12
718.8851488000001
 22
845.9179456000001
 32
0.0
 13
718.8851488000001
 23
845.9179456000001
 33
0.0
  0
SOLID
  5
4C8
330
1F
100
AcDbEntity
  8
PDF _0
440
 33554559
100
AcDbTrace
 10
718.8851488000001
 20
845.9179456000001
 30
0.0
 11
718.2255808
 21
845.9179456000001
 31
0.0
 12
719.0170624000001
 22
845.7860320000001
 32
0.0
 13
719.0170624000001
 23
845.7860320000001
 33
0.0
  0
SOLID
  5
4C9
330
1F
100
AcDbEntity
  8
PDF _0
440
 33554559
100
AcDbTrace
 10
718.2255808
 20
845.9179456000001
 30
0.0
 11
719.0170624000001
 21
845.7860320000001
 31
0.0
 12
718.0936672000001
 22
845.7860320000001
 32
0.0
 13
718.0936672000001
 23
845.7860320000001
 33
0.0
  0
SOLID
  5
4CA
330
1F
100
AcDbEntity
  8
PDF _0
440
 33554559
100
AcDbTrace
 10
719.148976
 20
845.7860320000001
 30
0.0
 11
719.148976
 21
845.7860320000001
 31
0.0
 12
718.0936672000001
 22
845.7860320000001
 32
0.0
 13
718.0936672000001
 23
845.7860320000001
 33
0.0
  0
SOLID
  5
4CB
330
1F
100
AcDbEntity
  8
PDF _0
440
 33554559
100
AcDbTrace
 10
719.148976
 20
845.7860320000001
 30
0.0
 11
718.0936672000001
 21
845.7860320000001
 31
0.0
 12
719.0170624000001
 22
845.7860320000001
 32
0.0
 13
719.0170624000001
 23
845.7860320000001
 33
0.0
  0
SOLID
  5
4CC
330
1F
100
AcDbEntity
  8
PDF _0
440
 33554559
100
AcDbTrace
 10
719.148976
 20
845.7860320000001
 30
0.0
 11
718.0936672000001
 21
845.7860320000001
 31
0.0
 12
719.2808896000001
 22
845.7860320000001
 32
0.0
 13
719.2808896000001
 23
845.7860320000001
 33
0.0
  0
SOLID
  5
4CD
330
1F
100
AcDbEntity
  8
PDF _0
440
 33554559
100
AcDbTrace
 10
718.0936672000001
 20
845.7860320000001
 30
0.0
 11
719.2808896000001
 21
845.7860320000001
 31
0.0
 12
717.9617536000001
 22
845.7860320000001
 32
0.0
 13
717.9617536000001
 23
845.7860320000001
 33
0.0
  0
SOLID
  5
4CE
330
1F
100
AcDbEntity
  8
PDF _0
440
 33554559
100
AcDbTrace
 10
719.2808896000001
 20
845.7860320000001
 30
0.0
 11
717.9617536000001
 21
845.7860320000001
 31
0.0
 12
719.2808896000001
 22
845.6541184
 32
0.0
 13
719.2808896000001
 23
845.6541184
 33
0.0
  0
SOLID
  5
4CF
330
1F
100
AcDbEntity
  8
PDF _0
440
 33554559
100
AcDbTrace
 10
717.9617536000001
 20
845.7860320000001
 30
0.0
 11
719.2808896000001
 21
845.6541184
 31
0.0
 12
717.82984
 22
845.6541184
 32
0.0
 13
717.82984
 23
845.6541184
 33
0.0
  0
SOLID
  5
4D0
330
1F
100
AcDbEntity
  8
PDF _0
440
 33554559
100
AcDbTrace
 10
719.2808896000001
 20
845.6541184
 30
0.0
 11
717.82984
 21
845.6541184
 31
0.0
 12
719.4128032
 22
845.5222048000001
 32
0.0
 13
719.4128032
 23
845.5222048000001
 33
0.0
  0
SOLID
  5
4D1
330
1F
100
AcDbEntity
  8
PDF _0
440
 33554559
100
AcDbTrace
 10
717.82984
 20
845.6541184
 30
0.0
 11
719.4128032
 21
845.5222048000001
 31
0.0
 12
717.82984
 22
845.5222048000001
 32
0.0
 13
717.82984
 23
845.5222048000001
 33
0.0
  0
SOLID
  5
4D2
330
1F
100
AcDbEntity
  8
PDF _0
440
 33554559
100
AcDbTrace
 10
719.4128032
 20
845.5222048000001
 30
0.0
 11
717.82984
 21
845.5222048000001
 31
0.0
 12
717.6979264000001
 22
845.5222048000001
 32
0.0
 13
717.6979264000001
 23
845.5222048000001
 33
0.0
  0
SOLID
  5
4D3
330
1F
100
AcDbEntity
  8
PDF _0
440
 33554559
100
AcDbTrace
 10
717.82984
 20
845.5222048000001
 30
0.0
 11
719.4128032
 21
845.5222048000001
 31
0.0
 12
719.4128032
 22
845.5222048000001
 32
0.0
 13
719.4128032
 23
845.5222048000001
 33
0.0
  0
SOLID
  5
4D4
330
1F
100
AcDbEntity
  8
PDF _0
440
 33554559
100
AcDbTrace
 10
719.4128032
 20
845.5222048000001
 30
0.0
 11
717.6979264000001
 21
845.5222048000001
 31
0.0
 12
719.5447168000001
 22
845.3902912
 32
0.0
 13
719.5447168000001
 23
845.3902912
 33
0.0
  0
SOLID
  5
4D5
330
1F
100
AcDbEntity
  8
PDF _0
440
 33554559
100
AcDbTrace
 10
717.6979264000001
 20
845.5222048000001
 30
0.0
 11
719.5447168000001
 21
845.3902912
 31
0.0
 12
717.6979264000001
 22
845.3902912
 32
0.0
 13
717.6979264000001
 23
845.3902912
 33
0.0
  0
SOLID
  5
4D6
330
1F
100
AcDbEntity
  8
PDF _0
440
 33554559
100
AcDbTrace
 10
719.5447168000001
 20
845.3902912
 30
0.0
 11
717.6979264000001
 21
845.3902912
 31
0.0
 12
717.5660128
 22
845.3902912
 32
0.0
 13
717.5660128
 23
845.3902912
 33
0.0
  0
SOLID
  5
4D7
330
1F
100
AcDbEntity
  8
PDF _0
440
 33554559
100
AcDbTrace
 10
717.6979264000001
 20
845.3902912
 30
0.0
 11
719.5447168000001
 21
845.3902912
 31
0.0
 12
719.5447168000001
 22
845.3902912
 32
0.0
 13
719.5447168000001
 23
845.3902912
 33
0.0
  0
SOLID
  5
4D8
330
1F
100
AcDbEntity
  8
PDF _0
440
 33554559
100
AcDbTrace
 10
719.5447168000001
 20
845.3902912
 30
0.0
 11
717.5660128
 21
845.3902912
 31
0.0
 12
719.5447168000001
 22
845.2583776
 32
0.0
 13
719.5447168000001
 23
845.2583776
 33
0.0
  0
SOLID
  5
4D9
330
1F
100
AcDbEntity
  8
PDF _0
440
 33554559
100
AcDbTrace
 10
717.5660128
 20
845.3902912
 30
0.0
 11
719.5447168000001
 21
845.2583776
 31
0.0
 12
717.5660128
 22
845.2583776
 32
0.0
 13
717.5660128
 23
845.2583776
 33
0.0
  0
SOLID
  5
4DA
330
1F
100
AcDbEntity
  8
PDF _0
440
 33554559
100
AcDbTrace
 10
719.5447168000001
 20
845.2583776
 30
0.0
 11
717.5660128
 21
845.2583776
 31
0.0
 12
719.6766304000001
 22
845.1264640000001
 32
0.0
 13
719.6766304000001
 23
845.1264640000001
 33
0.0
  0
SOLID
  5
4DB
330
1F
100
AcDbEntity
  8
PDF _0
440
 33554559
100
AcDbTrace
 10
717.5660128
 20
845.2583776
 30
0.0
 11
719.6766304000001
 21
845.1264640000001
 31
0.0
 12
717.5660128
 22
845.1264640000001
 32
0.0
 13
717.5660128
 23
845.1264640000001
 33
0.0
  0
SOLID
  5
4DC
330
1F
100
AcDbEntity
  8
PDF _0
440
 33554559
100
AcDbTrace
 10
719.6766304000001
 20
845.1264640000001
 30
0.0
 11
717.5660128
 21
845.1264640000001
 31
0.0
 12
719.6766304000001
 22
844.9945504
 32
0.0
 13
719.6766304000001
 23
844.9945504
 33
0.0
  0
SOLID
  5
4DD
330
1F
100
AcDbEntity
  8
PDF _0
440
 33554559
100
AcDbTrace
 10
717.5660128
 20
845.1264640000001
 30
0.0
 11
719.6766304000001
 21
844.9945504
 31
0.0
 12
717.5660128
 22
844.9945504
 32
0.0
 13
717.5660128
 23
844.9945504
 33
0.0
  0
SOLID
  5
4DE
330
1F
100
AcDbEntity
  8
PDF _0
440
 33554559
100
AcDbTrace
 10
719.6766304000001
 20
844.9945504
 30
0.0
 11
717.5660128
 21
844.9945504
 31
0.0
 12
717.4340992000001
 22
844.9945504
 32
0.0
 13
717.4340992000001
 23
844.9945504
 33
0.0
  0
SOLID
  5
4DF
330
1F
100
AcDbEntity
  8
PDF _0
440
 33554559
100
AcDbTrace
 10
717.5660128
 20
844.9945504
 30
0.0
 11
719.6766304000001
 21
844.9945504
 31
0.0
 12
719.6766304000001
 22
844.9945504
 32
0.0
 13
719.6766304000001
 23
844.9945504
 33
0.0
  0
SOLID
  5
4E0
330
1F
100
AcDbEntity
  8
PDF _0
440
 33554559
100
AcDbTrace
 10
719.6766304000001
 20
844.9945504
 30
0.0
 11
717.4340992000001
 21
844.9945504
 31
0.0
 12
719.6766304000001
 22
844.8626368000001
 32
0.0
 13
719.6766304000001
 23
844.8626368000001
 33
0.0
  0
SOLID
  5
4E1
330
1F
100
AcDbEntity
  8
PDF _0
440
 33554559
100
AcDbTrace
 10
717.4340992000001
 20
844.9945504
 30
0.0
 11
719.6766304000001
 21
844.8626368000001
 31
0.0
 12
717.4340992000001
 22
844.8626368000001
 32
0.0
 13
717.4340992000001
 23
844.8626368000001
 33
0.0
  0
SOLID
  5
4E2
330
1F
100
AcDbEntity
  8
PDF _0
440
 33554559
100
AcDbTrace
 10
719.6766304000001
 20
844.8626368000001
 30
0.0
 11
717.4340992000001
 21
844.8626368000001
 31
0.0
 12
719.6766304000001
 22
844.7307231999999
 32
0.0
 13
719.6766304000001
 23
844.7307231999999
 33
0.0
  0
SOLID
  5
4E3
330
1F
100
AcDbEntity
  8
PDF _0
440
 33554559
100
AcDbTrace
 10
717.4340992000001
 20
844.8626368000001
 30
0.0
 11
719.6766304000001
 21
844.7307231999999
 31
0.0
 12
717.4340992000001
 22
844.7307231999999
 32
0.0
 13
717.4340992000001
 23
844.7307231999999
 33
0.0
  0
SOLID
  5
4E4
330
1F
100
AcDbEntity
  8
PDF _0
440
 33554559
100
AcDbTrace
 10
719.6766304000001
 20
844.7307231999999
 30
0.0
 11
717.4340992000001
 21
844.7307231999999
 31
0.0
 12
719.6766304000001
 22
844.5988096
 32
0.0
 13
719.6766304000001
 23
844.5988096
 33
0.0
  0
SOLID
  5
4E5
330
1F
100
AcDbEntity
  8
PDF _0
440
 33554559
100
AcDbTrace
 10
717.4340992000001
 20
844.7307231999999
 30
0.0
 11
719.6766304000001
 21
844.5988096
 31
0.0
 12
717.5660128
 22
844.5988096
 32
0.0
 13
717.5660128
 23
844.5988096
 33
0.0
  0
SOLID
  5
4E6
330
1F
100
AcDbEntity
  8
PDF _0
440
 33554559
100
AcDbTrace
 10
719.6766304000001
 20
844.5988096
 30
0.0
 11
717.5660128
 21
844.5988096
 31
0.0
 12
719.6766304000001
 22
844.4668960000001
 32
0.0
 13
719.6766304000001
 23
844.4668960000001
 33
0.0
  0
SOLID
  5
4E7
330
1F
100
AcDbEntity
  8
PDF _0
440
 33554559
100
AcDbTrace
 10
717.5660128
 20
844.5988096
 30
0.0
 11
719.6766304000001
 21
844.4668960000001
 31
0.0
 12
717.5660128
 22
844.4668960000001
 32
0.0
 13
717.5660128
 23
844.4668960000001
 33
0.0
  0
SOLID
  5
4E8
330
1F
100
AcDbEntity
  8
PDF _0
440
 33554559
100
AcDbTrace
 10
719.5447168000001
 20
844.4668960000001
 30
0.0
 11
719.5447168000001
 21
844.4668960000001
 31
0.0
 12
717.5660128
 22
844.4668960000001
 32
0.0
 13
717.5660128
 23
844.4668960000001
 33
0.0
  0
SOLID
  5
4E9
330
1F
100
AcDbEntity
  8
PDF _0
440
 33554559
100
AcDbTrace
 10
719.5447168000001
 20
844.4668960000001
 30
0.0
 11
717.5660128
 21
844.4668960000001
 31
0.0
 12
719.6766304000001
 22
844.4668960000001
 32
0.0
 13
719.6766304000001
 23
844.4668960000001
 33
0.0
  0
SOLID
  5
4EA
330
1F
100
AcDbEntity
  8
PDF _0
440
 33554559
100
AcDbTrace
 10
719.5447168000001
 20
844.4668960000001
 30
0.0
 11
717.5660128
 21
844.4668960000001
 31
0.0
 12
719.5447168000001
 22
844.3349824
 32
0.0
 13
719.5447168000001
 23
844.3349824
 33
0.0
  0
SOLID
  5
4EB
330
1F
100
AcDbEntity
  8
PDF _0
440
 33554559
100
AcDbTrace
 10
717.5660128
 20
844.4668960000001
 30
0.0
 11
719.5447168000001
 21
844.3349824
 31
0.0
 12
717.5660128
 22
844.3349824
 32
0.0
 13
717.5660128
 23
844.3349824
 33
0.0
  0
SOLID
  5
4EC
330
1F
100
AcDbEntity
  8
PDF _0
440
 33554559
100
AcDbTrace
 10
719.5447168000001
 20
844.3349824
 30
0.0
 11
717.5660128
 21
844.3349824
 31
0.0
 12
719.5447168000001
 22
844.2030688
 32
0.0
 13
719.5447168000001
 23
844.2030688
 33
0.0
  0
SOLID
  5
4ED
330
1F
100
AcDbEntity
  8
PDF _0
440
 33554559
100
AcDbTrace
 10
717.5660128
 20
844.3349824
 30
0.0
 11
719.5447168000001
 21
844.2030688
 31
0.0
 12
717.6979264000001
 22
844.2030688
 32
0.0
 13
717.6979264000001
 23
844.2030688
 33
0.0
  0
SOLID
  5
4EE
330
1F
100
AcDbEntity
  8
PDF _0
440
 33554559
100
AcDbTrace
 10
719.4128032
 20
844.2030688
 30
0.0
 11
719.4128032
 21
844.2030688
 31
0.0
 12
717.6979264000001
 22
844.2030688
 32
0.0
 13
717.6979264000001
 23
844.2030688
 33
0.0
  0
SOLID
  5
4EF
330
1F
100
AcDbEntity
  8
PDF _0
440
 33554559
100
AcDbTrace
 10
719.4128032
 20
844.2030688
 30
0.0
 11
717.6979264000001
 21
844.2030688
 31
0.0
 12
719.5447168000001
 22
844.2030688
 32
0.0
 13
719.5447168000001
 23
844.2030688
 33
0.0
  0
SOLID
  5
4F0
330
1F
100
AcDbEntity
  8
PDF _0
440
 33554559
100
AcDbTrace
 10
719.4128032
 20
844.2030688
 30
0.0
 11
717.6979264000001
 21
844.2030688
 31
0.0
 12
719.4128032
 22
844.0711552000001
 32
0.0
 13
719.4128032
 23
844.0711552000001
 33
0.0
  0
SOLID
  5
4F1
330
1F
100
AcDbEntity
  8
PDF _0
440
 33554559
100
AcDbTrace
 10
717.6979264000001
 20
844.2030688
 30
0.0
 11
719.4128032
 21
844.0711552000001
 31
0.0
 12
717.82984
 22
844.0711552000001
 32
0.0
 13
717.82984
 23
844.0711552000001
 33
0.0
  0
SOLID
  5
4F2
330
1F
100
AcDbEntity
  8
PDF _0
440
 33554559
100
AcDbTrace
 10
719.4128032
 20
844.0711552000001
 30
0.0
 11
717.82984
 21
844.0711552000001
 31
0.0
 12
719.2808896000001
 22
843.9392416
 32
0.0
 13
719.2808896000001
 23
843.9392416
 33
0.0
  0
SOLID
  5
4F3
330
1F
100
AcDbEntity
  8
PDF _0
440
 33554559
100
AcDbTrace
 10
717.82984
 20
844.0711552000001
 30
0.0
 11
719.2808896000001
 21
843.9392416
 31
0.0
 12
717.82984
 22
843.9392416
 32
0.0
 13
717.82984
 23
843.9392416
 33
0.0
  0
SOLID
  5
4F4
330
1F
100
AcDbEntity
  8
PDF _0
440
 33554559
100
AcDbTrace
 10
719.2808896000001
 20
843.9392416
 30
0.0
 11
717.82984
 21
843.9392416
 31
0.0
 12
717.9617536000001
 22
843.9392416
 32
0.0
 13
717.9617536000001
 23
843.9392416
 33
0.0
  0
SOLID
  5
4F5
330
1F
100
AcDbEntity
  8
PDF _0
440
 33554559
100
AcDbTrace
 10
717.82984
 20
843.9392416
 30
0.0
 11
719.2808896000001
 21
843.9392416
 31
0.0
 12
719.2808896000001
 22
843.9392416
 32
0.0
 13
719.2808896000001
 23
843.9392416
 33
0.0
  0
SOLID
  5
4F6
330
1F
100
AcDbEntity
  8
PDF _0
440
 33554559
100
AcDbTrace
 10
719.2808896000001
 20
843.9392416
 30
0.0
 11
717.9617536000001
 21
843.9392416
 31
0.0
 12
719.148976
 22
843.8073280000001
 32
0.0
 13
719.148976
 23
843.8073280000001
 33
0.0
  0
SOLID
  5
4F7
330
1F
100
AcDbEntity
  8
PDF _0
440
 33554559
100
AcDbTrace
 10
717.9617536000001
 20
843.9392416
 30
0.0
 11
719.148976
 21
843.8073280000001
 31
0.0
 12
718.0936672000001
 22
843.8073280000001
 32
0.0
 13
718.0936672000001
 23
843.8073280000001
 33
0.0
  0
SOLID
  5
4F8
330
1F
100
AcDbEntity
  8
PDF _0
440
 33554559
100
AcDbTrace
 10
719.0170624000001
 20
843.8073280000001
 30
0.0
 11
719.0170624000001
 21
843.8073280000001
 31
0.0
 12
718.0936672000001
 22
843.8073280000001
 32
0.0
 13
718.0936672000001
 23
843.8073280000001
 33
0.0
  0
SOLID
  5
4F9
330
1F
100
AcDbEntity
  8
PDF _0
440
 33554559
100
AcDbTrace
 10
719.0170624000001
 20
843.8073280000001
 30
0.0
 11
718.0936672000001
 21
843.8073280000001
 31
0.0
 12
719.148976
 22
843.8073280000001
 32
0.0
 13
719.148976
 23
843.8073280000001
 33
0.0
  0
SOLID
  5
4FA
330
1F
100
AcDbEntity
  8
PDF _0
440
 33554559
100
AcDbTrace
 10
719.0170624000001
 20
843.8073280000001
 30
0.0
 11
718.0936672000001
 21
843.8073280000001
 31
0.0
 12
718.8851488000001
 22
843.8073280000001
 32
0.0
 13
718.8851488000001
 23
843.8073280000001
 33
0.0
  0
SOLID
  5
4FB
330
1F
100
AcDbEntity
  8
PDF _0
440
 33554559
100
AcDbTrace
 10
718.0936672000001
 20
843.8073280000001
 30
0.0
 11
718.8851488000001
 21
843.8073280000001
 31
0.0
 12
718.2255808
 22
843.8073280000001
 32
0.0
 13
718.2255808
 23
843.8073280000001
 33
0.0
  0
SOLID
  5
4FC
330
1F
100
AcDbEntity
  8
PDF _0
440
 33554559
100
AcDbTrace
 10
718.8851488000001
 20
843.8073280000001
 30
0.0
 11
718.2255808
 21
843.8073280000001
 31
0.0
 12
718.3574944
 22
843.8073280000001
 32
0.0
 13
718.3574944
 23
843.8073280000001
 33
0.0
  0
SOLID
  5
4FD
330
1F
100
AcDbEntity
  8
PDF _0
440
 33554559
100
AcDbTrace
 10
718.2255808
 20
843.8073280000001
 30
0.0
 11
718.8851488000001
 21
843.8073280000001
 31
0.0
 12
718.8851488000001
 22
843.8073280000001
 32
0.0
 13
718.8851488000001
 23
843.8073280000001
 33
0.0
  0
SOLID
  5
4FE
330
1F
100
AcDbEntity
  8
PDF _0
440
 33554559
100
AcDbTrace
 10
718.3574944
 20
843.8073280000001
 30
0.0
 11
718.4894080000001
 21
843.6754144000001
 31
0.0
 12
718.7532352
 22
843.6754144000001
 32
0.0
 13
718.7532352
 23
843.6754144000001
 33
0.0
  0
SOLID
  5
4FF
330
1F
100
AcDbEntity
  8
PDF _0
440
 33554559
100
AcDbTrace
 10
718.4894080000001
 20
843.6754144000001
 30
0.0
 11
718.7532352
 21
843.6754144000001
 31
0.0
 12
718.6213216000001
 22
843.6754144000001
 32
0.0
 13
718.6213216000001
 23
843.6754144000001
 33
0.0
  0
SOLID
  5
500
330
1F
100
AcDbEntity
  8
PDF _0
440
 33554559
100
AcDbTrace
 10
718.3574944
 20
843.8073280000001
 30
0.0
 11
718.8851488000001
 21
843.8073280000001
 31
0.0
 12
718.7532352
 22
843.6754144000001
 32
0.0
 13
718.7532352
 23
843.6754144000001
 33
0.0
  0
LWPOLYLINE
  5
502
330
1F
100
AcDbEntity
  8
PDF _0
370
    25
100
AcDbPolyline
 90
        2
 70
     0
 43
0.0
 10
717.4340992000001
 20
845.3902912
 10
717.4340992000001
 20
855.8114656
  0
LWPOLYLINE
  5
503
330
1F
100
AcDbEntity
  8
PDF _0
370
    25
100
AcDbPolyline
 90
        3
 70
     0
 43
0.0
 10
719.148976
 20
855.8114656
 10
718.6213216000001
 20
856.4710336
 10
718.0936672000001
 20
855.8114656
  0
SOLID
  5
504
330
1F
100
AcDbEntity
  8
PDF _0
440
 33554559
100
AcDbTrace
 10
718.6213216000001
 20
857.5263424
 30
0.0
 11
718.7532352
 21
857.5263424
 31
0.0
 12
718.4894080000001
 22
857.5263424
 32
0.0
 13
718.4894080000001
 23
857.5263424
 33
0.0
  0
SOLID
  5
505
330
1F
100
AcDbEntity
  8
PDF _0
440
 33554559
100
AcDbTrace
 10
718.7532352
 20
857.5263424
 30
0.0
 11
718.4894080000001
 21
857.5263424
 31
0.0
 12
718.8851488000001
 22
857.5263424
 32
0.0
 13
718.8851488000001
 23
857.5263424
 33
0.0
  0
SOLID
  5
506
330
1F
100
AcDbEntity
  8
PDF _0
440
 33554559
100
AcDbTrace
 10
718.4894080000001
 20
857.5263424
 30
0.0
 11
718.8851488000001
 21
857.5263424
 31
0.0
 12
718.3574944
 22
857.5263424
 32
0.0
 13
718.3574944
 23
857.5263424
 33
0.0
  0
SOLID
  5
507
330
1F
100
AcDbEntity
  8
PDF _0
440
 33554559
100
AcDbTrace
 10
718.8851488000001
 20
857.5263424
 30
0.0
 11
718.3574944
 21
857.5263424
 31
0.0
 12
718.8851488000001
 22
857.3944288000001
 32
0.0
 13
718.8851488000001
 23
857.3944288000001
 33
0.0
  0
SOLID
  5
508
330
1F
100
AcDbEntity
  8
PDF _0
440
 33554559
100
AcDbTrace
 10
718.3574944
 20
857.5263424
 30
0.0
 11
718.8851488000001
 21
857.3944288000001
 31
0.0
 12
718.2255808
 22
857.3944288000001
 32
0.0
 13
718.2255808
 23
857.3944288000001
 33
0.0
  0
SOLID
  5
509
330
1F
100
AcDbEntity
  8
PDF _0
440
 33554559
100
AcDbTrace
 10
718.8851488000001
 20
857.3944288000001
 30
0.0
 11
718.2255808
 21
857.3944288000001
 31
0.0
 12
719.0170624000001
 22
857.3944288000001
 32
0.0
 13
719.0170624000001
 23
857.3944288000001
 33
0.0
  0
SOLID
  5
50A
330
1F
100
AcDbEntity
  8
PDF _0
440
 33554559
100
AcDbTrace
 10
718.2255808
 20
857.3944288000001
 30
0.0
 11
719.0170624000001
 21
857.3944288000001
 31
0.0
 12
718.0936672000001
 22
857.3944288000001
 32
0.0
 13
718.0936672000001
 23
857.3944288000001
 33
0.0
  0
SOLID
  5
50B
330
1F
100
AcDbEntity
  8
PDF _0
440
 33554559
100
AcDbTrace
 10
719.148976
 20
857.3944288000001
 30
0.0
 11
719.148976
 21
857.3944288000001
 31
0.0
 12
718.0936672000001
 22
857.3944288000001
 32
0.0
 13
718.0936672000001
 23
857.3944288000001
 33
0.0
  0
SOLID
  5
50C
330
1F
100
AcDbEntity
  8
PDF _0
440
 33554559
100
AcDbTrace
 10
719.148976
 20
857.3944288000001
 30
0.0
 11
718.0936672000001
 21
857.3944288000001
 31
0.0
 12
719.0170624000001
 22
857.3944288000001
 32
0.0
 13
719.0170624000001
 23
857.3944288000001
 33
0.0
  0
SOLID
  5
50D
330
1F
100
AcDbEntity
  8
PDF _0
440
 33554559
100
AcDbTrace
 10
719.148976
 20
857.3944288000001
 30
0.0
 11
718.0936672000001
 21
857.3944288000001
 31
0.0
 12
719.2808896000001
 22
857.2625152
 32
0.0
 13
719.2808896000001
 23
857.2625152
 33
0.0
  0
SOLID
  5
50E
330
1F
100
AcDbEntity
  8
PDF _0
440
 33554559
100
AcDbTrace
 10
718.0936672000001
 20
857.3944288000001
 30
0.0
 11
719.2808896000001
 21
857.2625152
 31
0.0
 12
717.9617536000001
 22
857.2625152
 32
0.0
 13
717.9617536000001
 23
857.2625152
 33
0.0
  0
SOLID
  5
50F
330
1F
100
AcDbEntity
  8
PDF _0
440
 33554559
100
AcDbTrace
 10
719.2808896000001
 20
857.2625152
 30
0.0
 11
717.9617536000001
 21
857.2625152
 31
0.0
 12
717.82984
 22
857.2625152
 32
0.0
 13
717.82984
 23
857.2625152
 33
0.0
  0
SOLID
  5
510
330
1F
100
AcDbEntity
  8
PDF _0
440
 33554559
100
AcDbTrace
 10
717.9617536000001
 20
857.2625152
 30
0.0
 11
719.2808896000001
 21
857.2625152
 31
0.0
 12
719.2808896000001
 22
857.2625152
 32
0.0
 13
719.2808896000001
 23
857.2625152
 33
0.0
  0
SOLID
  5
511
330
1F
100
AcDbEntity
  8
PDF _0
440
 33554559
100
AcDbTrace
 10
719.2808896000001
 20
857.2625152
 30
0.0
 11
717.82984
 21
857.2625152
 31
0.0
 12
719.4128032
 22
857.1306016000001
 32
0.0
 13
719.4128032
 23
857.1306016000001
 33
0.0
  0
SOLID
  5
512
330
1F
100
AcDbEntity
  8
PDF _0
440
 33554559
100
AcDbTrace
 10
717.82984
 20
857.2625152
 30
0.0
 11
719.4128032
 21
857.1306016000001
 31
0.0
 12
717.82984
 22
857.1306016000001
 32
0.0
 13
717.82984
 23
857.1306016000001
 33
0.0
  0
SOLID
  5
513
330
1F
100
AcDbEntity
  8
PDF _0
440
 33554559
100
AcDbTrace
 10
719.4128032
 20
857.1306016000001
 30
0.0
 11
717.82984
 21
857.1306016000001
 31
0.0
 12
717.6979264000001
 22
857.1306016000001
 32
0.0
 13
717.6979264000001
 23
857.1306016000001
 33
0.0
  0
SOLID
  5
514
330
1F
100
AcDbEntity
  8
PDF _0
440
 33554559
100
AcDbTrace
 10
717.82984
 20
857.1306016000001
 30
0.0
 11
719.4128032
 21
857.1306016000001
 31
0.0
 12
719.4128032
 22
857.1306016000001
 32
0.0
 13
719.4128032
 23
857.1306016000001
 33
0.0
  0
SOLID
  5
515
330
1F
100
AcDbEntity
  8
PDF _0
440
 33554559
100
AcDbTrace
 10
719.4128032
 20
857.1306016000001
 30
0.0
 11
717.6979264000001
 21
857.1306016000001
 31
0.0
 12
719.5447168000001
 22
856.9986880000001
 32
0.0
 13
719.5447168000001
 23
856.9986880000001
 33
0.0
  0
SOLID
  5
516
330
1F
100
AcDbEntity
  8
PDF _0
440
 33554559
100
AcDbTrace
 10
717.6979264000001
 20
857.1306016000001
 30
0.0
 11
719.5447168000001
 21
856.9986880000001
 31
0.0
 12
717.6979264000001
 22
856.9986880000001
 32
0.0
 13
717.6979264000001
 23
856.9986880000001
 33
0.0
  0
SOLID
  5
517
330
1F
100
AcDbEntity
  8
PDF _0
440
 33554559
100
AcDbTrace
 10
719.5447168000001
 20
856.9986880000001
 30
0.0
 11
717.6979264000001
 21
856.9986880000001
 31
0.0
 12
719.5447168000001
 22
856.8667744
 32
0.0
 13
719.5447168000001
 23
856.8667744
 33
0.0
  0
SOLID
  5
518
330
1F
100
AcDbEntity
  8
PDF _0
440
 33554559
100
AcDbTrace
 10
717.6979264000001
 20
856.9986880000001
 30
0.0
 11
719.5447168000001
 21
856.8667744
 31
0.0
 12
717.5660128
 22
856.8667744
 32
0.0
 13
717.5660128
 23
856.8667744
 33
0.0
  0
SOLID
  5
519
330
1F
100
AcDbEntity
  8
PDF _0
440
 33554559
100
AcDbTrace
 10
717.5660128
 20
856.8667744
 30
0.0
 11
719.5447168000001
 21
856.8667744
 31
0.0
 12
719.5447168000001
 22
856.8667744
 32
0.0
 13
719.5447168000001
 23
856.8667744
 33
0.0
  0
LWPOLYLINE
  5
51A
330
1F
100
AcDbEntity
  8
PDF _0
370
     0
100
AcDbPolyline
 90
        3
 70
     0
 43
0.0
 10
719.5447168000001
 20
856.8667744
 10
717.5660128
 20
856.8667744
 10
719.5447168000001
 20
856.8667744
  0
SOLID
  5
51B
330
1F
100
AcDbEntity
  8
PDF _0
440
 33554559
100
AcDbTrace
 10
719.5447168000001
 20
856.8667744
 30
0.0
 11
717.5660128
 21
856.8667744
 31
0.0
 12
719.6766304000001
 22
856.7348608000001
 32
0.0
 13
719.6766304000001
 23
856.7348608000001
 33
0.0
  0
SOLID
  5
51C
330
1F
100
AcDbEntity
  8
PDF _0
440
 33554559
100
AcDbTrace
 10
717.5660128
 20
856.8667744
 30
0.0
 11
719.6766304000001
 21
856.7348608000001
 31
0.0
 12
717.5660128
 22
856.7348608000001
 32
0.0
 13
717.5660128
 23
856.7348608000001
 33
0.0
  0
SOLID
  5
51D
330
1F
100
AcDbEntity
  8
PDF _0
440
 33554559
100
AcDbTrace
 10
719.6766304000001
 20
856.7348608000001
 30
0.0
 11
717.5660128
 21
856.7348608000001
 31
0.0
 12
719.6766304000001
 22
856.6029472000002
 32
0.0
 13
719.6766304000001
 23
856.6029472000002
 33
0.0
  0
SOLID
  5
51E
330
1F
100
AcDbEntity
  8
PDF _0
440
 33554559
100
AcDbTrace
 10
717.5660128
 20
856.7348608000001
 30
0.0
 11
719.6766304000001
 21
856.6029472000002
 31
0.0
 12
717.5660128
 22
856.6029472000002
 32
0.0
 13
717.5660128
 23
856.6029472000002
 33
0.0
  0
SOLID
  5
51F
330
1F
100
AcDbEntity
  8
PDF _0
440
 33554559
100
AcDbTrace
 10
719.6766304000001
 20
856.6029472000002
 30
0.0
 11
717.5660128
 21
856.6029472000002
 31
0.0
 12
719.6766304000001
 22
856.4710336
 32
0.0
 13
719.6766304000001
 23
856.4710336
 33
0.0
  0
SOLID
  5
520
330
1F
100
AcDbEntity
  8
PDF _0
440
 33554559
100
AcDbTrace
 10
717.5660128
 20
856.6029472000002
 30
0.0
 11
719.6766304000001
 21
856.4710336
 31
0.0
 12
717.4340992000001
 22
856.4710336
 32
0.0
 13
717.4340992000001
 23
856.4710336
 33
0.0
  0
SOLID
  5
521
330
1F
100
AcDbEntity
  8
PDF _0
440
 33554559
100
AcDbTrace
 10
717.4340992000001
 20
856.4710336
 30
0.0
 11
719.6766304000001
 21
856.4710336
 31
0.0
 12
719.6766304000001
 22
856.4710336
 32
0.0
 13
719.6766304000001
 23
856.4710336
 33
0.0
  0
LWPOLYLINE
  5
522
330
1F
100
AcDbEntity
  8
PDF _0
370
     0
100
AcDbPolyline
 90
        3
 70
     0
 43
0.0
 10
719.6766304000001
 20
856.4710336
 10
717.4340992000001
 20
856.4710336
 10
719.6766304000001
 20
856.4710336
  0
SOLID
  5
523
330
1F
100
AcDbEntity
  8
PDF _0
440
 33554559
100
AcDbTrace
 10
719.6766304000001
 20
856.4710336
 30
0.0
 11
717.4340992000001
 21
856.4710336
 31
0.0
 12
719.6766304000001
 22
856.3391200000001
 32
0.0
 13
719.6766304000001
 23
856.3391200000001
 33
0.0
  0
SOLID
  5
524
330
1F
100
AcDbEntity
  8
PDF _0
440
 33554559
100
AcDbTrace
 10
717.4340992000001
 20
856.4710336
 30
0.0
 11
719.6766304000001
 21
856.3391200000001
 31
0.0
 12
717.4340992000001
 22
856.3391200000001
 32
0.0
 13
717.4340992000001
 23
856.3391200000001
 33
0.0
  0
SOLID
  5
525
330
1F
100
AcDbEntity
  8
PDF _0
440
 33554559
100
AcDbTrace
 10
719.6766304000001
 20
856.3391200000001
 30
0.0
 11
717.4340992000001
 21
856.3391200000001
 31
0.0
 12
719.6766304000001
 22
856.2072064000002
 32
0.0
 13
719.6766304000001
 23
856.2072064000002
 33
0.0
  0
SOLID
  5
526
330
1F
100
AcDbEntity
  8
PDF _0
440
 33554559
100
AcDbTrace
 10
717.4340992000001
 20
856.3391200000001
 30
0.0
 11
719.6766304000001
 21
856.2072064000002
 31
0.0
 12
717.5660128
 22
856.2072064000002
 32
0.0
 13
717.5660128
 23
856.2072064000002
 33
0.0
  0
SOLID
  5
527
330
1F
100
AcDbEntity
  8
PDF _0
440
 33554559
100
AcDbTrace
 10
719.6766304000001
 20
856.2072064000002
 30
0.0
 11
717.5660128
 21
856.2072064000002
 31
0.0
 12
719.6766304000001
 22
856.0752928000001
 32
0.0
 13
719.6766304000001
 23
856.0752928000001
 33
0.0
  0
SOLID
  5
528
330
1F
100
AcDbEntity
  8
PDF _0
440
 33554559
100
AcDbTrace
 10
717.5660128
 20
856.2072064000002
 30
0.0
 11
719.6766304000001
 21
856.0752928000001
 31
0.0
 12
717.5660128
 22
856.0752928000001
 32
0.0
 13
717.5660128
 23
856.0752928000001
 33
0.0
  0
SOLID
  5
529
330
1F
100
AcDbEntity
  8
PDF _0
440
 33554559
100
AcDbTrace
 10
719.6766304000001
 20
856.0752928000001
 30
0.0
 11
717.5660128
 21
856.0752928000001
 31
0.0
 12
719.5447168000001
 22
855.9433792000001
 32
0.0
 13
719.5447168000001
 23
855.9433792000001
 33
0.0
  0
SOLID
  5
52A
330
1F
100
AcDbEntity
  8
PDF _0
440
 33554559
100
AcDbTrace
 10
717.5660128
 20
856.0752928000001
 30
0.0
 11
719.5447168000001
 21
855.9433792000001
 31
0.0
 12
717.5660128
 22
855.9433792000001
 32
0.0
 13
717.5660128
 23
855.9433792000001
 33
0.0
  0
SOLID
  5
52B
330
1F
100
AcDbEntity
  8
PDF _0
440
 33554559
100
AcDbTrace
 10
717.5660128
 20
855.9433792000001
 30
0.0
 11
719.5447168000001
 21
855.9433792000001
 31
0.0
 12
719.5447168000001
 22
855.9433792000001
 32
0.0
 13
719.5447168000001
 23
855.9433792000001
 33
0.0
  0
LWPOLYLINE
  5
52C
330
1F
100
AcDbEntity
  8
PDF _0
370
     0
100
AcDbPolyline
 90
        3
 70
     0
 43
0.0
 10
719.5447168000001
 20
855.9433792000001
 10
717.5660128
 20
855.9433792000001
 10
719.5447168000001
 20
855.9433792000001
  0
SOLID
  5
52D
330
1F
100
AcDbEntity
  8
PDF _0
440
 33554559
100
AcDbTrace
 10
719.5447168000001
 20
855.9433792000001
 30
0.0
 11
717.5660128
 21
855.9433792000001
 31
0.0
 12
719.5447168000001
 22
855.8114656
 32
0.0
 13
719.5447168000001
 23
855.8114656
 33
0.0
  0
SOLID
  5
52E
330
1F
100
AcDbEntity
  8
PDF _0
440
 33554559
100
AcDbTrace
 10
717.5660128
 20
855.9433792000001
 30
0.0
 11
719.5447168000001
 21
855.8114656
 31
0.0
 12
717.6979264000001
 22
855.8114656
 32
0.0
 13
717.6979264000001
 23
855.8114656
 33
0.0
  0
SOLID
  5
52F
330
1F
100
AcDbEntity
  8
PDF _0
440
 33554559
100
AcDbTrace
 10
719.5447168000001
 20
855.8114656
 30
0.0
 11
717.6979264000001
 21
855.8114656
 31
0.0
 12
719.4128032
 22
855.6795520000001
 32
0.0
 13
719.4128032
 23
855.6795520000001
 33
0.0
  0
SOLID
  5
530
330
1F
100
AcDbEntity
  8
PDF _0
440
 33554559
100
AcDbTrace
 10
717.6979264000001
 20
855.8114656
 30
0.0
 11
719.4128032
 21
855.6795520000001
 31
0.0
 12
717.6979264000001
 22
855.6795520000001
 32
0.0
 13
717.6979264000001
 23
855.6795520000001
 33
0.0
  0
SOLID
  5
531
330
1F
100
AcDbEntity
  8
PDF _0
440
 33554559
100
AcDbTrace
 10
719.4128032
 20
855.6795520000001
 30
0.0
 11
717.6979264000001
 21
855.6795520000001
 31
0.0
 12
717.82984
 22
855.6795520000001
 32
0.0
 13
717.82984
 23
855.6795520000001
 33
0.0
  0
SOLID
  5
532
330
1F
100
AcDbEntity
  8
PDF _0
440
 33554559
100
AcDbTrace
 10
717.6979264000001
 20
855.6795520000001
 30
0.0
 11
719.4128032
 21
855.6795520000001
 31
0.0
 12
719.4128032
 22
855.6795520000001
 32
0.0
 13
719.4128032
 23
855.6795520000001
 33
0.0
  0
SOLID
  5
533
330
1F
100
AcDbEntity
  8
PDF _0
440
 33554559
100
AcDbTrace
 10
719.4128032
 20
855.6795520000001
 30
0.0
 11
717.82984
 21
855.6795520000001
 31
0.0
 12
719.2808896000001
 22
855.5476384
 32
0.0
 13
719.2808896000001
 23
855.5476384
 33
0.0
  0
SOLID
  5
534
330
1F
100
AcDbEntity
  8
PDF _0
440
 33554559
100
AcDbTrace
 10
717.82984
 20
855.6795520000001
 30
0.0
 11
719.2808896000001
 21
855.5476384
 31
0.0
 12
717.82984
 22
855.5476384
 32
0.0
 13
717.82984
 23
855.5476384
 33
0.0
  0
SOLID
  5
535
330
1F
100
AcDbEntity
  8
PDF _0
440
 33554559
100
AcDbTrace
 10
719.2808896000001
 20
855.5476384
 30
0.0
 11
717.82984
 21
855.5476384
 31
0.0
 12
717.9617536000001
 22
855.5476384
 32
0.0
 13
717.9617536000001
 23
855.5476384
 33
0.0
  0
SOLID
  5
536
330
1F
100
AcDbEntity
  8
PDF _0
440
 33554559
100
AcDbTrace
 10
717.82984
 20
855.5476384
 30
0.0
 11
719.2808896000001
 21
855.5476384
 31
0.0
 12
719.2808896000001
 22
855.5476384
 32
0.0
 13
719.2808896000001
 23
855.5476384
 33
0.0
  0
SOLID
  5
537
330
1F
100
AcDbEntity
  8
PDF _0
440
 33554559
100
AcDbTrace
 10
719.2808896000001
 20
855.5476384
 30
0.0
 11
717.9617536000001
 21
855.5476384
 31
0.0
 12
719.148976
 22
855.4157248
 32
0.0
 13
719.148976
 23
855.4157248
 33
0.0
  0
SOLID
  5
538
330
1F
100
AcDbEntity
  8
PDF _0
440
 33554559
100
AcDbTrace
 10
717.9617536000001
 20
855.5476384
 30
0.0
 11
719.148976
 21
855.4157248
 31
0.0
 12
718.0936672000001
 22
855.4157248
 32
0.0
 13
718.0936672000001
 23
855.4157248
 33
0.0
  0
SOLID
  5
539
330
1F
100
AcDbEntity
  8
PDF _0
440
 33554559
100
AcDbTrace
 10
719.0170624000001
 20
855.4157248
 30
0.0
 11
719.0170624000001
 21
855.4157248
 31
0.0
 12
718.0936672000001
 22
855.4157248
 32
0.0
 13
718.0936672000001
 23
855.4157248
 33
0.0
  0
SOLID
  5
53A
330
1F
100
AcDbEntity
  8
PDF _0
440
 33554559
100
AcDbTrace
 10
719.0170624000001
 20
855.4157248
 30
0.0
 11
718.0936672000001
 21
855.4157248
 31
0.0
 12
719.148976
 22
855.4157248
 32
0.0
 13
719.148976
 23
855.4157248
 33
0.0
  0
SOLID
  5
53B
330
1F
100
AcDbEntity
  8
PDF _0
440
 33554559
100
AcDbTrace
 10
719.0170624000001
 20
855.4157248
 30
0.0
 11
718.0936672000001
 21
855.4157248
 31
0.0
 12
718.8851488000001
 22
855.4157248
 32
0.0
 13
718.8851488000001
 23
855.4157248
 33
0.0
  0
SOLID
  5
53C
330
1F
100
AcDbEntity
  8
PDF _0
440
 33554559
100
AcDbTrace
 10
718.0936672000001
 20
855.4157248
 30
0.0
 11
718.8851488000001
 21
855.4157248
 31
0.0
 12
718.2255808
 22
855.4157248
 32
0.0
 13
718.2255808
 23
855.4157248
 33
0.0
  0
SOLID
  5
53D
330
1F
100
AcDbEntity
  8
PDF _0
440
 33554559
100
AcDbTrace
 10
718.8851488000001
 20
855.4157248
 30
0.0
 11
718.2255808
 21
855.4157248
 31
0.0
 12
718.8851488000001
 22
855.2838112000001
 32
0.0
 13
718.8851488000001
 23
855.2838112000001
 33
0.0
  0
SOLID
  5
53E
330
1F
100
AcDbEntity
  8
PDF _0
440
 33554559
100
AcDbTrace
 10
718.2255808
 20
855.4157248
 30
0.0
 11
718.8851488000001
 21
855.2838112000001
 31
0.0
 12
718.3574944
 22
855.2838112000001
 32
0.0
 13
718.3574944
 23
855.2838112000001
 33
0.0
  0
SOLID
  5
53F
330
1F
100
AcDbEntity
  8
PDF _0
440
 33554559
100
AcDbTrace
 10
718.3574944
 20
855.2838112000001
 30
0.0
 11
718.4894080000001
 21
855.2838112000001
 31
0.0
 12
718.7532352
 22
855.2838112000001
 32
0.0
 13
718.7532352
 23
855.2838112000001
 33
0.0
  0
SOLID
  5
540
330
1F
100
AcDbEntity
  8
PDF _0
440
 33554559
100
AcDbTrace
 10
718.4894080000001
 20
855.2838112000001
 30
0.0
 11
718.7532352
 21
855.2838112000001
 31
0.0
 12
718.6213216000001
 22
855.2838112000001
 32
0.0
 13
718.6213216000001
 23
855.2838112000001
 33
0.0
  0
SOLID
  5
541
330
1F
100
AcDbEntity
  8
PDF _0
440
 33554559
100
AcDbTrace
 10
718.3574944
 20
855.2838112000001
 30
0.0
 11
718.8851488000001
 21
855.2838112000001
 31
0.0
 12
718.7532352
 22
855.2838112000001
 32
0.0
 13
718.7532352
 23
855.2838112000001
 33
0.0
  0
LWPOLYLINE
  5
543
330
1F
100
AcDbEntity
  8
PDF _0
370
    25
100
AcDbPolyline
 90
        4
 70
     0
 43
0.0
 10
945.2488864000001
 20
855.8114656
 10
719.6766304000001
 20
855.8114656
 10
719.6766304000001
 20
845.3902912
 10
945.2488864000001
 20
845.3902912
  0
LWPOLYLINE
  5
544
330
1F
100
AcDbEntity
  8
PDF _0
370
    25
100
AcDbPolyline
 90
        4
 70
     1
 43
0.0
 10
868.6070848000001
 20
855.8114656
 10
881.7984448
 20
855.8114656
 10
881.7984448
 20
863.5943680000002
 10
868.6070848000001
 20
863.5943680000002
  0
LWPOLYLINE
  5
545
330
1F
100
AcDbEntity
  8
PDF _0
370
    25
100
AcDbPolyline
 90
        3
 70
     0
 43
0.0
 10
665.5920544
 20
844.3349824
 10
666.2516224
 20
843.6754144000001
 10
666.7792768
 20
844.3349824
  0
SOLID
  5
546
330
1F
100
AcDbEntity
  8
PDF _0
440
 33554559
100
AcDbTrace
 10
666.2516224
 20
844.8626368000001
 30
0.0
 11
665.9877952
 21
844.8626368000001
 31
0.0
 12
665.9877952
 22
844.8626368000001
 32
0.0
 13
665.9877952
 23
844.8626368000001
 33
0.0
  0
SOLID
  5
547
330
1F
100
AcDbEntity
  8
PDF _0
440
 33554559
100
AcDbTrace
 10
666.2516224
 20
844.8626368000001
 30
0.0
 11
665.9877952
 21
844.8626368000001
 31
0.0
 12
666.5154496000001
 22
844.7307231999999
 32
0.0
 13
666.5154496000001
 23
844.7307231999999
 33
0.0
  0
SOLID
  5
548
330
1F
100
AcDbEntity
  8
PDF _0
440
 33554559
100
AcDbTrace
 10
665.9877952
 20
844.8626368000001
 30
0.0
 11
666.5154496000001
 21
844.7307231999999
 31
0.0
 12
665.9877952
 22
844.7307231999999
 32
0.0
 13
665.9877952
 23
844.7307231999999
 33
0.0
  0
SOLID
  5
549
330
1F
100
AcDbEntity
  8
PDF _0
440
 33554559
100
AcDbTrace
 10
666.5154496000001
 20
844.7307231999999
 30
0.0
 11
665.9877952
 21
844.7307231999999
 31
0.0
 12
665.8558816000001
 22
844.7307231999999
 32
0.0
 13
665.8558816000001
 23
844.7307231999999
 33
0.0
  0
SOLID
  5
54A
330
1F
100
AcDbEntity
  8
PDF _0
440
 33554559
100
AcDbTrace
 10
665.9877952
 20
844.7307231999999
 30
0.0
 11
666.5154496000001
 21
844.7307231999999
 31
0.0
 12
666.5154496000001
 22
844.7307231999999
 32
0.0
 13
666.5154496000001
 23
844.7307231999999
 33
0.0
  0
SOLID
  5
54B
330
1F
100
AcDbEntity
  8
PDF _0
440
 33554559
100
AcDbTrace
 10
666.5154496000001
 20
844.7307231999999
 30
0.0
 11
665.8558816000001
 21
844.7307231999999
 31
0.0
 12
666.6473632
 22
844.7307231999999
 32
0.0
 13
666.6473632
 23
844.7307231999999
 33
0.0
  0
SOLID
  5
54C
330
1F
100
AcDbEntity
  8
PDF _0
440
 33554559
100
AcDbTrace
 10
665.8558816000001
 20
844.7307231999999
 30
0.0
 11
666.6473632
 21
844.7307231999999
 31
0.0
 12
665.7239680000001
 22
844.7307231999999
 32
0.0
 13
665.7239680000001
 23
844.7307231999999
 33
0.0
  0
SOLID
  5
54D
330
1F
100
AcDbEntity
  8
PDF _0
440
 33554559
100
AcDbTrace
 10
666.6473632
 20
844.7307231999999
 30
0.0
 11
665.7239680000001
 21
844.7307231999999
 31
0.0
 12
666.7792768
 22
844.7307231999999
 32
0.0
 13
666.7792768
 23
844.7307231999999
 33
0.0
  0
SOLID
  5
54E
330
1F
100
AcDbEntity
  8
PDF _0
440
 33554559
100
AcDbTrace
 10
665.7239680000001
 20
844.7307231999999
 30
0.0
 11
666.7792768
 21
844.7307231999999
 31
0.0
 12
665.5920544
 22
844.7307231999999
 32
0.0
 13
665.5920544
 23
844.7307231999999
 33
0.0
  0
SOLID
  5
54F
330
1F
100
AcDbEntity
  8
PDF _0
440
 33554559
100
AcDbTrace
 10
666.7792768
 20
844.7307231999999
 30
0.0
 11
665.5920544
 21
844.7307231999999
 31
0.0
 12
666.7792768
 22
844.5988096
 32
0.0
 13
666.7792768
 23
844.5988096
 33
0.0
  0
SOLID
  5
550
330
1F
100
AcDbEntity
  8
PDF _0
440
 33554559
100
AcDbTrace
 10
665.5920544
 20
844.7307231999999
 30
0.0
 11
666.7792768
 21
844.5988096
 31
0.0
 12
665.5920544
 22
844.5988096
 32
0.0
 13
665.5920544
 23
844.5988096
 33
0.0
  0
SOLID
  5
551
330
1F
100
AcDbEntity
  8
PDF _0
440
 33554559
100
AcDbTrace
 10
666.7792768
 20
844.5988096
 30
0.0
 11
665.5920544
 21
844.5988096
 31
0.0
 12
666.9111904000001
 22
844.5988096
 32
0.0
 13
666.9111904000001
 23
844.5988096
 33
0.0
  0
SOLID
  5
552
330
1F
100
AcDbEntity
  8
PDF _0
440
 33554559
100
AcDbTrace
 10
665.5920544
 20
844.5988096
 30
0.0
 11
666.9111904000001
 21
844.5988096
 31
0.0
 12
665.4601408000001
 22
844.5988096
 32
0.0
 13
665.4601408000001
 23
844.5988096
 33
0.0
  0
SOLID
  5
553
330
1F
100
AcDbEntity
  8
PDF _0
440
 33554559
100
AcDbTrace
 10
666.9111904000001
 20
844.5988096
 30
0.0
 11
665.4601408000001
 21
844.5988096
 31
0.0
 12
667.0431040000001
 22
844.4668960000001
 32
0.0
 13
667.0431040000001
 23
844.4668960000001
 33
0.0
  0
SOLID
  5
554
330
1F
100
AcDbEntity
  8
PDF _0
440
 33554559
100
AcDbTrace
 10
665.4601408000001
 20
844.5988096
 30
0.0
 11
667.0431040000001
 21
844.4668960000001
 31
0.0
 12
665.4601408000001
 22
844.4668960000001
 32
0.0
 13
665.4601408000001
 23
844.4668960000001
 33
0.0
  0
SOLID
  5
555
330
1F
100
AcDbEntity
  8
PDF _0
440
 33554559
100
AcDbTrace
 10
667.0431040000001
 20
844.4668960000001
 30
0.0
 11
665.4601408000001
 21
844.4668960000001
 31
0.0
 12
665.3282272000001
 22
844.4668960000001
 32
0.0
 13
665.3282272000001
 23
844.4668960000001
 33
0.0
  0
SOLID
  5
556
330
1F
100
AcDbEntity
  8
PDF _0
440
 33554559
100
AcDbTrace
 10
665.4601408000001
 20
844.4668960000001
 30
0.0
 11
667.0431040000001
 21
844.4668960000001
 31
0.0
 12
667.0431040000001
 22
844.4668960000001
 32
0.0
 13
667.0431040000001
 23
844.4668960000001
 33
0.0
  0
SOLID
  5
557
330
1F
100
AcDbEntity
  8
PDF _0
440
 33554559
100
AcDbTrace
 10
667.0431040000001
 20
844.4668960000001
 30
0.0
 11
665.3282272000001
 21
844.4668960000001
 31
0.0
 12
667.1750176
 22
844.3349824
 32
0.0
 13
667.1750176
 23
844.3349824
 33
0.0
  0
SOLID
  5
558
330
1F
100
AcDbEntity
  8
PDF _0
440
 33554559
100
AcDbTrace
 10
665.3282272000001
 20
844.4668960000001
 30
0.0
 11
667.1750176
 21
844.3349824
 31
0.0
 12
665.3282272000001
 22
844.3349824
 32
0.0
 13
665.3282272000001
 23
844.3349824
 33
0.0
  0
SOLID
  5
559
330
1F
100
AcDbEntity
  8
PDF _0
440
 33554559
100
AcDbTrace
 10
667.1750176
 20
844.3349824
 30
0.0
 11
665.3282272000001
 21
844.3349824
 31
0.0
 12
667.1750176
 22
844.2030688
 32
0.0
 13
667.1750176
 23
844.2030688
 33
0.0
  0
SOLID
  5
55A
330
1F
100
AcDbEntity
  8
PDF _0
440
 33554559
100
AcDbTrace
 10
665.3282272000001
 20
844.3349824
 30
0.0
 11
667.1750176
 21
844.2030688
 31
0.0
 12
665.1963136
 22
844.2030688
 32
0.0
 13
665.1963136
 23
844.2030688
 33
0.0
  0
SOLID
  5
55B
330
1F
100
AcDbEntity
  8
PDF _0
440
 33554559
100
AcDbTrace
 10
667.1750176
 20
844.2030688
 30
0.0
 11
665.1963136
 21
844.2030688
 31
0.0
 12
667.1750176
 22
844.0711552000001
 32
0.0
 13
667.1750176
 23
844.0711552000001
 33
0.0
  0
SOLID
  5
55C
330
1F
100
AcDbEntity
  8
PDF _0
440
 33554559
100
AcDbTrace
 10
665.1963136
 20
844.2030688
 30
0.0
 11
667.1750176
 21
844.0711552000001
 31
0.0
 12
665.1963136
 22
844.0711552000001
 32
0.0
 13
665.1963136
 23
844.0711552000001
 33
0.0
  0
SOLID
  5
55D
330
1F
100
AcDbEntity
  8
PDF _0
440
 33554559
100
AcDbTrace
 10
667.3069312000001
 20
844.0711552000001
 30
0.0
 11
667.3069312000001
 21
844.0711552000001
 31
0.0
 12
665.1963136
 22
844.0711552000001
 32
0.0
 13
665.1963136
 23
844.0711552000001
 33
0.0
  0
SOLID
  5
55E
330
1F
100
AcDbEntity
  8
PDF _0
440
 33554559
100
AcDbTrace
 10
667.3069312000001
 20
844.0711552000001
 30
0.0
 11
665.1963136
 21
844.0711552000001
 31
0.0
 12
667.1750176
 22
844.0711552000001
 32
0.0
 13
667.1750176
 23
844.0711552000001
 33
0.0
  0
SOLID
  5
55F
330
1F
100
AcDbEntity
  8
PDF _0
440
 33554559
100
AcDbTrace
 10
667.3069312000001
 20
844.0711552000001
 30
0.0
 11
665.1963136
 21
844.0711552000001
 31
0.0
 12
667.3069312000001
 22
843.9392416
 32
0.0
 13
667.3069312000001
 23
843.9392416
 33
0.0
  0
SOLID
  5
560
330
1F
100
AcDbEntity
  8
PDF _0
440
 33554559
100
AcDbTrace
 10
665.1963136
 20
844.0711552000001
 30
0.0
 11
667.3069312000001
 21
843.9392416
 31
0.0
 12
665.0644
 22
843.9392416
 32
0.0
 13
665.0644
 23
843.9392416
 33
0.0
  0
SOLID
  5
561
330
1F
100
AcDbEntity
  8
PDF _0
440
 33554559
100
AcDbTrace
 10
667.3069312000001
 20
843.9392416
 30
0.0
 11
665.0644
 21
843.9392416
 31
0.0
 12
667.3069312000001
 22
843.8073280000001
 32
0.0
 13
667.3069312000001
 23
843.8073280000001
 33
0.0
  0
SOLID
  5
562
330
1F
100
AcDbEntity
  8
PDF _0
440
 33554559
100
AcDbTrace
 10
665.0644
 20
843.9392416
 30
0.0
 11
667.3069312000001
 21
843.8073280000001
 31
0.0
 12
665.0644
 22
843.8073280000001
 32
0.0
 13
665.0644
 23
843.8073280000001
 33
0.0
  0
SOLID
  5
563
330
1F
100
AcDbEntity
  8
PDF _0
440
 33554559
100
AcDbTrace
 10
667.3069312000001
 20
843.8073280000001
 30
0.0
 11
665.0644
 21
843.8073280000001
 31
0.0
 12
667.3069312000001
 22
843.6754144000001
 32
0.0
 13
667.3069312000001
 23
843.6754144000001
 33
0.0
  0
SOLID
  5
564
330
1F
100
AcDbEntity
  8
PDF _0
440
 33554559
100
AcDbTrace
 10
665.0644
 20
843.8073280000001
 30
0.0
 11
667.3069312000001
 21
843.6754144000001
 31
0.0
 12
665.0644
 22
843.6754144000001
 32
0.0
 13
665.0644
 23
843.6754144000001
 33
0.0
  0
SOLID
  5
565
330
1F
100
AcDbEntity
  8
PDF _0
440
 33554559
100
AcDbTrace
 10
665.0644
 20
843.6754144000001
 30
0.0
 11
667.3069312000001
 21
843.6754144000001
 31
0.0
 12
667.3069312000001
 22
843.6754144000001
 32
0.0
 13
667.3069312000001
 23
843.6754144000001
 33
0.0
  0
LWPOLYLINE
  5
566
330
1F
100
AcDbEntity
  8
PDF _0
370
     0
100
AcDbPolyline
 90
        3
 70
     0
 43
0.0
 10
667.3069312000001
 20
843.6754144000001
 10
665.0644
 20
843.6754144000001
 10
667.3069312000001
 20
843.6754144000001
  0
SOLID
  5
567
330
1F
100
AcDbEntity
  8
PDF _0
440
 33554559
100
AcDbTrace
 10
667.3069312000001
 20
843.6754144000001
 30
0.0
 11
665.0644
 21
843.6754144000001
 31
0.0
 12
667.3069312000001
 22
843.5435008
 32
0.0
 13
667.3069312000001
 23
843.5435008
 33
0.0
  0
SOLID
  5
568
330
1F
100
AcDbEntity
  8
PDF _0
440
 33554559
100
AcDbTrace
 10
665.0644
 20
843.6754144000001
 30
0.0
 11
667.3069312000001
 21
843.5435008
 31
0.0
 12
665.0644
 22
843.5435008
 32
0.0
 13
665.0644
 23
843.5435008
 33
0.0
  0
SOLID
  5
569
330
1F
100
AcDbEntity
  8
PDF _0
440
 33554559
100
AcDbTrace
 10
667.3069312000001
 20
843.5435008
 30
0.0
 11
665.0644
 21
843.5435008
 31
0.0
 12
667.3069312000001
 22
843.4115872000001
 32
0.0
 13
667.3069312000001
 23
843.4115872000001
 33
0.0
  0
SOLID
  5
56A
330
1F
100
AcDbEntity
  8
PDF _0
440
 33554559
100
AcDbTrace
 10
665.0644
 20
843.5435008
 30
0.0
 11
667.3069312000001
 21
843.4115872000001
 31
0.0
 12
665.1963136
 22
843.4115872000001
 32
0.0
 13
665.1963136
 23
843.4115872000001
 33
0.0
  0
SOLID
  5
56B
330
1F
100
AcDbEntity
  8
PDF _0
440
 33554559
100
AcDbTrace
 10
667.3069312000001
 20
843.4115872000001
 30
0.0
 11
665.1963136
 21
843.4115872000001
 31
0.0
 12
667.1750176
 22
843.2796736000002
 32
0.0
 13
667.1750176
 23
843.2796736000002
 33
0.0
  0
SOLID
  5
56C
330
1F
100
AcDbEntity
  8
PDF _0
440
 33554559
100
AcDbTrace
 10
665.1963136
 20
843.4115872000001
 30
0.0
 11
667.1750176
 21
843.2796736000002
 31
0.0
 12
665.1963136
 22
843.2796736000002
 32
0.0
 13
665.1963136
 23
843.2796736000002
 33
0.0
  0
SOLID
  5
56D
330
1F
100
AcDbEntity
  8
PDF _0
440
 33554559
100
AcDbTrace
 10
665.1963136
 20
843.2796736000002
 30
0.0
 11
667.1750176
 21
843.2796736000002
 31
0.0
 12
667.1750176
 22
843.2796736000002
 32
0.0
 13
667.1750176
 23
843.2796736000002
 33
0.0
  0
LWPOLYLINE
  5
56E
330
1F
100
AcDbEntity
  8
PDF _0
370
     0
100
AcDbPolyline
 90
        3
 70
     0
 43
0.0
 10
667.1750176
 20
843.2796736000002
 10
665.1963136
 20
843.2796736000002
 10
667.1750176
 20
843.2796736000002
  0
SOLID
  5
56F
330
1F
100
AcDbEntity
  8
PDF _0
440
 33554559
100
AcDbTrace
 10
667.1750176
 20
843.2796736000002
 30
0.0
 11
665.1963136
 21
843.2796736000002
 31
0.0
 12
667.1750176
 22
843.14776
 32
0.0
 13
667.1750176
 23
843.14776
 33
0.0
  0
SOLID
  5
570
330
1F
100
AcDbEntity
  8
PDF _0
440
 33554559
100
AcDbTrace
 10
665.1963136
 20
843.2796736000002
 30
0.0
 11
667.1750176
 21
843.14776
 31
0.0
 12
665.3282272000001
 22
843.14776
 32
0.0
 13
665.3282272000001
 23
843.14776
 33
0.0
  0
SOLID
  5
571
330
1F
100
AcDbEntity
  8
PDF _0
440
 33554559
100
AcDbTrace
 10
667.1750176
 20
843.14776
 30
0.0
 11
665.3282272000001
 21
843.14776
 31
0.0
 12
667.0431040000001
 22
843.0158464000001
 32
0.0
 13
667.0431040000001
 23
843.0158464000001
 33
0.0
  0
SOLID
  5
572
330
1F
100
AcDbEntity
  8
PDF _0
440
 33554559
100
AcDbTrace
 10
665.3282272000001
 20
843.14776
 30
0.0
 11
667.0431040000001
 21
843.0158464000001
 31
0.0
 12
665.3282272000001
 22
843.0158464000001
 32
0.0
 13
665.3282272000001
 23
843.0158464000001
 33
0.0
  0
SOLID
  5
573
330
1F
100
AcDbEntity
  8
PDF _0
440
 33554559
100
AcDbTrace
 10
667.0431040000001
 20
843.0158464000001
 30
0.0
 11
665.3282272000001
 21
843.0158464000001
 31
0.0
 12
665.4601408000001
 22
843.0158464000001
 32
0.0
 13
665.4601408000001
 23
843.0158464000001
 33
0.0
  0
SOLID
  5
574
330
1F
100
AcDbEntity
  8
PDF _0
440
 33554559
100
AcDbTrace
 10
665.3282272000001
 20
843.0158464000001
 30
0.0
 11
667.0431040000001
 21
843.0158464000001
 31
0.0
 12
667.0431040000001
 22
843.0158464000001
 32
0.0
 13
667.0431040000001
 23
843.0158464000001
 33
0.0
  0
SOLID
  5
575
330
1F
100
AcDbEntity
  8
PDF _0
440
 33554559
100
AcDbTrace
 10
667.0431040000001
 20
843.0158464000001
 30
0.0
 11
665.4601408000001
 21
843.0158464000001
 31
0.0
 12
666.9111904000001
 22
842.8839328000002
 32
0.0
 13
666.9111904000001
 23
842.8839328000002
 33
0.0
  0
SOLID
  5
576
330
1F
100
AcDbEntity
  8
PDF _0
440
 33554559
100
AcDbTrace
 10
665.4601408000001
 20
843.0158464000001
 30
0.0
 11
666.9111904000001
 21
842.8839328000002
 31
0.0
 12
665.4601408000001
 22
842.8839328000002
 32
0.0
 13
665.4601408000001
 23
842.8839328000002
 33
0.0
  0
SOLID
  5
577
330
1F
100
AcDbEntity
  8
PDF _0
440
 33554559
100
AcDbTrace
 10
666.9111904000001
 20
842.8839328000002
 30
0.0
 11
665.4601408000001
 21
842.8839328000002
 31
0.0
 12
666.7792768
 22
842.8839328000002
 32
0.0
 13
666.7792768
 23
842.8839328000002
 33
0.0
  0
SOLID
  5
578
330
1F
100
AcDbEntity
  8
PDF _0
440
 33554559
100
AcDbTrace
 10
665.4601408000001
 20
842.8839328000002
 30
0.0
 11
666.7792768
 21
842.8839328000002
 31
0.0
 12
665.5920544
 22
842.8839328000002
 32
0.0
 13
665.5920544
 23
842.8839328000002
 33
0.0
  0
SOLID
  5
579
330
1F
100
AcDbEntity
  8
PDF _0
440
 33554559
100
AcDbTrace
 10
666.7792768
 20
842.8839328000002
 30
0.0
 11
665.5920544
 21
842.8839328000002
 31
0.0
 12
666.7792768
 22
842.7520192000001
 32
0.0
 13
666.7792768
 23
842.7520192000001
 33
0.0
  0
SOLID
  5
57A
330
1F
100
AcDbEntity
  8
PDF _0
440
 33554559
100
AcDbTrace
 10
665.5920544
 20
842.8839328000002
 30
0.0
 11
666.7792768
 21
842.7520192000001
 31
0.0
 12
665.5920544
 22
842.7520192000001
 32
0.0
 13
665.5920544
 23
842.7520192000001
 33
0.0
  0
SOLID
  5
57B
330
1F
100
AcDbEntity
  8
PDF _0
440
 33554559
100
AcDbTrace
 10
666.7792768
 20
842.7520192000001
 30
0.0
 11
665.5920544
 21
842.7520192000001
 31
0.0
 12
666.6473632
 22
842.7520192000001
 32
0.0
 13
666.6473632
 23
842.7520192000001
 33
0.0
  0
SOLID
  5
57C
330
1F
100
AcDbEntity
  8
PDF _0
440
 33554559
100
AcDbTrace
 10
665.5920544
 20
842.7520192000001
 30
0.0
 11
666.6473632
 21
842.7520192000001
 31
0.0
 12
665.7239680000001
 22
842.7520192000001
 32
0.0
 13
665.7239680000001
 23
842.7520192000001
 33
0.0
  0
SOLID
  5
57D
330
1F
100
AcDbEntity
  8
PDF _0
440
 33554559
100
AcDbTrace
 10
666.6473632
 20
842.7520192000001
 30
0.0
 11
665.7239680000001
 21
842.7520192000001
 31
0.0
 12
666.5154496000001
 22
842.6201056000001
 32
0.0
 13
666.5154496000001
 23
842.6201056000001
 33
0.0
  0
SOLID
  5
57E
330
1F
100
AcDbEntity
  8
PDF _0
440
 33554559
100
AcDbTrace
 10
665.7239680000001
 20
842.7520192000001
 30
0.0
 11
666.5154496000001
 21
842.6201056000001
 31
0.0
 12
665.8558816000001
 22
842.6201056000001
 32
0.0
 13
665.8558816000001
 23
842.6201056000001
 33
0.0
  0
SOLID
  5
57F
330
1F
100
AcDbEntity
  8
PDF _0
440
 33554559
100
AcDbTrace
 10
666.5154496000001
 20
842.6201056000001
 30
0.0
 11
665.8558816000001
 21
842.6201056000001
 31
0.0
 12
665.9877952
 22
842.6201056000001
 32
0.0
 13
665.9877952
 23
842.6201056000001
 33
0.0
  0
SOLID
  5
580
330
1F
100
AcDbEntity
  8
PDF _0
440
 33554559
100
AcDbTrace
 10
665.8558816000001
 20
842.6201056000001
 30
0.0
 11
666.5154496000001
 21
842.6201056000001
 31
0.0
 12
666.5154496000001
 22
842.6201056000001
 32
0.0
 13
666.5154496000001
 23
842.6201056000001
 33
0.0
  0
SOLID
  5
581
330
1F
100
AcDbEntity
  8
PDF _0
440
 33554559
100
AcDbTrace
 10
665.9877952
 20
842.6201056000001
 30
0.0
 11
666.2516224
 21
842.6201056000001
 31
0.0
 12
666.2516224
 22
842.6201056000001
 32
0.0
 13
666.2516224
 23
842.6201056000001
 33
0.0
  0
SOLID
  5
582
330
1F
100
AcDbEntity
  8
PDF _0
440
 33554559
100
AcDbTrace
 10
666.2516224
 20
842.6201056000001
 30
0.0
 11
666.2516224
 21
842.6201056000001
 31
0.0
 12
665.9877952
 22
842.6201056000001
 32
0.0
 13
665.9877952
 23
842.6201056000001
 33
0.0
  0
SOLID
  5
583
330
1F
100
AcDbEntity
  8
PDF _0
440
 33554559
100
AcDbTrace
 10
666.2516224
 20
842.6201056000001
 30
0.0
 11
665.9877952
 21
842.6201056000001
 31
0.0
 12
666.5154496000001
 22
842.6201056000001
 32
0.0
 13
666.5154496000001
 23
842.6201056000001
 33
0.0
  0
LWPOLYLINE
  5
585
330
1F
100
AcDbEntity
  8
PDF _0
370
    25
100
AcDbPolyline
 90
        2
 70
     0
 43
0.0
 10
667.3069312000001
 20
844.3349824
 10
667.3069312000001
 20
854.7561568
  0
LWPOLYLINE
  5
586
330
1F
100
AcDbEntity
  8
PDF _0
370
    25
100
AcDbPolyline
 90
        3
 70
     0
 43
0.0
 10
666.7792768
 20
854.7561568
 10
666.2516224
 20
855.2838112000001
 10
665.5920544
 20
854.7561568
  0
SOLID
  5
587
330
1F
100
AcDbEntity
  8
PDF _0
440
 33554559
100
AcDbTrace
 10
666.2516224
 20
856.3391200000001
 30
0.0
 11
665.9877952
 21
856.3391200000001
 31
0.0
 12
665.9877952
 22
856.3391200000001
 32
0.0
 13
665.9877952
 23
856.3391200000001
 33
0.0
  0
SOLID
  5
588
330
1F
100
AcDbEntity
  8
PDF _0
440
 33554559
100
AcDbTrace
 10
666.5154496000001
 20
856.3391200000001
 30
0.0
 11
666.5154496000001
 21
856.3391200000001
 31
0.0
 12
665.9877952
 22
856.3391200000001
 32
0.0
 13
665.9877952
 23
856.3391200000001
 33
0.0
  0
SOLID
  5
589
330
1F
100
AcDbEntity
  8
PDF _0
440
 33554559
100
AcDbTrace
 10
666.5154496000001
 20
856.3391200000001
 30
0.0
 11
665.9877952
 21
856.3391200000001
 31
0.0
 12
666.2516224
 22
856.3391200000001
 32
0.0
 13
666.2516224
 23
856.3391200000001
 33
0.0
  0
SOLID
  5
58A
330
1F
100
AcDbEntity
  8
PDF _0
440
 33554559
100
AcDbTrace
 10
665.9877952
 20
856.3391200000001
 30
0.0
 11
666.5154496000001
 21
856.3391200000001
 31
0.0
 12
665.8558816000001
 22
856.3391200000001
 32
0.0
 13
665.8558816000001
 23
856.3391200000001
 33
0.0
  0
LWPOLYLINE
  5
58B
330
1F
100
AcDbEntity
  8
PDF _0
370
     0
100
AcDbPolyline
 90
        3
 70
     0
 43
0.0
 10
666.5154496000001
 20
856.3391200000001
 10
665.9877952
 20
856.3391200000001
 10
666.5154496000001
 20
856.3391200000001
  0
SOLID
  5
58C
330
1F
100
AcDbEntity
  8
PDF _0
440
 33554559
100
AcDbTrace
 10
666.5154496000001
 20
856.3391200000001
 30
0.0
 11
665.8558816000001
 21
856.3391200000001
 31
0.0
 12
666.6473632
 22
856.3391200000001
 32
0.0
 13
666.6473632
 23
856.3391200000001
 33
0.0
  0
SOLID
  5
58D
330
1F
100
AcDbEntity
  8
PDF _0
440
 33554559
100
AcDbTrace
 10
665.8558816000001
 20
856.3391200000001
 30
0.0
 11
666.6473632
 21
856.3391200000001
 31
0.0
 12
665.7239680000001
 22
856.3391200000001
 32
0.0
 13
665.7239680000001
 23
856.3391200000001
 33
0.0
  0
SOLID
  5
58E
330
1F
100
AcDbEntity
  8
PDF _0
440
 33554559
100
AcDbTrace
 10
666.6473632
 20
856.3391200000001
 30
0.0
 11
665.7239680000001
 21
856.3391200000001
 31
0.0
 12
666.7792768
 22
856.2072064000002
 32
0.0
 13
666.7792768
 23
856.2072064000002
 33
0.0
  0
SOLID
  5
58F
330
1F
100
AcDbEntity
  8
PDF _0
440
 33554559
100
AcDbTrace
 10
665.7239680000001
 20
856.3391200000001
 30
0.0
 11
666.7792768
 21
856.2072064000002
 31
0.0
 12
665.5920544
 22
856.2072064000002
 32
0.0
 13
665.5920544
 23
856.2072064000002
 33
0.0
  0
SOLID
  5
590
330
1F
100
AcDbEntity
  8
PDF _0
440
 33554559
100
AcDbTrace
 10
665.5920544
 20
856.2072064000002
 30
0.0
 11
666.7792768
 21
856.2072064000002
 31
0.0
 12
666.7792768
 22
856.2072064000002
 32
0.0
 13
666.7792768
 23
856.2072064000002
 33
0.0
  0
LWPOLYLINE
  5
591
330
1F
100
AcDbEntity
  8
PDF _0
370
     0
100
AcDbPolyline
 90
        3
 70
     0
 43
0.0
 10
666.7792768
 20
856.2072064000002
 10
665.5920544
 20
856.2072064000002
 10
666.7792768
 20
856.2072064000002
  0
SOLID
  5
592
330
1F
100
AcDbEntity
  8
PDF _0
440
 33554559
100
AcDbTrace
 10
666.7792768
 20
856.2072064000002
 30
0.0
 11
665.5920544
 21
856.2072064000002
 31
0.0
 12
666.9111904000001
 22
856.0752928000001
 32
0.0
 13
666.9111904000001
 23
856.0752928000001
 33
0.0
  0
SOLID
  5
593
330
1F
100
AcDbEntity
  8
PDF _0
440
 33554559
100
AcDbTrace
 10
665.5920544
 20
856.2072064000002
 30
0.0
 11
666.9111904000001
 21
856.0752928000001
 31
0.0
 12
665.4601408000001
 22
856.0752928000001
 32
0.0
 13
665.4601408000001
 23
856.0752928000001
 33
0.0
  0
SOLID
  5
594
330
1F
100
AcDbEntity
  8
PDF _0
440
 33554559
100
AcDbTrace
 10
667.0431040000001
 20
856.0752928000001
 30
0.0
 11
667.0431040000001
 21
856.0752928000001
 31
0.0
 12
665.4601408000001
 22
856.0752928000001
 32
0.0
 13
665.4601408000001
 23
856.0752928000001
 33
0.0
  0
SOLID
  5
595
330
1F
100
AcDbEntity
  8
PDF _0
440
 33554559
100
AcDbTrace
 10
667.0431040000001
 20
856.0752928000001
 30
0.0
 11
665.4601408000001
 21
856.0752928000001
 31
0.0
 12
666.9111904000001
 22
856.0752928000001
 32
0.0
 13
666.9111904000001
 23
856.0752928000001
 33
0.0
  0
SOLID
  5
596
330
1F
100
AcDbEntity
  8
PDF _0
440
 33554559
100
AcDbTrace
 10
667.0431040000001
 20
856.0752928000001
 30
0.0
 11
665.4601408000001
 21
856.0752928000001
 31
0.0
 12
667.0431040000001
 22
855.9433792000001
 32
0.0
 13
667.0431040000001
 23
855.9433792000001
 33
0.0
  0
SOLID
  5
597
330
1F
100
AcDbEntity
  8
PDF _0
440
 33554559
100
AcDbTrace
 10
665.4601408000001
 20
856.0752928000001
 30
0.0
 11
667.0431040000001
 21
855.9433792000001
 31
0.0
 12
665.3282272000001
 22
855.9433792000001
 32
0.0
 13
665.3282272000001
 23
855.9433792000001
 33
0.0
  0
SOLID
  5
598
330
1F
100
AcDbEntity
  8
PDF _0
440
 33554559
100
AcDbTrace
 10
667.1750176
 20
855.9433792000001
 30
0.0
 11
667.1750176
 21
855.9433792000001
 31
0.0
 12
665.3282272000001
 22
855.9433792000001
 32
0.0
 13
665.3282272000001
 23
855.9433792000001
 33
0.0
  0
SOLID
  5
599
330
1F
100
AcDbEntity
  8
PDF _0
440
 33554559
100
AcDbTrace
 10
667.1750176
 20
855.9433792000001
 30
0.0
 11
665.3282272000001
 21
855.9433792000001
 31
0.0
 12
667.0431040000001
 22
855.9433792000001
 32
0.0
 13
667.0431040000001
 23
855.9433792000001
 33
0.0
  0
SOLID
  5
59A
330
1F
100
AcDbEntity
  8
PDF _0
440
 33554559
100
AcDbTrace
 10
667.1750176
 20
855.9433792000001
 30
0.0
 11
665.3282272000001
 21
855.9433792000001
 31
0.0
 12
667.1750176
 22
855.8114656
 32
0.0
 13
667.1750176
 23
855.8114656
 33
0.0
  0
SOLID
  5
59B
330
1F
100
AcDbEntity
  8
PDF _0
440
 33554559
100
AcDbTrace
 10
665.3282272000001
 20
855.9433792000001
 30
0.0
 11
667.1750176
 21
855.8114656
 31
0.0
 12
665.1963136
 22
855.8114656
 32
0.0
 13
665.1963136
 23
855.8114656
 33
0.0
  0
SOLID
  5
59C
330
1F
100
AcDbEntity
  8
PDF _0
440
 33554559
100
AcDbTrace
 10
667.1750176
 20
855.8114656
 30
0.0
 11
665.1963136
 21
855.8114656
 31
0.0
 12
667.1750176
 22
855.6795520000001
 32
0.0
 13
667.1750176
 23
855.6795520000001
 33
0.0
  0
SOLID
  5
59D
330
1F
100
AcDbEntity
  8
PDF _0
440
 33554559
100
AcDbTrace
 10
665.1963136
 20
855.8114656
 30
0.0
 11
667.1750176
 21
855.6795520000001
 31
0.0
 12
665.1963136
 22
855.6795520000001
 32
0.0
 13
665.1963136
 23
855.6795520000001
 33
0.0
  0
SOLID
  5
59E
330
1F
100
AcDbEntity
  8
PDF _0
440
 33554559
100
AcDbTrace
 10
667.1750176
 20
855.6795520000001
 30
0.0
 11
665.1963136
 21
855.6795520000001
 31
0.0
 12
667.3069312000001
 22
855.5476384
 32
0.0
 13
667.3069312000001
 23
855.5476384
 33
0.0
  0
SOLID
  5
59F
330
1F
100
AcDbEntity
  8
PDF _0
440
 33554559
100
AcDbTrace
 10
665.1963136
 20
855.6795520000001
 30
0.0
 11
667.3069312000001
 21
855.5476384
 31
0.0
 12
665.1963136
 22
855.5476384
 32
0.0
 13
665.1963136
 23
855.5476384
 33
0.0
  0
SOLID
  5
5A0
330
1F
100
AcDbEntity
  8
PDF _0
440
 33554559
100
AcDbTrace
 10
667.3069312000001
 20
855.5476384
 30
0.0
 11
665.1963136
 21
855.5476384
 31
0.0
 12
665.0644
 22
855.5476384
 32
0.0
 13
665.0644
 23
855.5476384
 33
0.0
  0
SOLID
  5
5A1
330
1F
100
AcDbEntity
  8
PDF _0
440
 33554559
100
AcDbTrace
 10
665.1963136
 20
855.5476384
 30
0.0
 11
667.3069312000001
 21
855.5476384
 31
0.0
 12
667.3069312000001
 22
855.5476384
 32
0.0
 13
667.3069312000001
 23
855.5476384
 33
0.0
  0
SOLID
  5
5A2
330
1F
100
AcDbEntity
  8
PDF _0
440
 33554559
100
AcDbTrace
 10
667.3069312000001
 20
855.5476384
 30
0.0
 11
665.0644
 21
855.5476384
 31
0.0
 12
667.3069312000001
 22
855.4157248
 32
0.0
 13
667.3069312000001
 23
855.4157248
 33
0.0
  0
SOLID
  5
5A3
330
1F
100
AcDbEntity
  8
PDF _0
440
 33554559
100
AcDbTrace
 10
665.0644
 20
855.5476384
 30
0.0
 11
667.3069312000001
 21
855.4157248
 31
0.0
 12
665.0644
 22
855.4157248
 32
0.0
 13
665.0644
 23
855.4157248
 33
0.0
  0
SOLID
  5
5A4
330
1F
100
AcDbEntity
  8
PDF _0
440
 33554559
100
AcDbTrace
 10
667.3069312000001
 20
855.4157248
 30
0.0
 11
665.0644
 21
855.4157248
 31
0.0
 12
667.3069312000001
 22
855.2838112000001
 32
0.0
 13
667.3069312000001
 23
855.2838112000001
 33
0.0
  0
SOLID
  5
5A5
330
1F
100
AcDbEntity
  8
PDF _0
440
 33554559
100
AcDbTrace
 10
665.0644
 20
855.4157248
 30
0.0
 11
667.3069312000001
 21
855.2838112000001
 31
0.0
 12
665.0644
 22
855.2838112000001
 32
0.0
 13
665.0644
 23
855.2838112000001
 33
0.0
  0
SOLID
  5
5A6
330
1F
100
AcDbEntity
  8
PDF _0
440
 33554559
100
AcDbTrace
 10
667.3069312000001
 20
855.2838112000001
 30
0.0
 11
665.0644
 21
855.2838112000001
 31
0.0
 12
667.3069312000001
 22
855.1518976
 32
0.0
 13
667.3069312000001
 23
855.1518976
 33
0.0
  0
SOLID
  5
5A7
330
1F
100
AcDbEntity
  8
PDF _0
440
 33554559
100
AcDbTrace
 10
665.0644
 20
855.2838112000001
 30
0.0
 11
667.3069312000001
 21
855.1518976
 31
0.0
 12
665.0644
 22
855.1518976
 32
0.0
 13
665.0644
 23
855.1518976
 33
0.0
  0
SOLID
  5
5A8
330
1F
100
AcDbEntity
  8
PDF _0
440
 33554559
100
AcDbTrace
 10
665.0644
 20
855.1518976
 30
0.0
 11
667.3069312000001
 21
855.1518976
 31
0.0
 12
667.3069312000001
 22
855.1518976
 32
0.0
 13
667.3069312000001
 23
855.1518976
 33
0.0
  0
LWPOLYLINE
  5
5A9
330
1F
100
AcDbEntity
  8
PDF _0
370
     0
100
AcDbPolyline
 90
        3
 70
     0
 43
0.0
 10
667.3069312000001
 20
855.1518976
 10
665.0644
 20
855.1518976
 10
667.3069312000001
 20
855.1518976
  0
SOLID
  5
5AA
330
1F
100
AcDbEntity
  8
PDF _0
440
 33554559
100
AcDbTrace
 10
667.3069312000001
 20
855.1518976
 30
0.0
 11
665.0644
 21
855.1518976
 31
0.0
 12
667.3069312000001
 22
855.0199840000001
 32
0.0
 13
667.3069312000001
 23
855.0199840000001
 33
0.0
  0
SOLID
  5
5AB
330
1F
100
AcDbEntity
  8
PDF _0
440
 33554559
100
AcDbTrace
 10
665.0644
 20
855.1518976
 30
0.0
 11
667.3069312000001
 21
855.0199840000001
 31
0.0
 12
665.1963136
 22
855.0199840000001
 32
0.0
 13
665.1963136
 23
855.0199840000001
 33
0.0
  0
SOLID
  5
5AC
330
1F
100
AcDbEntity
  8
PDF _0
440
 33554559
100
AcDbTrace
 10
667.3069312000001
 20
855.0199840000001
 30
0.0
 11
665.1963136
 21
855.0199840000001
 31
0.0
 12
667.1750176
 22
854.8880704
 32
0.0
 13
667.1750176
 23
854.8880704
 33
0.0
  0
SOLID
  5
5AD
330
1F
100
AcDbEntity
  8
PDF _0
440
 33554559
100
AcDbTrace
 10
665.1963136
 20
855.0199840000001
 30
0.0
 11
667.1750176
 21
854.8880704
 31
0.0
 12
665.1963136
 22
854.8880704
 32
0.0
 13
665.1963136
 23
854.8880704
 33
0.0
  0
SOLID
  5
5AE
330
1F
100
AcDbEntity
  8
PDF _0
440
 33554559
100
AcDbTrace
 10
667.1750176
 20
854.8880704
 30
0.0
 11
665.1963136
 21
854.8880704
 31
0.0
 12
667.1750176
 22
854.7561568
 32
0.0
 13
667.1750176
 23
854.7561568
 33
0.0
  0
SOLID
  5
5AF
330
1F
100
AcDbEntity
  8
PDF _0
440
 33554559
100
AcDbTrace
 10
665.1963136
 20
854.8880704
 30
0.0
 11
667.1750176
 21
854.7561568
 31
0.0
 12
665.1963136
 22
854.7561568
 32
0.0
 13
665.1963136
 23
854.7561568
 33
0.0
  0
SOLID
  5
5B0
330
1F
100
AcDbEntity
  8
PDF _0
440
 33554559
100
AcDbTrace
 10
667.1750176
 20
854.7561568
 30
0.0
 11
665.1963136
 21
854.7561568
 31
0.0
 12
665.3282272000001
 22
854.7561568
 32
0.0
 13
665.3282272000001
 23
854.7561568
 33
0.0
  0
SOLID
  5
5B1
330
1F
100
AcDbEntity
  8
PDF _0
440
 33554559
100
AcDbTrace
 10
665.1963136
 20
854.7561568
 30
0.0
 11
667.1750176
 21
854.7561568
 31
0.0
 12
667.1750176
 22
854.7561568
 32
0.0
 13
667.1750176
 23
854.7561568
 33
0.0
  0
SOLID
  5
5B2
330
1F
100
AcDbEntity
  8
PDF _0
440
 33554559
100
AcDbTrace
 10
667.1750176
 20
854.7561568
 30
0.0
 11
665.3282272000001
 21
854.7561568
 31
0.0
 12
667.0431040000001
 22
854.6242432000001
 32
0.0
 13
667.0431040000001
 23
854.6242432000001
 33
0.0
  0
SOLID
  5
5B3
330
1F
100
AcDbEntity
  8
PDF _0
440
 33554559
100
AcDbTrace
 10
665.3282272000001
 20
854.7561568
 30
0.0
 11
667.0431040000001
 21
854.6242432000001
 31
0.0
 12
665.3282272000001
 22
854.6242432000001
 32
0.0
 13
665.3282272000001
 23
854.6242432000001
 33
0.0
  0
SOLID
  5
5B4
330
1F
100
AcDbEntity
  8
PDF _0
440
 33554559
100
AcDbTrace
 10
667.0431040000001
 20
854.6242432000001
 30
0.0
 11
665.3282272000001
 21
854.6242432000001
 31
0.0
 12
667.0431040000001
 22
854.4923296
 32
0.0
 13
667.0431040000001
 23
854.4923296
 33
0.0
  0
SOLID
  5
5B5
330
1F
100
AcDbEntity
  8
PDF _0
440
 33554559
100
AcDbTrace
 10
665.3282272000001
 20
854.6242432000001
 30
0.0
 11
667.0431040000001
 21
854.4923296
 31
0.0
 12
665.4601408000001
 22
854.4923296
 32
0.0
 13
665.4601408000001
 23
854.4923296
 33
0.0
  0
SOLID
  5
5B6
330
1F
100
AcDbEntity
  8
PDF _0
440
 33554559
100
AcDbTrace
 10
666.9111904000001
 20
854.4923296
 30
0.0
 11
666.9111904000001
 21
854.4923296
 31
0.0
 12
665.4601408000001
 22
854.4923296
 32
0.0
 13
665.4601408000001
 23
854.4923296
 33
0.0
  0
SOLID
  5
5B7
330
1F
100
AcDbEntity
  8
PDF _0
440
 33554559
100
AcDbTrace
 10
666.9111904000001
 20
854.4923296
 30
0.0
 11
665.4601408000001
 21
854.4923296
 31
0.0
 12
667.0431040000001
 22
854.4923296
 32
0.0
 13
667.0431040000001
 23
854.4923296
 33
0.0
  0
SOLID
  5
5B8
330
1F
100
AcDbEntity
  8
PDF _0
440
 33554559
100
AcDbTrace
 10
666.9111904000001
 20
854.4923296
 30
0.0
 11
665.4601408000001
 21
854.4923296
 31
0.0
 12
666.7792768
 22
854.3604160000001
 32
0.0
 13
666.7792768
 23
854.3604160000001
 33
0.0
  0
SOLID
  5
5B9
330
1F
100
AcDbEntity
  8
PDF _0
440
 33554559
100
AcDbTrace
 10
665.4601408000001
 20
854.4923296
 30
0.0
 11
666.7792768
 21
854.3604160000001
 31
0.0
 12
665.5920544
 22
854.3604160000001
 32
0.0
 13
665.5920544
 23
854.3604160000001
 33
0.0
  0
SOLID
  5
5BA
330
1F
100
AcDbEntity
  8
PDF _0
440
 33554559
100
AcDbTrace
 10
665.5920544
 20
854.3604160000001
 30
0.0
 11
666.7792768
 21
854.3604160000001
 31
0.0
 12
666.7792768
 22
854.3604160000001
 32
0.0
 13
666.7792768
 23
854.3604160000001
 33
0.0
  0
LWPOLYLINE
  5
5BB
330
1F
100
AcDbEntity
  8
PDF _0
370
     0
100
AcDbPolyline
 90
        3
 70
     0
 43
0.0
 10
666.7792768
 20
854.3604160000001
 10
665.5920544
 20
854.3604160000001
 10
666.7792768
 20
854.3604160000001
  0
SOLID
  5
5BC
330
1F
100
AcDbEntity
  8
PDF _0
440
 33554559
100
AcDbTrace
 10
666.7792768
 20
854.3604160000001
 30
0.0
 11
665.5920544
 21
854.3604160000001
 31
0.0
 12
666.6473632
 22
854.3604160000001
 32
0.0
 13
666.6473632
 23
854.3604160000001
 33
0.0
  0
SOLID
  5
5BD
330
1F
100
AcDbEntity
  8
PDF _0
440
 33554559
100
AcDbTrace
 10
665.5920544
 20
854.3604160000001
 30
0.0
 11
666.6473632
 21
854.3604160000001
 31
0.0
 12
665.7239680000001
 22
854.3604160000001
 32
0.0
 13
665.7239680000001
 23
854.3604160000001
 33
0.0
  0
SOLID
  5
5BE
330
1F
100
AcDbEntity
  8
PDF _0
440
 33554559
100
AcDbTrace
 10
666.6473632
 20
854.3604160000001
 30
0.0
 11
665.7239680000001
 21
854.3604160000001
 31
0.0
 12
666.5154496000001
 22
854.2285024000001
 32
0.0
 13
666.5154496000001
 23
854.2285024000001
 33
0.0
  0
SOLID
  5
5BF
330
1F
100
AcDbEntity
  8
PDF _0
440
 33554559
100
AcDbTrace
 10
665.7239680000001
 20
854.3604160000001
 30
0.0
 11
666.5154496000001
 21
854.2285024000001
 31
0.0
 12
665.8558816000001
 22
854.2285024000001
 32
0.0
 13
665.8558816000001
 23
854.2285024000001
 33
0.0
  0
SOLID
  5
5C0
330
1F
100
AcDbEntity
  8
PDF _0
440
 33554559
100
AcDbTrace
 10
666.5154496000001
 20
854.2285024000001
 30
0.0
 11
665.8558816000001
 21
854.2285024000001
 31
0.0
 12
665.9877952
 22
854.2285024000001
 32
0.0
 13
665.9877952
 23
854.2285024000001
 33
0.0
  0
SOLID
  5
5C1
330
1F
100
AcDbEntity
  8
PDF _0
440
 33554559
100
AcDbTrace
 10
665.8558816000001
 20
854.2285024000001
 30
0.0
 11
666.5154496000001
 21
854.2285024000001
 31
0.0
 12
666.5154496000001
 22
854.2285024000001
 32
0.0
 13
666.5154496000001
 23
854.2285024000001
 33
0.0
  0
SOLID
  5
5C2
330
1F
100
AcDbEntity
  8
PDF _0
440
 33554559
100
AcDbTrace
 10
665.9877952
 20
854.2285024000001
 30
0.0
 11
666.2516224
 21
854.2285024000001
 31
0.0
 12
666.2516224
 22
854.2285024000001
 32
0.0
 13
666.2516224
 23
854.2285024000001
 33
0.0
  0
SOLID
  5
5C3
330
1F
100
AcDbEntity
  8
PDF _0
440
 33554559
100
AcDbTrace
 10
666.2516224
 20
854.2285024000001
 30
0.0
 11
666.2516224
 21
854.2285024000001
 31
0.0
 12
665.9877952
 22
854.2285024000001
 32
0.0
 13
665.9877952
 23
854.2285024000001
 33
0.0
  0
SOLID
  5
5C4
330
1F
100
AcDbEntity
  8
PDF _0
440
 33554559
100
AcDbTrace
 10
666.2516224
 20
854.2285024000001
 30
0.0
 11
665.9877952
 21
854.2285024000001
 31
0.0
 12
666.5154496000001
 22
854.2285024000001
 32
0.0
 13
666.5154496000001
 23
854.2285024000001
 33
0.0
  0
LWPOLYLINE
  5
5C6
330
1F
100
AcDbEntity
  8
PDF _0
370
    25
100
AcDbPolyline
 90
        4
 70
     0
 43
0.0
 10
220.6474816
 20
854.7561568
 10
665.5920544
 20
854.7561568
 10
665.5920544
 20
844.3349824
 10
220.6474816
 20
844.3349824
  0
LWPOLYLINE
  5
5C7
330
1F
100
AcDbEntity
  8
PDF _0
370
    25
100
AcDbPolyline
 90
        4
 70
     1
 43
0.0
 10
284.6255776
 20
836.55208
 10
297.8169376000001
 20
836.55208
 10
297.8169376000001
 20
844.3349824
 10
284.6255776
 20
844.3349824
  0
LWPOLYLINE
  5
5C8
330
1F
100
AcDbEntity
  8
PDF _0
370
    25
100
AcDbPolyline
 90
        4
 70
     1
 43
0.0
 10
699.2300224
 20
1026.2438368
 10
685.5110080000001
 20
1026.2438368
 10
685.5110080000001
 20
1333.4706112
 10
699.2300224
 20
1333.4706112
  0
LWPOLYLINE
  5
5C9
330
1F
100
AcDbEntity
  8
PDF _0
370
    25
100
AcDbPolyline
 90
        4
 70
     1
 43
0.0
 10
699.2300224
 20
1333.4706112
 10
685.5110080000001
 20
1333.4706112
 10
685.5110080000001
 20
1477.9160032
 10
699.2300224
 20
1477.9160032
  0
LWPOLYLINE
  5
5CA
330
1F
100
AcDbEntity
  8
PDF _0
370
    25
100
AcDbPolyline
 90
        6
 70
     0
 43
0.0
 10
717.4340992000001
 20
815.0501632
 10
667.3069312000001
 20
815.0501632
 10
717.4340992000001
 20
815.0501632
 10
717.4340992000001
 20
813.9948544000001
 10
667.3069312000001
 20
813.9948544000001
 10
667.3069312000001
 20
815.0501632
  0
LWPOLYLINE
  5
5CB
330
1F
100
AcDbEntity
  8
PDF _0
370
    25
100
AcDbPolyline
 90
        4
 70
     1
 43
0.0
 10
700.4172448000002
 20
803.9694208
 10
684.4556992000001
 20
803.9694208
 10
684.4556992000001
 20
813.9948544000001
 10
700.4172448000002
 20
813.9948544000001
  0
LWPOLYLINE
  5
5CC
330
1F
100
AcDbEntity
  8
PDF _0
370
    25
100
AcDbPolyline
 90
        2
 70
     0
 43
0.0
 10
341.3484256
 20
955.1424064
 10
240.962176
 20
955.1424064
  0
ARC
  5
5CD
330
1F
100
AcDbEntity
  8
PDF _0
370
    25
100
AcDbCircle
 10
291.1553008
 20
909.0038475209599
 30
0.0
 40
67.8211204904822
100
AcDbArc
 50
42.26168134488253
 51
137.7383186551174
  0
ARC
  5
5CE
330
1F
100
AcDbEntity
  8
PDF _0
370
    25
100
AcDbCircle
 10
291.8038172149736
 20
898.6315372064172
 30
0.0
 40
74.40955662140871
100
AcDbArc
 50
323.868029575088
 51
48.7957392207447
  0
ARC
  5
5CF
330
1F
100
AcDbEntity
  8
PDF _0
370
    25
100
AcDbCircle
 10
291.5051208688987
 20
898.5353951691054
 30
0.0
 40
75.05495020590834
100
AcDbArc
 50
131.6535430133729
 51
215.6826881907947
  0
LWPOLYLINE
  5
5D0
330
1F
100
AcDbEntity
  8
PDF _0
370
    25
100
AcDbPolyline
 90
        3
 70
     0
 43
0.0
 10
238.8515584
 20
844.3349824
 10
249.2727328
 20
836.0244256000001
 10
261.408784
 20
829.4287456000001
  0
LWPOLYLINE
  5
5D1
330
1F
100
AcDbEntity
  8
PDF _0
370
    25
100
AcDbPolyline
 90
        3
 70
     0
 43
0.0
 10
321.0337312
 20
829.4287456000001
 10
333.1697824
 20
836.0244256000001
 10
343.5909568000001
 20
844.3349824
  0
LWPOLYLINE
  5
5D2
330
1F
100
AcDbEntity
  8
PDF _0
370
    25
100
AcDbPolyline
 90
       12
 70
     1
 43
0.0
 10
1043.3926048
 20
884.5686304
 10
1051.1755072
 20
891.6919648
 10
1059.3541504
 20
897.2323360000002
 10
1068.720016
 20
901.5854848000001
 10
1078.0858816
 20
904.8833248000001
 10
1088.6389696
 20
906.5982016000001
 10
1098.5324896
 20
906.5982016000001
 10
1109.0855776
 20
904.8833248000001
 10
1118.4514432
 20
901.5854848000001
 10
1127.8173088
 20
897.2323360000002
 10
1135.995952
 20
891.6919648
 10
1143.7788544
 20
884.5686304
  0
ARC
  5
5D3
330
1F
100
AcDbEntity
  8
PDF _0
370
    25
100
AcDbCircle
 10
1093.585729599999
 20
828.2449039003015
 30
0.0
 40
75.09341593552663
100
AcDbArc
 50
131.4053947385835
 51
48.59460526141519
  0
LWPOLYLINE
  5
5D4
330
1F
100
AcDbEntity
  8
PDF _0
370
    25
100
AcDbPolyline
 90
        2
 70
     0
 43
0.0
 10
925.3299328000002
 20
885.6239392
 10
825.0755968000001
 20
885.6239392
  0
ARC
  5
5D5
330
1F
100
AcDbEntity
  8
PDF _0
370
    25
100
AcDbCircle
 10
875.2027648
 20
931.5974086035918
 30
0.0
 40
67.66132627314444
100
AcDbArc
 50
222.1957810662279
 51
317.8042189337721
  0
LWPOLYLINE
  5
5D6
330
1F
100
AcDbEntity
  8
PDF _0
370
    25
100
AcDbPolyline
 90
        3
 70
     0
 43
0.0
 10
927.5724640000001
 20
996.4313632000001
 10
917.1512896000001
 20
1004.74192
 10
905.0152384000002
 20
1011.3376
  0
LWPOLYLINE
  5
5D7
330
1F
100
AcDbEntity
  8
PDF _0
370
    25
100
AcDbPolyline
 90
        3
 70
     0
 43
0.0
 10
845.3902912
 20
1011.3376
 10
833.2542400000001
 20
1004.74192
 10
822.8330656000002
 20
996.4313632000001
  0
LWPOLYLINE
  5
5D8
330
1F
100
AcDbEntity
  8
PDF _0
370
    25
100
AcDbPolyline
 90
        7
 70
     0
 43
0.0
 10
814.5225088
 20
986.0101888
 10
808.4544832000002
 20
977.1719776000001
 10
804.6289888
 20
967.2784576000001
 10
801.8588032000002
 20
956.7253696000001
 10
800.1439264000001
 20
946.3041952000001
 10
800.8034944
 20
935.8830208
 10
802.3864576000001
 20
925.3299328
  0
LWPOLYLINE
  5
5D9
330
1F
100
AcDbEntity
  8
PDF _0
370
    25
100
AcDbPolyline
 90
        4
 70
     0
 43
0.0
 10
805.1566432000001
 20
914.9087584000001
 10
810.6970144000001
 20
904.3556704000002
 10
817.2926944
 20
894.4621504
 10
825.6032512
 20
886.1515936000001
  0
LWPOLYLINE
  5
5DA
330
1F
100
AcDbEntity
  8
PDF _0
370
    25
100
AcDbPolyline
 90
        4
 70
     0
 43
0.0
 10
924.8022784000001
 20
886.1515936000001
 10
933.1128352000002
 20
894.4621504
 10
939.7085152000002
 20
904.3556704000002
 10
945.2488864000001
 20
914.9087584000001
  0
LWPOLYLINE
  5
5DB
330
1F
100
AcDbEntity
  8
PDF _0
370
    25
100
AcDbPolyline
 90
        7
 70
     0
 43
0.0
 10
948.0190720000001
 20
925.3299328
 10
949.6020352000002
 20
935.8830208
 10
950.2616032000002
 20
946.3041952000001
 10
948.5467264000002
 20
956.7253696000001
 10
945.7765408000001
 20
967.2784576000001
 10
941.9510464000001
 20
977.1719776000001
 10
935.8830208000002
 20
986.0101888
  0
LWPOLYLINE
  5
5DC
330
1F
100
AcDbEntity
  8
PDF _0
370
    25
100
AcDbPolyline
 90
       12
 70
     1
 43
0.0
 10
559.7973472000001
 20
956.1977152
 10
459.4110976
 20
956.1977152
 10
467.0620864
 20
949.0743808000001
 10
475.3726432
 20
943.5340096
 10
484.7385088000001
 20
939.1808608000001
 10
494.1043744
 20
935.8830208
 10
504.6574624
 20
934.168144
 10
514.5509824
 20
934.168144
 10
524.9721568
 20
935.8830208
 10
534.3380223999999
 20
939.1808608000001
 10
543.703888
 20
943.5340096
 10
552.0144448
 20
949.0743808000001
  0
ARC
  5
5DD
330
1F
100
AcDbEntity
  8
PDF _0
370
    25
100
AcDbCircle
 10
509.6042224000003
 20
1012.521441699698
 30
0.0
 40
75.09341593552711
100
AcDbArc
 50
311.405394738584
 51
228.5946052614157
  0
LWPOLYLINE
  5
5DE
330
1F
100
AcDbEntity
  8
PDF _0
370
    25
100
AcDbPolyline
 90
        4
 70
     1
 43
0.0
 10
190.835008
 20
995.9037088
 10
220.6474816
 20
995.9037088
 10
220.6474816
 20
984.295312
 10
190.835008
 20
984.295312
  0
LWPOLYLINE
  5
5DF
330
1F
100
AcDbEntity
  8
PDF _0
370
    25
100
AcDbPolyline
 90
        4
 70
     1
 43
0.0
 10
190.835008
 20
855.2838112000001
 10
220.6474816
 20
855.2838112000001
 10
220.6474816
 20
843.6754144000001
 10
190.835008
 20
843.6754144000001
  0
LWPOLYLINE
  5
5E0
330
1F
100
AcDbEntity
  8
PDF _0
370
    25
100
AcDbPolyline
 90
        4
 70
     1
 43
0.0
 10
409.152016
 20
927.0448096
 10
438.9644896
 20
927.0448096
 10
438.9644896
 20
914.9087584000001
 10
409.152016
 20
914.9087584000001
  0
LWPOLYLINE
  5
5E1
330
1F
100
AcDbEntity
  8
PDF _0
370
    25
100
AcDbPolyline
 90
        4
 70
     1
 43
0.0
 10
945.2488864000001
 20
997.6185856
 10
975.5890144000002
 20
997.6185856
 10
975.5890144000002
 20
985.4825344000001
 10
945.2488864000001
 20
985.4825344000001
  0
LWPOLYLINE
  5
5E2
330
1F
100
AcDbEntity
  8
PDF _0
370
    25
100
AcDbPolyline
 90
        4
 70
     1
 43
0.0
 10
1163.5658944
 20
925.8575872000001
 10
1193.9060224
 20
925.8575872000001
 10
1193.9060224
 20
913.721536
 10
1163.5658944
 20
913.721536
  0
LWPOLYLINE
  5
5E3
330
1F
100
AcDbEntity
  8
PDF _0
370
    25
100
AcDbPolyline
 90
        4
 70
     1
 43
0.0
 10
945.2488864000001
 20
856.4710336
 10
975.5890144000002
 20
856.4710336
 10
975.5890144000002
 20
844.8626368000001
 10
945.2488864000001
 20
844.8626368000001
  0
ARC
  5
5E4
330
1F
100
AcDbEntity
  8
PDF _0
370
    25
100
AcDbCircle
 10
875.2687863094475
 20
1082.76875049033
 30
0.0
 40
74.99281096200824
100
AcDbArc
 50
310.3802603373718
 51
229.6197396626285
  0
LWPOLYLINE
  5
5E5
330
1F
100
AcDbEntity
  8
PDF _0
370
    25
100
AcDbPolyline
 90
        4
 70
     0
 43
0.0
 10
825.2075104000001
 20
1025.5842688
 10
925.1980192000001
 20
1025.5842688
 42
-0.1820226791746103
 10
880.4793088000002
 20
1004.74192
 10
869.9262208000002
 20
1004.74192
  0
ARC
  5
5E6
330
1F
100
AcDbEntity
  8
PDF _0
370
    25
100
AcDbCircle
 10
875.268671455224
 20
1074.590062302406
 30
0.0
 40
69.98004312926259
100
AcDbArc
 50
224.4341548576772
 51
265.6989066862028
  0
LWPOLYLINE
  5
5E9
330
1F
100
AcDbEntity
  8
PDF _0
370
    25
100
AcDbPolyline
 90
        4
 70
     1
 43
0.0
 10
647.3879776000001
 20
1508.9156992
 10
737.3530528000001
 20
1508.9156992
 10
737.3530528000001
 20
1478.971312
 10
647.3879776000001
 20
1478.971312
  0
LWPOLYLINE
  5
5EA
330
1F
100
AcDbEntity
  8
PDF _0
370
    25
100
AcDbPolyline
 90
        4
 70
     1
 43
0.0
 10
642.3752608
 20
1478.971312
 10
742.3657696000001
 20
1478.971312
 10
742.3657696000001
 20
1477.9160032
 10
642.3752608
 20
1477.9160032
  0
LWPOLYLINE
  5
5ED
330
1F
100
AcDbEntity
  8
PDF _0
370
    25
100
AcDbPolyline
 90
        2
 70
     0
 43
0.0
 10
198.4859968
 20
640.3965568000001
 10
1186.2550336
 20
640.3965568000001
  0
SOLID
  5
5EE
330
1F
100
AcDbEntity
  8
PDF _0
440
 33554559
100
AcDbTrace
 10
198.4859968
 20
641.7156928
 30
0.0
 11
198.4859968
 21
639.2093344
 31
0.0
 12
190.835008
 22
640.3965568000001
 32
0.0
 13
190.835008
 23
640.3965568000001
 33
0.0
  0
SOLID
  5
5EF
330
1F
100
AcDbEntity
  8
PDF _0
440
 33554559
100
AcDbTrace
 10
1186.2550336
 20
641.7156928
 30
0.0
 11
1186.2550336
 21
639.2093344
 31
0.0
 12
1193.9060224
 22
640.3965568000001
 32
0.0
 13
1193.9060224
 23
640.3965568000001
 33
0.0
  0
ARC
  5
5F0
330
1F
100
AcDbEntity
  8
PDF _0
370
    25
100
AcDbCircle
 10
291.2212576000004
 20
758.1763105865327
 30
0.0
 40
75.06667571211591
100
AcDbArc
 50
131.3562914285627
 51
48.64370857143764
  0
LWPOLYLINE
  5
5F3
330
1F
100
AcDbEntity
  8
PDF _0
370
    25
100
AcDbPolyline
 90
        2
 70
     0
 43
0.0
 10
147.0396928
 20
691.9747744000001
 10
147.0396928
 20
1501.7923648
  0
SOLID
  5
5F4
330
1F
100
AcDbEntity
  8
PDF _0
440
 33554559
100
AcDbTrace
 10
145.7205568
 20
691.9747744000001
 30
0.0
 11
148.3588288
 21
691.9747744000001
 31
0.0
 12
147.0396928
 22
684.1918720000001
 32
0.0
 13
147.0396928
 23
684.1918720000001
 33
0.0
  0
SOLID
  5
5F5
330
1F
100
AcDbEntity
  8
PDF _0
440
 33554559
100
AcDbTrace
 10
145.7205568
 20
1501.7923648
 30
0.0
 11
148.3588288
 21
1501.7923648
 31
0.0
 12
147.0396928
 22
1509.4433536
 32
0.0
 13
147.0396928
 23
1509.4433536
 33
0.0
  0
LWPOLYLINE
  5
611
330
1F
100
AcDbEntity
  8
PDF _0
370
    25
100
AcDbPolyline
 90
        3
 70
     0
 43
0.0
 10
928.3639456000001
 20
1146.0213856
 10
933.2447488000001
 20
1151.9574976
 10
984.6910528000002
 20
1151.9574976
  0
SOLID
  5
612
330
1F
100
AcDbEntity
  8
PDF _0
440
 33554559
100
AcDbTrace
 10
927.3086368000001
 20
1146.9447808
 30
0.0
 11
929.2873408000001
 21
1145.229904
 31
0.0
 12
923.3512288000001
 22
1140.2171872
 32
0.0
 13
923.3512288000001
 23
1140.2171872
 33
0.0
  0
MTEXT
  5
85D
330
1F
100
AcDbEntity
  8
PDF _Testo
100
AcDbMText
 10
936.8064160000002
 20
1151.048072709808
 30
0.0
 40
16.00042281806719
 41
0.0
 46
0.0
 71
     7
 72
     5
  1
∅150
  7
PDF Microsoft YaHei
 73
     1
 44
1.0
  0
MTEXT
  5
85F
330
1F
100
AcDbEntity
  8
PDF _Testo
100
AcDbMText
 10
660.0516832000001
 20
638.4767815072193
 30
0.0
 40
16.00042281806719
 41
0.0
 46
0.0
 71
     7
 72
     5
  1
∅1000
  7
PDF Microsoft YaHei
 73
     1
 44
1.0
  0
MTEXT
  5
86B
330
1F
100
AcDbEntity
  8
PDF _Testo
100
AcDbMText
 10
142.9551114585344
 20
1078.2177952
 30
0.0
 40
16.00042281806719
 41
0.0
 46
0.0
 71
     7
 72
     5
  1
820
  7
PDF Microsoft YaHei
 11
0.0000000000000001
 21
1.0
 31
0.0
 73
     1
 44
1.0
  0
ENDSEC
  0
SECTION
  2
OBJECTS
  0
DICTIONARY
  5
C
330
0
100
AcDbDictionary
281
     1
  3
ACAD_CIP_PREVIOUS_PRODUCT_INFO
350
216
  3
ACAD_COLOR
350
6B
  3
ACAD_DETAILVIEWSTYLE
350
21B
  3
ACAD_GROUP
350
D
  3
ACAD_LAYOUT
350
1A
  3
ACAD_MATERIAL
350
6A
  3
ACAD_MLEADERSTYLE
350
12D
  3
ACAD_MLINESTYLE
350
17
  3
ACAD_PLOTSETTINGS
350
19
  3
ACAD_PLOTSTYLENAME
350
E
  3
ACAD_SCALELIST
350
10C
  3
ACAD_SECTIONVIEWSTYLE
350
219
  3
ACAD_TABLESTYLE
350
7E
  3
ACAD_VISUALSTYLE
350
EF
  3
ACDB_RECOMPOSE_DATA
350
87D
  3
AcDbVariableDictionary
350
5E
  3
AcDsDecomposeData
350
883
  0
DICTIONARY
  5
1FF
330
2
100
AcDbDictionary
280
     1
281
     1
  3
ACAD_LAYERSTATES
360
200
  0
DICTIONARY
  5
13C
330
10
100
AcDbDictionary
280
     1
281
     1
  0
DICTIONARY
  5
1CE
330
1F
100
AcDbDictionary
280
     1
281
     1
  0
XRECORD
  5
216
102
{ACAD_REACTORS
330
C
102
}
330
C
100
AcDbXrecord
280
     1
300
ACD
300
2022
300

  0
DICTIONARY
  5
6B
102
{ACAD_REACTORS
330
C
102
}
330
C
100
AcDbDictionary
281
     1
  0
DICTIONARY
  5
21B
102
{ACAD_REACTORS
330
C
102
}
330
C
100
AcDbDictionary
281
     1
  3
Metric50
350
21C
  0
DICTIONARY
  5
D
102
{ACAD_REACTORS
330
C
102
}
330
C
100
AcDbDictionary
281
     1
  0
DICTIONARY
  5
1A
102
{ACAD_REACTORS
330
C
102
}
330
C
100
AcDbDictionary
281
     1
  3
Layout1
350
D3
  3
Layout2
350
D7
  3
Model
350
22
  0
DICTIONARY
  5
6A
102
{ACAD_REACTORS
330
C
102
}
330
C
100
AcDbDictionary
281
     1
  3
ByBlock
350
ED
  3
ByLayer
350
EC
  3
Global
350
EE
  0
DICTIONARY
  5
12D
102
{ACAD_REACTORS
330
C
102
}
330
C
100
AcDbDictionary
281
     1
  3
Annotativa
350
13B
  3
Standard
350
12E
  0
DICTIONARY
  5
17
102
{ACAD_REACTORS
330
C
102
}
330
C
100
AcDbDictionary
281
     1
  3
Standard
350
18
  0
DICTIONARY
  5
19
102
{ACAD_REACTORS
330
C
102
}
330
C
100
AcDbDictionary
281
     1
  0
ACDBDICTIONARYWDFLT
  5
E
102
{ACAD_REACTORS
330
C
102
}
330
C
100
AcDbDictionary
281
     1
  3
Normal
350
F
100
AcDbDictionaryWithDefault
340
F
  0
DICTIONARY
  5
10C
102
{ACAD_REACTORS
330
C
102
}
330
C
100
AcDbDictionary
281
     1
  3
A0
350
10D
  3
A1
350
1BE
  3
A2
350
1BF
  3
A3
350
1C0
  3
A4
350
1C1
  3
A5
350
1C2
  3
A6
350
1C3
  3
A7
350
1C4
  3
A8
350
1C5
  3
A9
350
1C6
  3
B0
350
1C7
  3
B1
350
1C8
  3
B2
350
1C9
  3
B3
350
1CA
  3
B4
350
1CB
  3
B5
350
1CC
  3
B6
350
1CD
  0
DICTIONARY
  5
219
102
{ACAD_REACTORS
330
C
102
}
330
C
100
AcDbDictionary
281
     1
  3
Metric50
350
21A
  0
DICTIONARY
  5
7E
102
{ACAD_REACTORS
330
C
102
}
330
C
100
AcDbDictionary
281
     1
  3
Standard
350
7F
  0
DICTIONARY
  5
EF
102
{ACAD_REACTORS
330
C
102
}
330
C
100
AcDbDictionary
281
     1
  3
2dWireframe
350
F5
  3
Basic
350
F4
  3
Brighten
350
FB
  3
ColorChange
350
FF
  3
Conceptual
350
F8
  3
Dim
350
FA
  3
EdgeColorOff
350
1E6
  3
Facepattern
350
FE
  3
Flat
350
F0
  3
FlatWithEdges
350
F1
  3
Gouraud
350
F2
  3
GouraudWithEdges
350
F3
  3
Hidden
350
F7
  3
JitterOff
350
1E4
  3
Linepattern
350
FD
  3
OverhangOff
350
1E5
  3
Realistic
350
F9
  3
Shaded
350
1F3
  3
Shaded with edges
350
1F2
  3
Shades of Gray
350
1EF
  3
Sketchy
350
1F0
  3
Thicken
350
FC
  3
Wireframe
350
F6
  3
X-Ray
350
1F1
  0
XRECORD
  5
87D
102
{ACAD_REACTORS
330
C
102
}
330
C
100
AcDbXrecord
280
     1
 90
        1
330
7F
  0
DICTIONARY
  5
5E
102
{ACAD_REACTORS
330
C
102
}
330
C
100
AcDbDictionary
281
     1
  3
CANNOSCALE
350
146
  3
CENTEREXE
350
259
  3
CENTERLTYPEFILE
350
25A
  3
CMLEADERSTYLE
350
145
  3
CTABLESTYLE
350
84
  3
CVIEWDETAILSTYLE
350
227
  3
CVIEWSECTIONSTYLE
350
228
  3
DIMASSOC
350
5F
  3
HIDETEXT
350
63
  3
LAYEREVAL
350
1AE
  3
LAYERNOTIFY
350
1AF
  0
DICTIONARY
  5
883
102
{ACAD_REACTORS
330
C
102
}
330
C
100
AcDbDictionary
281
     1
  3
AcDsRecords
350
885
  3
AcDsSchemas
350
884
1001
ACAD
1070
     2
  0
DICTIONARY
  5
200
102
{ACAD_REACTORS
330
1FF
102
}
330
1FF
100
AcDbDictionary
281
     1
  0
ACDBDETAILVIEWSTYLE
  5
21C
102
{ACAD_XDICTIONARY
360
888
102
}
102
{ACAD_REACTORS
330
21B
102
}
330
21B
100
AcDbModelDocViewStyle
 70
     0
  3
Metric50
290
     0
100
AcDbDetailViewStyle
 70
     0
 71
     0
 90
        3
 71
     1
340
11
 62
   256
 40
5.0
340
0
 62
   256
 40
5.0
300

 40
0.0
280
     1
 71
     2
340
16
 90
       25
 62
   256
 71
     3
340
11
 62
   256
 40
5.0
 90
        0
 40
15.0
 90
        1
300
%<\AcVar ViewDetailId>% (%<\AcVar ViewScale \f "%sn">%)
 71
     4
340
16
 90
       25
 62
   256
340
16
 90
       25
 62
   256
280
     0
  0
LAYOUT
  5
D3
102
{ACAD_REACTORS
330
1A
102
}
330
1A
100
AcDbPlotSettings
  1

  2
C:\Documents and Settings\basas\Application Data\Autodesk\AutoCAD 2005\R16.1\enu\plotters\Default Windows System Printer.pc3
  4

  6

 40
0.0
 41
0.0
 42
0.0
 43
0.0
 44
0.0
 45
0.0
 46
0.0
 47
0.0
 48
0.0
 49
0.0
140
0.0
141
0.0
142
1.0
143
1.0
 70
   688
 72
     0
 73
     0
 74
     5
  7

 75
    16
147
1.0
 76
     0
 77
     2
 78
   300
148
0.0
149
0.0
100
AcDbLayout
  1
Layout1
 70
     1
 71
     1
 10
0.0
 20
0.0
 11
12.0
 21
9.0
 12
0.0
 22
0.0
 32
0.0
 14
0.0
 24
0.0
 34
0.0
 15
0.0
 25
0.0
 35
0.0
146
0.0
 13
0.0
 23
0.0
 33
0.0
 16
1.0
 26
0.0
 36
0.0
 17
0.0
 27
1.0
 37
0.0
 76
     0
330
D2
  0
LAYOUT
  5
D7
102
{ACAD_REACTORS
330
1A
102
}
330
1A
100
AcDbPlotSettings
  1

  2
C:\Documents and Settings\basas\Application Data\Autodesk\AutoCAD 2005\R16.1\enu\plotters\Default Windows System Printer.pc3
  4

  6

 40
0.0
 41
0.0
 42
0.0
 43
0.0
 44
0.0
 45
0.0
 46
0.0
 47
0.0
 48
0.0
 49
0.0
140
0.0
141
0.0
142
1.0
143
1.0
 70
   688
 72
     0
 73
     0
 74
     5
  7

 75
    16
147
1.0
 76
     0
 77
     2
 78
   300
148
0.0
149
0.0
100
AcDbLayout
  1
Layout2
 70
     1
 71
     2
 10
0.0
 20
0.0
 11
12.0
 21
9.0
 12
0.0
 22
0.0
 32
0.0
 14
0.0
 24
0.0
 34
0.0
 15
0.0
 25
0.0
 35
0.0
146
0.0
 13
0.0
 23
0.0
 33
0.0
 16
1.0
 26
0.0
 36
0.0
 17
0.0
 27
1.0
 37
0.0
 76
     0
330
D6
  0
LAYOUT
  5
22
102
{ACAD_XDICTIONARY
360
205
102
}
102
{ACAD_REACTORS
330
1A
102
}
330
1A
100
AcDbPlotSettings
  1

  2
none_device
  4
ISO_A4_(210.00_x_297.00_MM)
  6

 40
7.5
 41
20.0
 42
7.5
 43
20.0
 44
210.0
 45
297.0
 46
11.54999923706054
 47
-13.65000009536743
 48
0.0
 49
0.0
140
0.0
141
0.0
142
1.0
143
8.704084754739808
 70
 11952
 72
     1
 73
     0
 74
     0
  7

 75
     0
147
0.1148885871608098
 76
     0
 77
     2
 78
   300
148
0.0
149
0.0
100
AcDbLayout
  1
Model
 70
     1
 71
     0
 10
0.0
 20
0.0
 11
12.0
 21
9.0
 12
0.0
 22
0.0
 32
0.0
 14
0.0
 24
0.0
 34
0.0
 15
0.0
 25
0.0
 35
0.0
146
0.0
 13
0.0
 23
0.0
 33
0.0
 16
1.0
 26
0.0
 36
0.0
 17
0.0
 27
1.0
 37
0.0
 76
     0
330
1F
331
EA
1001
ACAD_PSEXT
1000
None
1000
None
1000
Not applicable
1000
The layout will not be plotted unless a new plotter configuration name is selected.
1070
     0
  0
MATERIAL
  5
ED
102
{ACAD_XDICTIONARY
360
1F9
102
}
102
{ACAD_REACTORS
330
6A
102
}
330
6A
100
AcDbMaterial
  1
ByBlock
 94
       63
  0
MATERIAL
  5
EC
102
{ACAD_XDICTIONARY
360
1F7
102
}
102
{ACAD_REACTORS
330
6A
102
}
330
6A
100
AcDbMaterial
  1
ByLayer
 94
       63
  0
MATERIAL
  5
EE
102
{ACAD_XDICTIONARY
360
173
102
}
102
{ACAD_REACTORS
330
6A
102
}
330
6A
100
AcDbMaterial
  1
Global
 43
0.0007999999797903
 43
0.0
 43
0.0
 43
0.0
 43
0.0
 43
0.0007999999797903
 43
0.0
 43
0.0
 43
0.0
 43
0.0
 43
1.0
 43
0.0
 43
0.0
 43
0.0
 43
0.0
 43
1.0
 49
0.0007999999797903
 49
0.0
 49
0.0
 49
0.0
 49
0.0
 49
0.0007999999797903
 49
0.0
 49
0.0
 49
0.0
 49
0.0
 49
1.0
 49
0.0
 49
0.0
 49
0.0
 49
0.0
 49
1.0
142
0.0007999999797903
142
0.0
142
0.0
142
0.0
142
0.0
142
0.0007999999797903
142
0.0
142
0.0
142
0.0
142
0.0
142
1.0
142
0.0
142
0.0
142
0.0
142
0.0
142
1.0
144
0.0007999999797903
144
0.0
144
0.0
144
0.0
144
0.0
144
0.0007999999797903
144
0.0
144
0.0
144
0.0
144
0.0
144
1.0
144
0.0
144
0.0
144
0.0
144
0.0
144
1.0
 94
       63
1001
ACAD
1070
    -1
1070
     3
1070
     0
1000

1071
        0
1070
     0
  0
MLEADERSTYLE
  5
13B
102
{ACAD_REACTORS
330
12D
102
}
330
12D
100
AcDbMLeaderStyle
179
     2
170
     2
171
     1
172
     0
 90
        2
 40
0.0
 41
0.0
173
     1
 91
-1056964608
340
14
 92
       -2
290
     1
 42
2.0
291
     1
 43
8.0
  3
Standard
 44
4.0
300

342
11
174
     1
178
     1
175
     1
176
     0
 93
-1056964608
 45
4.0
292
     0
297
     0
 46
4.0
 94
-1056964608
 47
1.0
 49
1.0
140
1.0
293
     1
141
0.0
294
     1
177
     0
142
1.0
295
     0
296
     1
143
3.75
271
     0
272
     9
273
     9
298
     0
  0
MLEADERSTYLE
  5
12E
102
{ACAD_REACTORS
330
12D
102
}
330
12D
100
AcDbMLeaderStyle
179
     2
170
     2
171
     1
172
     0
 90
        2
 40
0.0
 41
0.0
173
     1
 91
-1056964608
340
14
 92
       -2
290
     1
 42
2.0
291
     1
 43
8.0
  3
Standard
 44
4.0
300

342
11
174
     1
178
     1
175
     1
176
     0
 93
-1056964608
 45
4.0
292
     0
297
     0
 46
4.0
 94
-1056964608
 47
1.0
 49
1.0
140
1.0
293
     1
141
0.0
294
     1
177
     0
142
1.0
295
     0
296
     0
143
3.75
271
     0
272
     9
273
     9
298
     0
  0
MLINESTYLE
  5
18
102
{ACAD_REACTORS
330
17
102
}
330
17
100
AcDbMlineStyle
  2
STANDARD
 70
     0
  3

 62
   256
 51
90.0
 52
90.0
 71
     2
 49
0.5
 62
   256
  6
BYLAYER
 49
-0.5
 62
   256
  6
BYLAYER
  0
ACDBPLACEHOLDER
  5
F
102
{ACAD_REACTORS
330
E
102
}
330
E
  0
SCALE
  5
10D
102
{ACAD_REACTORS
330
10C
102
}
330
10C
100
AcDbScale
 70
     0
300
1:1
140
1.0
141
1.0
290
     1
  0
SCALE
  5
1BE
102
{ACAD_REACTORS
330
10C
102
}
330
10C
100
AcDbScale
 70
     0
300
1:2
140
1.0
141
2.0
290
     0
  0
SCALE
  5
1BF
102
{ACAD_REACTORS
330
10C
102
}
330
10C
100
AcDbScale
 70
     0
300
1:4
140
1.0
141
4.0
290
     0
  0
SCALE
  5
1C0
102
{ACAD_REACTORS
330
10C
102
}
330
10C
100
AcDbScale
 70
     0
300
1:5
140
1.0
141
5.0
290
     0
  0
SCALE
  5
1C1
102
{ACAD_REACTORS
330
10C
102
}
330
10C
100
AcDbScale
 70
     0
300
1:8
140
1.0
141
8.0
290
     0
  0
SCALE
  5
1C2
102
{ACAD_REACTORS
330
10C
102
}
330
10C
100
AcDbScale
 70
     0
300
1:10
140
1.0
141
10.0
290
     0
  0
SCALE
  5
1C3
102
{ACAD_REACTORS
330
10C
102
}
330
10C
100
AcDbScale
 70
     0
300
1:16
140
1.0
141
16.0
290
     0
  0
SCALE
  5
1C4
102
{ACAD_REACTORS
330
10C
102
}
330
10C
100
AcDbScale
 70
     0
300
1:20
140
1.0
141
20.0
290
     0
  0
SCALE
  5
1C5
102
{ACAD_REACTORS
330
10C
102
}
330
10C
100
AcDbScale
 70
     0
300
1:30
140
1.0
141
30.0
290
     0
  0
SCALE
  5
1C6
102
{ACAD_REACTORS
330
10C
102
}
330
10C
100
AcDbScale
 70
     0
300
1:40
140
1.0
141
40.0
290
     0
  0
SCALE
  5
1C7
102
{ACAD_REACTORS
330
10C
102
}
330
10C
100
AcDbScale
 70
     0
300
1:50
140
1.0
141
50.0
290
     0
  0
SCALE
  5
1C8
102
{ACAD_REACTORS
330
10C
102
}
330
10C
100
AcDbScale
 70
     0
300
1:100
140
1.0
141
100.0
290
     0
  0
SCALE
  5
1C9
102
{ACAD_REACTORS
330
10C
102
}
330
10C
100
AcDbScale
 70
     0
300
2:1
140
2.0
141
1.0
290
     0
  0
SCALE
  5
1CA
102
{ACAD_REACTORS
330
10C
102
}
330
10C
100
AcDbScale
 70
     0
300
4:1
140
4.0
141
1.0
290
     0
  0
SCALE
  5
1CB
102
{ACAD_REACTORS
330
10C
102
}
330
10C
100
AcDbScale
 70
     0
300
8:1
140
8.0
141
1.0
290
     0
  0
SCALE
  5
1CC
102
{ACAD_REACTORS
330
10C
102
}
330
10C
100
AcDbScale
 70
     0
300
10:1
140
10.0
141
1.0
290
     0
  0
SCALE
  5
1CD
102
{ACAD_REACTORS
330
10C
102
}
330
10C
100
AcDbScale
 70
     0
300
100:1
140
100.0
141
1.0
290
     0
  0
ACDBSECTIONVIEWSTYLE
  5
21A
102
{ACAD_XDICTIONARY
360
886
102
}
102
{ACAD_REACTORS
330
219
102
}
330
219
100
AcDbModelDocViewStyle
 70
     0
  3
Metric50
290
     0
100
AcDbSectionViewStyle
 70
     0
 71
     0
 90
      102
 71
     1
340
11
 62
   256
 40
5.0
340
0
340
0
 62
   256
 40
5.0
300
I, O, Q, S, X, Z
 40
10.0
 90
        0
 40
2.5
 90
        0
 71
     2
340
16
 90
       25
 62
   256
340
16
 90
       50
 62
   256
 40
5.0
 40
2.5
 40
5.0
 71
     3
340
11
 62
   256
 40
5.0
 90
        0
 40
15.0
 90
        1
300
%<\AcVar ViewSectionStartId>%-%<\AcVar ViewSectionEndId>% (%<\AcVar ViewScale \f "%sn">%)
 71
     4
 62
   256
 62
   257
300
ANSI31
 40
1.0
 90
        0
290
     0
290
     0
 90
        6
 40
0.0
 40
1.570796326794896
 40
0.2617993877991494
 40
1.308996938995747
 40
-0.2617993877991494
 40
1.832595714594046
  0
TABLESTYLE
  5
7F
102
{ACAD_XDICTIONARY
360
162
102
}
102
{ACAD_REACTORS
330
7E
102
}
330
7E
100
AcDbTableStyle
280
     0
  3
Standard
 70
     0
 71
     0
 40
1.5
 41
1.5
280
     0
281
     0
  7
Standard
140
4.5
170
     2
 62
     0
 63
     7
283
     0
 90
      512
 91
        0
  1

274
    -2
284
     1
 64
     0
275
    -2
285
     1
 65
     0
276
    -2
286
     1
 66
     0
277
    -2
287
     1
 67
     0
278
    -2
288
     1
 68
     0
279
    -2
289
     1
 69
     0
  7
Standard
140
6.0
170
     5
 62
     0
 63
     7
283
     0
 90
      512
 91
        0
  1

274
    -2
284
     1
 64
     0
275
    -2
285
     1
 65
     0
276
    -2
286
     1
 66
     0
277
    -2
287
     1
 67
     0
278
    -2
288
     1
 68
     0
279
    -2
289
     1
 69
     0
  7
Standard
140
4.5
170
     5
 62
     0
 63
     7
283
     0
 90
      512
 91
        0
  1

274
    -2
284
     1
 64
     0
275
    -2
285
     1
 65
     0
276
    -2
286
     1
 66
     0
277
    -2
287
     1
 67
     0
278
    -2
288
     1
 68
     0
279
    -2
289
     1
 69
     0
  0
VISUALSTYLE
  5
F5
102
{ACAD_REACTORS
330
EF
102
}
330
EF
100
AcDbVisualStyle
  2
2dWireframe
 70
     4
177
     3
291
     0
 70
    58
 90
        0
176
     1
 90
        2
176
     1
 90
        1
176
     1
 90
        0
176
     1
 40
0.6
176
     1
 40
30.0
176
     1
 62
     7
420
 16777215
176
     1
 90
        1
176
     1
 90
        4
176
     1
 62
     7
176
     1
 62
   257
176
     1
 90
        1
176
     1
 90
        1
176
     1
 40
1.0
176
     1
 90
        0
176
     1
 62
   257
176
     1
 40
1.0
176
     1
 90
        1
176
     1
 90
        6
176
     1
 90
        2
176
     1
 62
     7
176
     1
 90
        5
176
     1
 90
        0
176
     1
 90
        0
176
     1
290
     0
176
     1
 90
        1
176
     1
 40
0.0
176
     1
 90
        0
176
     1
290
     1
176
     1
290
     1
176
     1
290
     0
176
     1
290
     0
176
     1
290
     0
176
     1
290
     0
176
     1
290
     0
176
     1
290
     0
176
     1
290
     0
176
     1
 90
       50
176
     1
 40
0.0
176
     1
 40
1.0
176
     1
 90
        0
176
     1
 62
    18
420
        0
176
     1
 90
       50
176
     1
 90
        3
176
     1
 62
     5
420
      255
176
     1
290
     0
176
     1
 90
       50
176
     1
 90
       50
176
     1
 90
       50
176
     1
290
     0
176
     1
 90
       50
176
     1
 62
   256
176
     0
 40
1.0
176
     0
 90
        2
176
     1
  1
strokes_ogs.tif
176
     1
290
     0
176
     1
 40
1.0
176
     1
 40
1.0
176
     1
1001
ACAD
1000
AcDbSavedByObjectVersion
1070
     0
  0
VISUALSTYLE
  5
F4
102
{ACAD_REACTORS
330
EF
102
}
330
EF
100
AcDbVisualStyle
  2
Basic
 70
     7
177
     3
291
     1
 70
    58
 90
        1
176
     1
 90
        0
176
     1
 90
        1
176
     1
 90
        0
176
     1
 40
0.6
176
     1
 40
30.0
176
     1
 62
     7
420
 16777215
176
     1
 90
        0
176
     1
 90
        4
176
     1
 62
     7
176
     1
 62
   257
176
     1
 90
        1
176
     1
 90
        1
176
     1
 40
1.0
176
     1
 90
        8
176
     1
 62
     7
176
     1
 40
1.0
176
     1
 90
        1
176
     1
 90
        6
176
     1
 90
        2
176
     1
 62
     7
176
     1
 90
        5
176
     1
 90
        0
176
     1
 90
        0
176
     1
290
     0
176
     1
 90
        1
176
     1
 40
0.0
176
     1
 90
        0
176
     1
290
     0
176
     1
290
     1
176
     1
290
     1
176
     1
290
     0
176
     1
290
     0
176
     1
290
     0
176
     1
290
     0
176
     1
290
     0
176
     1
290
     0
176
     1
 90
       50
176
     1
 40
0.0
176
     1
 40
1.0
176
     1
 90
        0
176
     1
 62
    18
420
        0
176
     1
 90
       50
176
     1
 90
        3
176
     1
 62
     5
420
      255
176
     1
290
     0
176
     1
 90
       50
176
     1
 90
       50
176
     1
 90
       50
176
     1
290
     0
176
     1
 90
       50
176
     1
 62
   256
176
     0
 40
1.0
176
     0
 90
        2
176
     1
  1
strokes_ogs.tif
176
     1
290
     0
176
     1
 40
1.0
176
     1
 40
1.0
176
     1
1001
ACAD
1000
AcDbSavedByObjectVersion
1070
     0
  0
VISUALSTYLE
  5
FB
102
{ACAD_REACTORS
330
EF
102
}
330
EF
100
AcDbVisualStyle
  2
Brighten
 70
    12
177
     3
291
     1
 70
    58
 90
        2
176
     1
 90
        2
176
     1
 90
        1
176
     1
 90
        0
176
     1
 40
0.6
176
     1
 40
30.0
176
     1
 62
     7
420
 16777215
176
     1
 90
        1
176
     1
 90
        4
176
     1
 62
     7
176
     1
 62
   257
176
     1
 90
        1
176
     1
 90
        1
176
     1
 40
1.0
176
     1
 90
        8
176
     1
 62
     7
176
     1
 40
1.0
176
     1
 90
        1
176
     1
 90
        6
176
     1
 90
        2
176
     1
 62
     7
176
     1
 90
        5
176
     1
 90
        0
176
     1
 90
        0
176
     1
290
     0
176
     1
 90
        1
176
     1
 40
50.0
176
     1
 90
        0
176
     1
290
     0
176
     1
290
     1
176
     1
290
     1
176
     1
290
     0
176
     1
290
     0
176
     1
290
     0
176
     1
290
     0
176
     1
290
     0
176
     1
290
     0
176
     1
 90
       50
176
     1
 40
0.0
176
     1
 40
1.0
176
     1
 90
        0
176
     1
 62
    18
420
        0
176
     1
 90
       50
176
     1
 90
        3
176
     1
 62
     5
420
      255
176
     1
290
     0
176
     1
 90
       50
176
     1
 90
       50
176
     1
 90
       50
176
     1
290
     0
176
     1
 90
       50
176
     1
 62
   256
176
     0
 40
1.0
176
     0
 90
        2
176
     1
  1
strokes_ogs.tif
176
     1
290
     0
176
     1
 40
1.0
176
     1
 40
1.0
176
     1
1001
ACAD
1000
AcDbSavedByObjectVersion
1070
     0
  0
VISUALSTYLE
  5
FF
102
{ACAD_REACTORS
330
EF
102
}
330
EF
100
AcDbVisualStyle
  2
ColorChange
 70
    16
177
     3
291
     1
 70
    58
 90
        2
176
     1
 90
        2
176
     1
 90
        3
176
     1
 90
        0
176
     1
 40
0.6
176
     1
 40
30.0
176
     1
 62
     8
420
  8421504
176
     1
 90
        1
176
     1
 90
        4
176
     1
 62
     7
176
     1
 62
   257
176
     1
 90
        1
176
     1
 90
        1
176
     1
 40
1.0
176
     1
 90
        8
176
     1
 62
     8
420
  8421504
176
     1
 40
1.0
176
     1
 90
        1
176
     1
 90
        6
176
     1
 90
        2
176
     1
 62
     7
176
     1
 90
        5
176
     1
 90
        0
176
     1
 90
        0
176
     1
290
     0
176
     1
 90
        1
176
     1
 40
0.0
176
     1
 90
        0
176
     1
290
     0
176
     1
290
     1
176
     1
290
     1
176
     1
290
     0
176
     1
290
     0
176
     1
290
     0
176
     1
290
     0
176
     1
290
     0
176
     1
290
     0
176
     1
 90
       50
176
     1
 40
0.0
176
     1
 40
1.0
176
     1
 90
        0
176
     1
 62
    18
420
        0
176
     1
 90
       50
176
     1
 90
        3
176
     1
 62
     5
420
      255
176
     1
290
     0
176
     1
 90
       50
176
     1
 90
       50
176
     1
 90
       50
176
     1
290
     0
176
     1
 90
       50
176
     1
 62
   256
176
     0
 40
1.0
176
     0
 90
        2
176
     1
  1
strokes_ogs.tif
176
     1
290
     0
176
     1
 40
1.0
176
     1
 40
1.0
176
     1
1001
ACAD
1000
AcDbSavedByObjectVersion
1070
     0
  0
VISUALSTYLE
  5
F8
102
{ACAD_REACTORS
330
EF
102
}
330
EF
100
AcDbVisualStyle
  2
Conceptual
 70
     9
177
     3
291
     0
 70
    58
 90
        3
176
     1
 90
        2
176
     1
 90
        1
176
     1
 90
        0
176
     1
 40
0.6
176
     1
 40
30.0
176
     1
 62
     7
420
 16777215
176
     1
 90
        2
176
     1
 90
        2
176
     1
 62
     7
176
     1
 62
   257
176
     1
 90
        1
176
     1
 90
        1
176
     1
 40
40.0
176
     1
 90
        8
176
     1
 62
     7
176
     1
 40
1.0
176
     1
 90
        1
176
     1
 90
        6
176
     1
 90
        2
176
     1
 62
     7
176
     1
 90
        3
176
     1
 90
        0
176
     1
 90
        0
176
     1
290
     0
176
     1
 90
        1
176
     1
 40
0.0
176
     1
 90
        0
176
     1
290
     0
176
     1
290
     1
176
     1
290
     1
176
     1
290
     0
176
     1
290
     0
176
     1
290
     0
176
     1
290
     0
176
     1
290
     0
176
     1
290
     0
176
     1
 90
       50
176
     1
 40
0.0
176
     1
 40
1.0
176
     1
 90
        0
176
     1
 62
    18
420
        0
176
     1
 90
       50
176
     1
 90
        3
176
     1
 62
     5
420
      255
176
     1
290
     0
176
     1
 90
       50
176
     1
 90
       50
176
     1
 90
       50
176
     1
290
     0
176
     1
 90
       50
176
     1
 62
   256
176
     0
 40
1.0
176
     0
 90
        2
176
     1
  1
strokes_ogs.tif
176
     1
290
     0
176
     1
 40
1.0
176
     1
 40
1.0
176
     1
1001
ACAD
1000
AcDbSavedByObjectVersion
1070
     0
  0
VISUALSTYLE
  5
FA
102
{ACAD_REACTORS
330
EF
102
}
330
EF
100
AcDbVisualStyle
  2
Dim
 70
    11
177
     3
291
     1
 70
    58
 90
        2
176
     1
 90
        2
176
     1
 90
        1
176
     1
 90
        0
176
     1
 40
0.6
176
     1
 40
30.0
176
     1
 62
     7
420
 16777215
176
     1
 90
        1
176
     1
 90
        4
176
     1
 62
     7
176
     1
 62
   257
176
     1
 90
        1
176
     1
 90
        1
176
     1
 40
1.0
176
     1
 90
        8
176
     1
 62
     7
176
     1
 40
1.0
176
     1
 90
        1
176
     1
 90
        6
176
     1
 90
        2
176
     1
 62
     7
176
     1
 90
        5
176
     1
 90
        0
176
     1
 90
        0
176
     1
290
     0
176
     1
 90
        1
176
     1
 40
-50.0
176
     1
 90
        0
176
     1
290
     0
176
     1
290
     1
176
     1
290
     1
176
     1
290
     0
176
     1
290
     0
176
     1
290
     0
176
     1
290
     0
176
     1
290
     0
176
     1
290
     0
176
     1
 90
       50
176
     1
 40
0.0
176
     1
 40
1.0
176
     1
 90
        0
176
     1
 62
    18
420
        0
176
     1
 90
       50
176
     1
 90
        3
176
     1
 62
     5
420
      255
176
     1
290
     0
176
     1
 90
       50
176
     1
 90
       50
176
     1
 90
       50
176
     1
290
     0
176
     1
 90
       50
176
     1
 62
   256
176
     0
 40
1.0
176
     0
 90
        2
176
     1
  1
strokes_ogs.tif
176
     1
290
     0
176
     1
 40
1.0
176
     1
 40
1.0
176
     1
1001
ACAD
1000
AcDbSavedByObjectVersion
1070
     0
  0
VISUALSTYLE
  5
1E6
102
{ACAD_REACTORS
330
EF
102
}
330
EF
100
AcDbVisualStyle
  2
EdgeColorOff
 70
    22
177
     3
291
     1
 70
    58
 90
        2
176
     0
 90
        2
176
     0
 90
        0
176
     0
 90
        0
176
     0
 40
0.6
176
     0
 40
30.0
176
     0
 62
     7
420
 16777215
176
     0
 90
        1
176
     0
 90
        4
176
     0
 62
     7
176
     0
 62
   257
176
     0
 90
        1
176
     0
 90
        1
176
     0
 40
1.0
176
     0
 90
        8
176
     2
 62
     7
176
     0
 40
1.0
176
     0
 90
        1
176
     0
 90
        6
176
     0
 90
        2
176
     0
 62
     7
176
     0
 90
        5
176
     0
 90
        0
176
     0
 90
        0
176
     0
290
     0
176
     0
 90
        1
176
     0
 40
0.0
176
     0
 90
        0
176
     0
290
     0
176
     1
290
     1
176
     1
290
     1
176
     1
290
     0
176
     1
290
     0
176
     1
290
     0
176
     1
290
     0
176
     1
290
     0
176
     1
290
     0
176
     1
 90
       50
176
     1
 40
0.0
176
     1
 40
1.0
176
     1
 90
        0
176
     1
 62
    18
420
        0
176
     1
 90
       50
176
     1
 90
        3
176
     1
 62
     5
420
      255
176
     1
290
     0
176
     1
 90
       50
176
     1
 90
       50
176
     1
 90
       50
176
     1
290
     0
176
     1
 90
       50
176
     1
 62
   256
176
     0
 40
1.0
176
     0
 90
        2
176
     1
  1
strokes_ogs.tif
176
     1
290
     0
176
     1
 40
1.0
176
     1
 40
1.0
176
     1
1001
ACAD
1000
AcDbSavedByObjectVersion
1070
     0
  0
VISUALSTYLE
  5
FE
102
{ACAD_REACTORS
330
EF
102
}
330
EF
100
AcDbVisualStyle
  2
Facepattern
 70
    15
177
     3
291
     1
 70
    58
 90
        2
176
     1
 90
        2
176
     1
 90
        1
176
     1
 90
        0
176
     1
 40
0.6
176
     1
 40
30.0
176
     1
 62
     7
420
 16777215
176
     1
 90
        1
176
     1
 90
        4
176
     1
 62
     7
176
     1
 62
   257
176
     1
 90
        1
176
     1
 90
        1
176
     1
 40
1.0
176
     1
 90
        8
176
     1
 62
     7
176
     1
 40
1.0
176
     1
 90
        1
176
     1
 90
        6
176
     1
 90
        2
176
     1
 62
     7
176
     1
 90
        5
176
     1
 90
        0
176
     1
 90
        0
176
     1
290
     0
176
     1
 90
        1
176
     1
 40
0.0
176
     1
 90
        0
176
     1
290
     0
176
     1
290
     1
176
     1
290
     1
176
     1
290
     0
176
     1
290
     0
176
     1
290
     0
176
     1
290
     0
176
     1
290
     0
176
     1
290
     0
176
     1
 90
       50
176
     1
 40
0.0
176
     1
 40
1.0
176
     1
 90
        0
176
     1
 62
    18
420
        0
176
     1
 90
       50
176
     1
 90
        3
176
     1
 62
     5
420
      255
176
     1
290
     0
176
     1
 90
       50
176
     1
 90
       50
176
     1
 90
       50
176
     1
290
     0
176
     1
 90
       50
176
     1
 62
   256
176
     0
 40
1.0
176
     0
 90
        2
176
     1
  1
strokes_ogs.tif
176
     1
290
     0
176
     1
 40
1.0
176
     1
 40
1.0
176
     1
1001
ACAD
1000
AcDbSavedByObjectVersion
1070
     0
  0
VISUALSTYLE
  5
F0
102
{ACAD_REACTORS
330
EF
102
}
330
EF
100
AcDbVisualStyle
  2
Flat
 70
     0
177
     3
291
     1
 70
    58
 90
        2
176
     1
 90
        1
176
     1
 90
        1
176
     1
 90
        2
176
     1
 40
0.6
176
     1
 40
30.0
176
     1
 62
     7
420
 16777215
176
     1
 90
        0
176
     1
 90
        0
176
     1
 62
     7
176
     1
 62
   257
176
     1
 90
        1
176
     1
 90
        1
176
     1
 40
1.0
176
     1
 90
        8
176
     1
 62
     7
176
     1
 40
1.0
176
     1
 90
        1
176
     1
 90
        6
176
     1
 90
        2
176
     1
 62
     7
176
     1
 90
        5
176
     1
 90
        0
176
     1
 90
        0
176
     1
290
     0
176
     1
 90
       13
176
     1
 40
0.0
176
     1
 90
        0
176
     1
290
     0
176
     1
290
     1
176
     1
290
     1
176
     1
290
     0
176
     1
290
     0
176
     1
290
     0
176
     1
290
     0
176
     1
290
     0
176
     1
290
     0
176
     1
 90
       50
176
     1
 40
0.0
176
     1
 40
1.0
176
     1
 90
        0
176
     1
 62
    18
420
        0
176
     1
 90
       50
176
     1
 90
        3
176
     1
 62
     5
420
      255
176
     1
290
     0
176
     1
 90
       50
176
     1
 90
       50
176
     1
 90
       50
176
     1
290
     0
176
     1
 90
       50
176
     1
 62
   256
176
     0
 40
1.0
176
     0
 90
        2
176
     1
  1
strokes_ogs.tif
176
     1
290
     0
176
     1
 40
1.0
176
     1
 40
1.0
176
     1
1001
ACAD
1000
AcDbSavedByObjectVersion
1070
     0
  0
VISUALSTYLE
  5
F1
102
{ACAD_REACTORS
330
EF
102
}
330
EF
100
AcDbVisualStyle
  2
FlatWithEdges
 70
     1
177
     3
291
     1
 70
    58
 90
        2
176
     1
 90
        1
176
     1
 90
        1
176
     1
 90
        2
176
     1
 40
0.6
176
     1
 40
30.0
176
     1
 62
     7
420
 16777215
176
     1
 90
        1
176
     1
 90
        0
176
     1
 62
     7
176
     1
 62
   257
176
     1
 90
        1
176
     1
 90
        1
176
     1
 40
1.0
176
     1
 90
        0
176
     1
 62
   257
176
     1
 40
1.0
176
     1
 90
        1
176
     1
 90
        6
176
     1
 90
        2
176
     1
 62
     7
176
     1
 90
        5
176
     1
 90
        0
176
     1
 90
        0
176
     1
290
     0
176
     1
 90
       13
176
     1
 40
0.0
176
     1
 90
        0
176
     1
290
     0
176
     1
290
     1
176
     1
290
     1
176
     1
290
     0
176
     1
290
     0
176
     1
290
     0
176
     1
290
     0
176
     1
290
     0
176
     1
290
     0
176
     1
 90
       50
176
     1
 40
0.0
176
     1
 40
1.0
176
     1
 90
        0
176
     1
 62
    18
420
        0
176
     1
 90
       50
176
     1
 90
        3
176
     1
 62
     5
420
      255
176
     1
290
     0
176
     1
 90
       50
176
     1
 90
       50
176
     1
 90
       50
176
     1
290
     0
176
     1
 90
       50
176
     1
 62
   256
176
     0
 40
1.0
176
     0
 90
        2
176
     1
  1
strokes_ogs.tif
176
     1
290
     0
176
     1
 40
1.0
176
     1
 40
1.0
176
     1
1001
ACAD
1000
AcDbSavedByObjectVersion
1070
     0
  0
VISUALSTYLE
  5
F2
102
{ACAD_REACTORS
330
EF
102
}
330
EF
100
AcDbVisualStyle
  2
Gouraud
 70
     2
177
     3
291
     1
 70
    58
 90
        2
176
     1
 90
        2
176
     1
 90
        1
176
     1
 90
        2
176
     1
 40
0.6
176
     1
 40
30.0
176
     1
 62
     7
420
 16777215
176
     1
 90
        0
176
     1
 90
        0
176
     1
 62
     7
176
     1
 62
   257
176
     1
 90
        1
176
     1
 90
        1
176
     1
 40
1.0
176
     1
 90
        0
176
     1
 62
     7
176
     1
 40
1.0
176
     1
 90
        1
176
     1
 90
        6
176
     1
 90
        2
176
     1
 62
     7
176
     1
 90
        5
176
     1
 90
        0
176
     1
 90
        0
176
     1
290
     0
176
     1
 90
       13
176
     1
 40
0.0
176
     1
 90
        0
176
     1
290
     0
176
     1
290
     1
176
     1
290
     1
176
     1
290
     0
176
     1
290
     0
176
     1
290
     0
176
     1
290
     0
176
     1
290
     0
176
     1
290
     0
176
     1
 90
       50
176
     1
 40
0.0
176
     1
 40
1.0
176
     1
 90
        0
176
     1
 62
    18
420
        0
176
     1
 90
       50
176
     1
 90
        3
176
     1
 62
     5
420
      255
176
     1
290
     0
176
     1
 90
       50
176
     1
 90
       50
176
     1
 90
       50
176
     1
290
     0
176
     1
 90
       50
176
     1
 62
   256
176
     0
 40
1.0
176
     0
 90
        2
176
     1
  1
strokes_ogs.tif
176
     1
290
     0
176
     1
 40
1.0
176
     1
 40
1.0
176
     1
1001
ACAD
1000
AcDbSavedByObjectVersion
1070
     0
  0
VISUALSTYLE
  5
F3
102
{ACAD_REACTORS
330
EF
102
}
330
EF
100
AcDbVisualStyle
  2
GouraudWithEdges
 70
     3
177
     3
291
     1
 70
    58
 90
        2
176
     1
 90
        2
176
     1
 90
        1
176
     1
 90
        2
176
     1
 40
0.6
176
     1
 40
30.0
176
     1
 62
     7
420
 16777215
176
     1
 90
        1
176
     1
 90
        0
176
     1
 62
     7
176
     1
 62
   257
176
     1
 90
        1
176
     1
 90
        1
176
     1
 40
1.0
176
     1
 90
        0
176
     1
 62
   257
176
     1
 40
1.0
176
     1
 90
        1
176
     1
 90
        6
176
     1
 90
        2
176
     1
 62
     7
176
     1
 90
        5
176
     1
 90
        0
176
     1
 90
        0
176
     1
290
     0
176
     1
 90
       13
176
     1
 40
0.0
176
     1
 90
        0
176
     1
290
     0
176
     1
290
     1
176
     1
290
     1
176
     1
290
     0
176
     1
290
     0
176
     1
290
     0
176
     1
290
     0
176
     1
290
     0
176
     1
290
     0
176
     1
 90
       50
176
     1
 40
0.0
176
     1
 40
1.0
176
     1
 90
        0
176
     1
 62
    18
420
        0
176
     1
 90
       50
176
     1
 90
        3
176
     1
 62
     5
420
      255
176
     1
290
     0
176
     1
 90
       50
176
     1
 90
       50
176
     1
 90
       50
176
     1
290
     0
176
     1
 90
       50
176
     1
 62
   256
176
     0
 40
1.0
176
     0
 90
        2
176
     1
  1
strokes_ogs.tif
176
     1
290
     0
176
     1
 40
1.0
176
     1
 40
1.0
176
     1
1001
ACAD
1000
AcDbSavedByObjectVersion
1070
     0
  0
VISUALSTYLE
  5
F7
102
{ACAD_REACTORS
330
EF
102
}
330
EF
100
AcDbVisualStyle
  2
Hidden
 70
     6
177
     3
291
     0
 70
    58
 90
        1
176
     1
 90
        2
176
     1
 90
        2
176
     1
 90
        0
176
     1
 40
0.6
176
     1
 40
30.0
176
     1
 62
     7
420
 16777215
176
     1
 90
        2
176
     1
 90
        2
176
     1
 62
     7
176
     1
 62
   257
176
     1
 90
        2
176
     1
 90
        1
176
     1
 40
40.0
176
     1
 90
        0
176
     1
 62
   257
176
     1
 40
1.0
176
     1
 90
        1
176
     1
 90
        6
176
     1
 90
        2
176
     1
 62
     7
176
     1
 90
        3
176
     1
 90
        0
176
     1
 90
        0
176
     1
290
     0
176
     1
 90
        1
176
     1
 40
0.0
176
     1
 90
        0
176
     1
290
     0
176
     1
290
     1
176
     1
290
     1
176
     1
290
     0
176
     1
290
     0
176
     1
290
     0
176
     1
290
     0
176
     1
290
     0
176
     1
290
     0
176
     1
 90
       50
176
     1
 40
0.0
176
     1
 40
1.0
176
     1
 90
        0
176
     1
 62
    18
420
        0
176
     1
 90
       50
176
     1
 90
        3
176
     1
 62
     5
420
      255
176
     1
290
     0
176
     1
 90
       50
176
     1
 90
       50
176
     1
 90
       50
176
     1
290
     0
176
     1
 90
       50
176
     1
 62
   256
176
     0
 40
1.0
176
     0
 90
        2
176
     1
  1
strokes_ogs.tif
176
     1
290
     0
176
     1
 40
1.0
176
     1
 40
1.0
176
     1
1001
ACAD
1000
AcDbSavedByObjectVersion
1070
     0
  0
VISUALSTYLE
  5
1E4
102
{ACAD_REACTORS
330
EF
102
}
330
EF
100
AcDbVisualStyle
  2
JitterOff
 70
    20
177
     3
291
     1
 70
    58
 90
        2
176
     0
 90
        2
176
     0
 90
        0
176
     0
 90
        0
176
     0
 40
0.6
176
     0
 40
30.0
176
     0
 62
     7
420
 16777215
176
     0
 90
        1
176
     0
 90
        4
176
     0
 62
     7
176
     0
 62
   257
176
     0
 90
        1
176
     0
 90
        1
176
     0
 40
1.0
176
     0
 90
       10
176
     2
 62
     7
176
     0
 40
1.0
176
     0
 90
        1
176
     0
 90
        6
176
     0
 90
        2
176
     0
 62
     7
176
     0
 90
        5
176
     0
 90
        0
176
     0
 90
        0
176
     0
290
     0
176
     0
 90
        1
176
     0
 40
0.0
176
     0
 90
        0
176
     0
290
     0
176
     1
290
     1
176
     1
290
     1
176
     1
290
     0
176
     1
290
     0
176
     1
290
     0
176
     1
290
     0
176
     1
290
     0
176
     1
290
     0
176
     1
 90
       50
176
     1
 40
0.0
176
     1
 40
1.0
176
     1
 90
        0
176
     1
 62
    18
420
        0
176
     1
 90
       50
176
     1
 90
        3
176
     1
 62
     5
420
      255
176
     1
290
     0
176
     1
 90
       50
176
     1
 90
       50
176
     1
 90
       50
176
     1
290
     0
176
     1
 90
       50
176
     1
 62
   256
176
     0
 40
1.0
176
     0
 90
        2
176
     1
  1
strokes_ogs.tif
176
     1
290
     0
176
     1
 40
1.0
176
     1
 40
1.0
176
     1
1001
ACAD
1000
AcDbSavedByObjectVersion
1070
     0
  0
VISUALSTYLE
  5
FD
102
{ACAD_REACTORS
330
EF
102
}
330
EF
100
AcDbVisualStyle
  2
Linepattern
 70
    14
177
     3
291
     1
 70
    58
 90
        2
176
     1
 90
        2
176
     1
 90
        1
176
     1
 90
        0
176
     1
 40
0.6
176
     1
 40
30.0
176
     1
 62
     7
420
 16777215
176
     1
 90
        1
176
     1
 90
        4
176
     1
 62
     7
176
     1
 62
   257
176
     1
 90
        7
176
     1
 90
        7
176
     1
 40
1.0
176
     1
 90
        8
176
     1
 62
     7
176
     1
 40
1.0
176
     1
 90
        1
176
     1
 90
        6
176
     1
 90
        2
176
     1
 62
     7
176
     1
 90
        5
176
     1
 90
        0
176
     1
 90
        0
176
     1
290
     0
176
     1
 90
        1
176
     1
 40
0.0
176
     1
 90
        0
176
     1
290
     0
176
     1
290
     1
176
     1
290
     1
176
     1
290
     0
176
     1
290
     0
176
     1
290
     0
176
     1
290
     0
176
     1
290
     0
176
     1
290
     0
176
     1
 90
       50
176
     1
 40
0.0
176
     1
 40
1.0
176
     1
 90
        0
176
     1
 62
    18
420
        0
176
     1
 90
       50
176
     1
 90
        3
176
     1
 62
     5
420
      255
176
     1
290
     0
176
     1
 90
       50
176
     1
 90
       50
176
     1
 90
       50
176
     1
290
     0
176
     1
 90
       50
176
     1
 62
   256
176
     0
 40
1.0
176
     0
 90
        2
176
     1
  1
strokes_ogs.tif
176
     1
290
     0
176
     1
 40
1.0
176
     1
 40
1.0
176
     1
1001
ACAD
1000
AcDbSavedByObjectVersion
1070
     0
  0
VISUALSTYLE
  5
1E5
102
{ACAD_REACTORS
330
EF
102
}
330
EF
100
AcDbVisualStyle
  2
OverhangOff
 70
    21
177
     3
291
     1
 70
    58
 90
        2
176
     0
 90
        2
176
     0
 90
        0
176
     0
 90
        0
176
     0
 40
0.6
176
     0
 40
30.0
176
     0
 62
     7
420
 16777215
176
     0
 90
        1
176
     0
 90
        4
176
     0
 62
     7
176
     0
 62
   257
176
     0
 90
        1
176
     0
 90
        1
176
     0
 40
1.0
176
     0
 90
        9
176
     2
 62
     7
176
     0
 40
1.0
176
     0
 90
        1
176
     0
 90
        6
176
     0
 90
        2
176
     0
 62
     7
176
     0
 90
        5
176
     0
 90
        0
176
     0
 90
        0
176
     0
290
     0
176
     0
 90
        1
176
     0
 40
0.0
176
     0
 90
        0
176
     0
290
     0
176
     1
290
     1
176
     1
290
     1
176
     1
290
     0
176
     1
290
     0
176
     1
290
     0
176
     1
290
     0
176
     1
290
     0
176
     1
290
     0
176
     1
 90
       50
176
     1
 40
0.0
176
     1
 40
1.0
176
     1
 90
        0
176
     1
 62
    18
420
        0
176
     1
 90
       50
176
     1
 90
        3
176
     1
 62
     5
420
      255
176
     1
290
     0
176
     1
 90
       50
176
     1
 90
       50
176
     1
 90
       50
176
     1
290
     0
176
     1
 90
       50
176
     1
 62
   256
176
     0
 40
1.0
176
     0
 90
        2
176
     1
  1
strokes_ogs.tif
176
     1
290
     0
176
     1
 40
1.0
176
     1
 40
1.0
176
     1
1001
ACAD
1000
AcDbSavedByObjectVersion
1070
     0
  0
VISUALSTYLE
  5
F9
102
{ACAD_REACTORS
330
EF
102
}
330
EF
100
AcDbVisualStyle
  2
Realistic
 70
     8
177
     3
291
     0
 70
    58
 90
        2
176
     1
 90
        3
176
     1
 90
        0
176
     1
 90
        2
176
     1
 40
0.6
176
     1
 40
30.0
176
     1
 62
     7
420
 16777215
176
     1
 90
        0
176
     1
 90
        0
176
     1
 62
     7
176
     1
 62
   257
176
     1
 90
        1
176
     1
 90
        1
176
     1
 40
1.0
176
     1
 90
        8
176
     1
 62
   257
176
     1
 40
1.0
176
     1
 90
        1
176
     1
 90
        6
176
     1
 90
        2
176
     1
 62
     7
176
     1
 90
        3
176
     1
 90
        0
176
     1
 90
        0
176
     1
290
     0
176
     1
 90
       13
176
     1
 40
0.0
176
     1
 90
        0
176
     1
290
     0
176
     1
290
     1
176
     1
290
     1
176
     1
290
     0
176
     1
290
     0
176
     1
290
     0
176
     1
290
     0
176
     1
290
     0
176
     1
290
     0
176
     1
 90
       50
176
     1
 40
0.0
176
     1
 40
1.0
176
     1
 90
        0
176
     1
 62
    18
420
        0
176
     1
 90
       50
176
     1
 90
        3
176
     1
 62
     5
420
      255
176
     1
290
     0
176
     1
 90
       50
176
     1
 90
       50
176
     1
 90
       50
176
     1
290
     0
176
     1
 90
       50
176
     1
 62
   256
176
     0
 40
1.0
176
     0
 90
        2
176
     1
  1
strokes_ogs.tif
176
     1
290
     0
176
     1
 40
1.0
176
     1
 40
1.0
176
     1
1001
ACAD
1000
AcDbSavedByObjectVersion
1070
     0
  0
VISUALSTYLE
  5
1F3
102
{ACAD_REACTORS
330
EF
102
}
330
EF
100
AcDbVisualStyle
  2
Shaded
 70
    27
177
     3
291
     0
 70
    58
 90
        2
176
     1
 90
        2
176
     1
 90
        1
176
     1
 90
        2
176
     1
 40
0.6
176
     1
 40
30.0
176
     1
 62
     7
420
 16777215
176
     1
 90
        0
176
     1
 90
        4
176
     1
 62
     7
176
     1
 62
   257
176
     1
 90
        1
176
     1
 90
        1
176
     1
 40
1.0
176
     1
 90
        8
176
     1
 62
   257
176
     1
 40
1.0
176
     1
 90
        1
176
     1
 90
        6
176
     1
 90
        2
176
     1
 62
     8
420
  7895160
176
     1
 90
        3
176
     1
 90
        0
176
     1
 90
        0
176
     1
290
     0
176
     1
 90
        5
176
     1
 40
0.0
176
     1
 90
        0
176
     1
290
     0
176
     1
290
     1
176
     1
290
     1
176
     1
290
     0
176
     1
290
     0
176
     1
290
     0
176
     1
290
     0
176
     1
290
     0
176
     1
290
     0
176
     1
 90
       50
176
     1
 40
0.0
176
     1
 40
1.0
176
     1
 90
        0
176
     1
 62
    18
420
        0
176
     1
 90
       50
176
     1
 90
        3
176
     1
 62
     5
420
      255
176
     1
290
     0
176
     1
 90
       50
176
     1
 90
       50
176
     1
 90
       50
176
     1
290
     0
176
     1
 90
       50
176
     1
 62
   256
176
     0
 40
1.0
176
     0
 90
        2
176
     1
  1
strokes_ogs.tif
176
     1
290
     0
176
     1
 40
1.0
176
     1
 40
1.0
176
     1
1001
ACAD
1000
AcDbSavedByObjectVersion
1070
     0
  0
VISUALSTYLE
  5
1F2
102
{ACAD_REACTORS
330
EF
102
}
330
EF
100
AcDbVisualStyle
  2
Shaded with edges
 70
    26
177
     3
291
     0
 70
    58
 90
        2
176
     1
 90
        2
176
     1
 90
        1
176
     1
 90
        2
176
     1
 40
0.6
176
     1
 40
30.0
176
     1
 62
     7
420
 16777215
176
     1
 90
        1
176
     1
 90
        2
176
     1
 62
     7
176
     1
 62
   257
176
     1
 90
        2
176
     1
 90
        1
176
     1
 40
1.0
176
     1
 90
        8
176
     1
 62
   257
176
     1
 40
1.0
176
     1
 90
        1
176
     1
 90
        6
176
     1
 90
        2
176
     1
 62
     7
176
     1
 90
        3
176
     1
 90
        0
176
     1
 90
        0
176
     1
290
     0
176
     1
 90
        5
176
     1
 40
0.0
176
     1
 90
        0
176
     1
290
     0
176
     1
290
     1
176
     1
290
     1
176
     1
290
     0
176
     1
290
     0
176
     1
290
     0
176
     1
290
     0
176
     1
290
     0
176
     1
290
     0
176
     1
 90
       50
176
     1
 40
0.0
176
     1
 40
1.0
176
     1
 90
        0
176
     1
 62
    18
420
        0
176
     1
 90
       50
176
     1
 90
        3
176
     1
 62
     5
420
      255
176
     1
290
     0
176
     1
 90
       50
176
     1
 90
       50
176
     1
 90
       50
176
     1
290
     0
176
     1
 90
       50
176
     1
 62
   256
176
     0
 40
1.0
176
     0
 90
        2
176
     1
  1
strokes_ogs.tif
176
     1
290
     0
176
     1
 40
1.0
176
     1
 40
1.0
176
     1
1001
ACAD
1000
AcDbSavedByObjectVersion
1070
     0
  0
VISUALSTYLE
  5
1EF
102
{ACAD_REACTORS
330
EF
102
}
330
EF
100
AcDbVisualStyle
  2
Shades of Gray
 70
    23
177
     3
291
     0
 70
    58
 90
        2
176
     1
 90
        2
176
     1
 90
        3
176
     1
 90
        0
176
     1
 40
0.6
176
     1
 40
30.0
176
     1
 62
     7
420
 16777215
176
     1
 90
        2
176
     1
 90
        2
176
     1
 62
     7
176
     1
 62
     7
176
     1
 90
        1
176
     1
 90
        1
176
     1
 40
40.0
176
     1
 90
        8
176
     1
 62
     7
176
     1
 40
1.0
176
     1
 90
        1
176
     1
 90
        6
176
     1
 90
        2
176
     1
 62
     7
176
     1
 90
        3
176
     1
 90
        0
176
     1
 90
        0
176
     1
290
     0
176
     1
 90
        1
176
     1
 40
0.0
176
     1
 90
        0
176
     1
290
     0
176
     1
290
     1
176
     1
290
     1
176
     1
290
     0
176
     1
290
     0
176
     1
290
     0
176
     1
290
     0
176
     1
290
     0
176
     1
290
     0
176
     1
 90
       50
176
     1
 40
0.0
176
     1
 40
1.0
176
     1
 90
        0
176
     1
 62
    18
420
        0
176
     1
 90
       50
176
     1
 90
        3
176
     1
 62
     5
420
      255
176
     1
290
     0
176
     1
 90
       50
176
     1
 90
       50
176
     1
 90
       50
176
     1
290
     0
176
     1
 90
       50
176
     1
 62
   256
176
     0
 40
1.0
176
     0
 90
        2
176
     1
  1
strokes_ogs.tif
176
     1
290
     0
176
     1
 40
1.0
176
     1
 40
1.0
176
     1
1001
ACAD
1000
AcDbSavedByObjectVersion
1070
     0
  0
VISUALSTYLE
  5
1F0
102
{ACAD_REACTORS
330
EF
102
}
330
EF
100
AcDbVisualStyle
  2
Sketchy
 70
    24
177
     3
291
     0
 70
    58
 90
        1
176
     1
 90
        2
176
     1
 90
        2
176
     1
 90
        0
176
     1
 40
0.6
176
     1
 40
30.0
176
     1
 62
     7
420
 16777215
176
     1
 90
        2
176
     1
 90
        2
176
     1
 62
     7
176
     1
 62
     7
176
     1
 90
        1
176
     1
 90
        1
176
     1
 40
40.0
176
     1
 90
       11
176
     1
 62
     7
176
     1
 40
1.0
176
     1
 90
        1
176
     1
 90
        6
176
     1
 90
        2
176
     1
 62
     7
176
     1
 90
        6
176
     1
 90
        0
176
     1
 90
        0
176
     1
290
     0
176
     1
 90
        1
176
     1
 40
0.0
176
     1
 90
        0
176
     1
290
     0
176
     1
290
     1
176
     1
290
     1
176
     1
290
     0
176
     1
290
     0
176
     1
290
     0
176
     1
290
     0
176
     1
290
     0
176
     1
290
     0
176
     1
 90
       50
176
     1
 40
0.0
176
     1
 40
1.0
176
     1
 90
        0
176
     1
 62
    18
420
        0
176
     1
 90
       50
176
     1
 90
        3
176
     1
 62
     5
420
      255
176
     1
290
     0
176
     1
 90
       50
176
     1
 90
       50
176
     1
 90
       50
176
     1
290
     0
176
     1
 90
       50
176
     1
 62
   256
176
     0
 40
1.0
176
     0
 90
        2
176
     1
  1
strokes_ogs.tif
176
     1
290
     0
176
     1
 40
1.0
176
     1
 40
1.0
176
     1
1001
ACAD
1000
AcDbSavedByObjectVersion
1070
     0
  0
VISUALSTYLE
  5
FC
102
{ACAD_REACTORS
330
EF
102
}
330
EF
100
AcDbVisualStyle
  2
Thicken
 70
    13
177
     3
291
     1
 70
    58
 90
        2
176
     1
 90
        2
176
     1
 90
        1
176
     1
 90
        0
176
     1
 40
0.6
176
     1
 40
30.0
176
     1
 62
     7
420
 16777215
176
     1
 90
        1
176
     1
 90
        4
176
     1
 62
     7
176
     1
 62
   257
176
     1
 90
        1
176
     1
 90
        1
176
     1
 40
1.0
176
     1
 90
       12
176
     1
 62
     7
176
     1
 40
1.0
176
     1
 90
        1
176
     1
 90
        6
176
     1
 90
        2
176
     1
 62
     7
176
     1
 90
        5
176
     1
 90
        0
176
     1
 90
        0
176
     1
290
     0
176
     1
 90
        1
176
     1
 40
0.0
176
     1
 90
        0
176
     1
290
     0
176
     1
290
     1
176
     1
290
     1
176
     1
290
     0
176
     1
290
     0
176
     1
290
     0
176
     1
290
     0
176
     1
290
     0
176
     1
290
     0
176
     1
 90
       50
176
     1
 40
0.0
176
     1
 40
1.0
176
     1
 90
        0
176
     1
 62
    18
420
        0
176
     1
 90
       50
176
     1
 90
        3
176
     1
 62
     5
420
      255
176
     1
290
     0
176
     1
 90
       50
176
     1
 90
       50
176
     1
 90
       50
176
     1
290
     0
176
     1
 90
       50
176
     1
 62
   256
176
     0
 40
1.0
176
     0
 90
        2
176
     1
  1
strokes_ogs.tif
176
     1
290
     0
176
     1
 40
1.0
176
     1
 40
1.0
176
     1
1001
ACAD
1000
AcDbSavedByObjectVersion
1070
     0
  0
VISUALSTYLE
  5
F6
102
{ACAD_REACTORS
330
EF
102
}
330
EF
100
AcDbVisualStyle
  2
Wireframe
 70
     5
177
     3
291
     0
 70
    58
 90
        0
176
     1
 90
        2
176
     1
 90
        0
176
     1
 90
        0
176
     1
 40
0.6
176
     1
 40
30.0
176
     1
 62
     7
420
 16777215
176
     1
 90
        1
176
     1
 90
        4
176
     1
 62
     7
176
     1
 62
   257
176
     1
 90
        1
176
     1
 90
        1
176
     1
 40
1.0
176
     1
 90
        0
176
     1
 62
   257
176
     1
 40
1.0
176
     1
 90
        1
176
     1
 90
        6
176
     1
 90
        2
176
     1
 62
     7
176
     1
 90
        3
176
     1
 90
        0
176
     1
 90
        0
176
     1
290
     0
176
     1
 90
        1
176
     1
 40
0.0
176
     1
 90
        0
176
     1
290
     0
176
     1
290
     1
176
     1
290
     1
176
     1
290
     0
176
     1
290
     0
176
     1
290
     0
176
     1
290
     0
176
     1
290
     0
176
     1
290
     0
176
     1
 90
       50
176
     1
 40
0.0
176
     1
 40
1.0
176
     1
 90
        0
176
     1
 62
    18
420
        0
176
     1
 90
       50
176
     1
 90
        3
176
     1
 62
     5
420
      255
176
     1
290
     0
176
     1
 90
       50
176
     1
 90
       50
176
     1
 90
       50
176
     1
290
     0
176
     1
 90
       50
176
     1
 62
   256
176
     0
 40
1.0
176
     0
 90
        2
176
     1
  1
strokes_ogs.tif
176
     1
290
     0
176
     1
 40
1.0
176
     1
 40
1.0
176
     1
1001
ACAD
1000
AcDbSavedByObjectVersion
1070
     0
  0
VISUALSTYLE
  5
1F1
102
{ACAD_REACTORS
330
EF
102
}
330
EF
100
AcDbVisualStyle
  2
X-Ray
 70
    25
177
     3
291
     0
 70
    58
 90
        2
176
     1
 90
        2
176
     1
 90
        1
176
     1
 90
        1
176
     1
 40
0.5
176
     1
 40
30.0
176
     1
 62
     7
420
 16777215
176
     1
 90
        1
176
     1
 90
        0
176
     1
 62
     7
176
     1
 62
   257
176
     1
 90
        1
176
     1
 90
        1
176
     1
 40
1.0
176
     1
 90
        8
176
     1
 62
     7
176
     1
 40
1.0
176
     1
 90
        1
176
     1
 90
        6
176
     1
 90
        2
176
     1
 62
     7
176
     1
 90
        3
176
     1
 90
        0
176
     1
 90
        0
176
     1
290
     0
176
     1
 90
       13
176
     1
 40
0.0
176
     1
 90
        0
176
     1
290
     0
176
     1
290
     1
176
     1
290
     1
176
     1
290
     0
176
     1
290
     0
176
     1
290
     0
176
     1
290
     0
176
     1
290
     0
176
     1
290
     0
176
     1
 90
       50
176
     1
 40
0.0
176
     1
 40
1.0
176
     1
 90
        0
176
     1
 62
    18
420
        0
176
     1
 90
       50
176
     1
 90
        3
176
     1
 62
     5
420
      255
176
     1
290
     0
176
     1
 90
       50
176
     1
 90
       50
176
     1
 90
       50
176
     1
290
     0
176
     1
 90
       50
176
     1
 62
   256
176
     0
 40
1.0
176
     0
 90
        2
176
     1
  1
strokes_ogs.tif
176
     1
290
     0
176
     1
 40
1.0
176
     1
 40
1.0
176
     1
1001
ACAD
1000
AcDbSavedByObjectVersion
1070
     0
  0
DICTIONARYVAR
  5
146
102
{ACAD_REACTORS
330
5E
102
}
330
5E
100
DictionaryVariables
280
     0
  1
1:1
  0
DICTIONARYVAR
  5
259
102
{ACAD_REACTORS
330
5E
102
}
330
5E
100
DictionaryVariables
280
     0
  1
3.500000
  0
DICTIONARYVAR
  5
25A
102
{ACAD_REACTORS
330
5E
102
}
330
5E
100
DictionaryVariables
280
     0
  1
acadiso.lin
  0
DICTIONARYVAR
  5
145
102
{ACAD_REACTORS
330
5E
102
}
330
5E
100
DictionaryVariables
280
     0
  1
STANDARD
  0
DICTIONARYVAR
  5
84
102
{ACAD_REACTORS
330
5E
102
}
330
5E
100
DictionaryVariables
280
     0
  1
STANDARD
  0
DICTIONARYVAR
  5
227
102
{ACAD_REACTORS
330
5E
102
}
330
5E
100
DictionaryVariables
280
     0
  1
Metric50
  0
DICTIONARYVAR
  5
228
102
{ACAD_REACTORS
330
5E
102
}
330
5E
100
DictionaryVariables
280
     0
  1
Metric50
  0
DICTIONARYVAR
  5
5F
102
{ACAD_REACTORS
330
5E
102
}
330
5E
100
DictionaryVariables
280
     0
  1
2
  0
DICTIONARYVAR
  5
63
102
{ACAD_REACTORS
330
5E
102
}
330
5E
100
DictionaryVariables
280
     0
  1
1
  0
DICTIONARYVAR
  5
1AE
102
{ACAD_REACTORS
330
5E
102
}
330
5E
100
DictionaryVariables
280
     0
  1
0
  0
DICTIONARYVAR
  5
1AF
102
{ACAD_REACTORS
330
5E
102
}
330
5E
100
DictionaryVariables
280
     0
  1
0
  0
DICTIONARY
  5
885
102
{ACAD_REACTORS
330
883
102
}
330
883
100
AcDbDictionary
281
     1
  0
DICTIONARY
  5
884
102
{ACAD_REACTORS
330
883
102
}
330
883
100
AcDbDictionary
281
     1
  3
1646307115232
350
87E
  3
1646307115248
350
87F
  3
1646307115264
350
880
  3
1646307115280
350
881
  3
1646307115296
350
882
  0
DICTIONARY
  5
888
330
21C
100
AcDbDictionary
280
     1
281
     1
  3
ACAD_XREC_ROUNDTRIP
360
889
  0
DICTIONARY
  5
205
330
22
100
AcDbDictionary
280
     1
281
     1
  0
DICTIONARY
  5
1F9
330
ED
100
AcDbDictionary
280
     1
281
     1
  3
FBXASSET
360
1FA
  0
DICTIONARY
  5
1F7
330
EC
100
AcDbDictionary
280
     1
281
     1
  3
FBXASSET
360
1F8
  0
DICTIONARY
  5
173
330
EE
100
AcDbDictionary
280
     1
281
     1
  3
BUMPTILE
360
175
  3
DIFFUSETILE
360
174
  3
FBXASSET
360
1FB
  3
OPACITYTILE
360
176
  3
REFLECTIONTILE
360
177
  0
DICTIONARY
  5
886
330
21A
100
AcDbDictionary
280
     1
281
     1
  3
ACAD_XREC_ROUNDTRIP
360
887
  0
DICTIONARY
  5
162
330
7F
100
AcDbDictionary
280
     1
281
     1
  3
ACAD_ROUNDTRIP_2008_TABLESTYLE_CELLSTYLEMAP
360
87C
  0
XRECORD
  5
87E
102
{ACAD_REACTORS
330
884
102
}
330
884
100
AcDbXrecord
280
     1
  1
AcDb_Thumbnail_Schema
102
{ATTRRECORD
341
87F
  2
AcDbDs::TreatedAsObjectData
280
     1
291
     1
102
ATTRRECORD}
102
{ATTRRECORD
341
880
  2
AcDbDs::Legacy
280
     1
291
     1
102
ATTRRECORD}
  2
AcDbDs::ID
280
    10
 91
        8
102
{ATTRRECORD
341
881
  2
AcDs:Indexable
280
     1
291
     1
102
ATTRRECORD}
102
{ATTRRECORD
341
882
  2
AcDbDs::HandleAttribute
280
     7
282
     1
102
ATTRRECORD}
  2
Thumbnail_Data
280
    15
 91
        0
  0
XRECORD
  5
87F
102
{ACAD_REACTORS
330
884
102
}
330
884
100
AcDbXrecord
280
     1
  1
AcDbDs::TreatedAsObjectDataSchema
  2
AcDbDs::TreatedAsObjectData
280
     1
 91
        0
  0
XRECORD
  5
880
102
{ACAD_REACTORS
330
884
102
}
330
884
100
AcDbXrecord
280
     1
  1
AcDbDs::LegacySchema
  2
AcDbDs::Legacy
280
     1
 91
        0
  0
XRECORD
  5
881
102
{ACAD_REACTORS
330
884
102
}
330
884
100
AcDbXrecord
280
     1
  1
AcDbDs::IndexedPropertySchema
  2
AcDs:Indexable
280
     1
 91
        0
  0
XRECORD
  5
882
102
{ACAD_REACTORS
330
884
102
}
330
884
100
AcDbXrecord
280
     1
  1
AcDbDs::HandleAttributeSchema
  2
AcDbDs::HandleAttribute
280
     7
 91
        1
284
     1
  0
XRECORD
  5
889
102
{ACAD_REACTORS
330
888
102
}
330
888
100
AcDbXrecord
280
     1
102
DISPLAYNAME
  1
Metric50
102
FLAGS
 90
        0
  0
XRECORD
  5
1FA
102
{ACAD_REACTORS
330
1F9
102
}
330
1F9
100
AcDbXrecord
280
     1
 70
     1
 90
429727718
  1
D62C5603-E3A1-4AEA-B7FB-FE5D8D0755AF
310
504B03040A0000080000CC70623B3DEE336E79000000790000001B0000006175746F6465736B2D64657369676E2D7061636B6167652E786D6C3C3F786D6C2076657273696F6E3D22312E302220656E636F64696E673D227574662D3822203F3E3C666F726D6174733E3C666F726D61743E687474703A2F2F736368656D612E
310
6175746F6465736B2E636F6D2F64657369676E2D7061636B6167652F323030393C2F666F726D61743E3C2F666F726D6174733E504B0304140006080800CC70623BD486FD9CA0000000F4000000130000005B436F6E74656E745F54797065735D2E786D6C7D8EC10E82300C865F65E91D8A1E8C310C0EEA1BF002731658846E
310
D98AC1B77784ABF1D8FE5FBFBF75BBCE937A534CCEB38643598122B6FEE978D0B0485F9C41B54DDD7D022595594E1A469170414C76A4D9A4D207E29CF43ECE46F218070CC6BECC4078ACAA135ACF422C856C0E68EA1BF5669944DDD7BCDE7B1F8E415D77AECB980613C2E4AC91FC167A2B244592486606FC29C8FD7F045B9A
310
EF7053A7E60B504B0304140006080800CC70623B853B8169EB0000007C01000008000000636F72652E786D6C8D90416EC3201045AF62CDB6C206821CC7C244919D9CA01740401C94182C03558F5F9C3852BBEB6A467FFE9B197D7EFC9E1EC5975982F5AE035262288C535E5B377690E21535501C055FBC8FBF6C503839990E
310
5619041F179FE64D52DE45E362569DD7661365082642A11EB9E920A89B99642953CC8E702F67A9EE7234257977194EC9EAE275C4EABCCF5EAD5940D4AC6F0E35A568B8F43562CD7046CD199FD07E60174276A7BE677B5EADB0E0D14EEFFB6A31321A0D82627C4084204C3F096B71DD52F6819B16635EADF63F509AF53FA164
310
5DDCD1EDDD17164090FCC8732078B56691CB33A85CD7DCC40F504B0304140006080800CC70623B55019EA25F0000007C00000007000000636E782E786D6C4DCB3B0E80201045D1AD90E915ED2CF8AC45050C11660C8261F98AB1B07AC9C97D42D718D865D3E909258CFD00CCE24AC6E326A164D74DC0B4128928FF32603847
310
2BA13128B1252AC747C6BAB984FC68F0B87FE8960A5C09FE86CFB69FBA01504B0304140006080800CC70623BDBABAAF470010000D40300000C0000006662782F636F72652E786D6CC553D16E823014FD95A6AF4B694182CC941A83FA05FB810A9511A125A5257EFE2E82712ECEB8A7F100CD39F7F69E734AF9FADC366850B6
310
AF8DCE7018308C942E4C59EB2AC3DE1D498AD15A706B8CFB56869196ADCAF00863C12B6B7C374385D14E6907A836A59A41D9F7CA615434B0C8705F7CAA5606D23BA8E84F41278B93AC54100640439DE0BDB320004D43C63716C7C399D30917DCFBBA9CD9BA8469F5B156168B24CED3F7248AC8769F27244EB73B92EED8862C
310
B7F13E0C179B3C8F979C8ECD82BBBABDAA2BAC924E9558448CBD9330242CFA08E3154B5651FCC6D215639C8EE5774DBE2B5F6CF2B5768B68963BB5F5588420E442FC700B1139D4CB01F450C1E918227C2E09DF070D8140C84E1E9AAB8F1340832A9CB13130A5F1376A908D57309505ECF2A0DF179C4E9D30F5B239B87E3823
310
7A79C6F31DE1A8A5AEC08474B03C7837EAE4938639B44E5932B833D2C6B6B279CDC613877FA26EE21F4A2A4C63EC7F29A2F301D1F9F7A0E37D145F504B0304140006080800CC70623B9C113CC27E0000009D0000000B0000006662782F636E782E786D6C4DCCDF0A83201C86E15B91DFB94BFB330DD428C8FB886521330DA7
310
6397BF1A1DECE883878F57749FCDA1B7892F1BBC047A23808C7F84D9FA55424E0BE6803A256208E9EF06C84F9B91703228B1C690F78B66B34CD9A5439DF5CF0BFBF65E35BCA1B8D6A5C6F540381E886698B5741C695F9503EBA150A2F8958E3DC3EA0B504B0304140006080800CC70623B7DF2F77C2A010000120200003100
310
00006662782F41393633353835312D344632462D344230382D423046372D3739314545314133324237412F636F72652E786D6C8D51DB8EC22014FC15C2939B0D2DB4B45643319AE817EC0F6041255A68B86CFCFC856D4D76DF7CE190393373060EDB3DC707F856CE6B6B7A480A0C81328395DA5C7B18C3057510EC3873D686
310
3F34088C18550F330C39BB3A1BA7051AAC09CA84841A2BD5020AEF55806078A44B0FFD7053A328440C89E1EFC52486BBB8AA8214A99D789CF9E05200300FC927E4FB4D5B375D43103D5527440FB843077C5AA3F5861C8F645F5787F59E95B390B318B55CE45AA638FAA2957BD7248B390B7A7CC51F9C124149C82B8C378810
310
84AB2F42B7B8DD56F413775B8C5999E9FF4471926F8AA236A1AE96B8B3CC434E5839373893369E1FAF30EA395917409EB7F26AF8801C171837A4A6AC9C89E9F9C9B1A58BA30FD6A5EF5DDDCF894B9AD9B6A59C957943A9FCAE2FD5BC4DFE03504B0304140006080800CC70623BAD7543B64E01000033030000300000006662
310
782F41393633353835312D344632462D344230382D423046372D3739314545314133324237412F636E782E786D6CD593CD6EC32010845F0571AD6CE3D48AD20813A9873E410FBD12D82434182C7EAAE6EDBB2424CD25871E7B41D6EC30B3FA84F9E67BB2E40B4234DE8DB46F1925E094D7C6ED479AD3AE5951B2113C789FEE
310
6C943839C1488B4C05DF079FE72A69D8C96C13AAD6B8631503449F83828872B949AC57D26200B826A308D316B4064D6E46FCDA41C05550DC9E483A00797BFD207EFB092A45DE9514C1BBD22178396BD39D891265658C238DEA00936C654E5E433CB65A26D9F6EDB5EBC14EBF49A45CB856E66048291F6939A9A81BB5C89177
310
38143CA680F4AA299D66A042CEB3354A2684DC9D8D178FE0D9B8B41CAAD720F880EE7EF93C0C18769E099ECC04D5A102C8049A8A05632F4DDF376CF1DE0F6BB65C2F8627B65A33C6BB62177CEBBDAD973006829F89F22E814B54F4BC2BE347F8AA8F681390B50FA73F804400B5F542E796F19FF974E7F78DB802FE05E20750
310
4B0304140006080800CC70623BE75B7789680500003C100000340000006662782F41393633353835312D344632462D344230382D423046372D3739314545314133324237412F6F626A656374732E786D6CAD575B8F9B3818FD2B887D06C22499CB8AA1CA655245D5B455A356FB305264C061D8018C6C3393D95FBFC7600890
310
A4CD5EF210B0B1BFEBF98E3F7B1FF6596ABC522E1296DF9BAE3D320D9A872C4AF2F8DE2CE5CEBA358D0FBEC719939D65A691938CDE9B6ADAF4BD98B3B2D05311DD91329583D9D5FC0F438434A7A611A644887B5384CF34233629258BA878B12322891DEFF6B66BD70BFB62634E8AE781D082709A4B588AF91C528CDA28B73F
310
1C998EEF39EABBEFA97FBD6A7C7E9553F9D3D79FE442923C3C523610337627CB87ABE99D359D4CC6D6E4FACAB5E6ABF9D2726FC6A3C5F56271377BB88362213924694B38DD99FE47C48627A1E7D49F5A8BB5E1A74C0A599ED3B0F21F1E56366B89112D681E218F0915D0D6F17AD41FBA2A369DCF6335D62ABBD39779D5DDD1
310
11D4D8DE3CBB96B2E04FB8202E41051754A1AA8E8F76B4C6DFE810B580B1547F4B84911149794252234D024EF8BBE963A95AE27B3D310A9D5C215C7960FAEE415ED75694C6AFB17BCACA5D99A60A9AA65F217B0BFC53292ACB92BF283FAD0D3621576592CB5BED907C2FA8E9DF794E35E97BEA31BED21FEB401ABB94C44839
310
DCACBF0E1C5DA8DA5B2F4DFFD32AD86F543D9E565E7056502E157C00AD2671CD534549AB752FCA9CDA00677A313F04E51B22FF19E57B300579E3C97EB29F682D92935CEC18CF901B7B54FD8C51F362B56FC72FE0B3C1EAE335EDCCBF5AEC39ADB17DC238973F804BA5E6F6BFE7AF1FB32E523BE9F3BD571418E3631DCA4D48
310
5250CF639223210A9446CA30052EDF057BD35F8329C1ECD84552BF0DC8D18BE7BCE23BFE6BD960AB4A7DE79923A103BEBD80F911CBAA2C60DB19B01CF164A5583B772EE6D3FFA56666CBCDA74DC97724A48F9A58967497E489C4D979006FD7A05E227A1EBDD0F737C623387A9C844D3709995625106D157315F8B8392CD4E0
310
A0B9A720C4BE9829CEF37EA1E13111214D53925356365ADA634861B52519DD27A00AEB808EAF0628E6F435519D446F45CF2C9CF5214F0A15B2F6D06B79DA3EE3CBF7F56780D2F4E7EF73A0F5E5B02A38D07DC852C6B7C1FBB6664213E0C39E3EBA7FF4E1AD23EA2829407C85E586727488B751B2DB9502BC7B228A3FD68B6E
310
A65A22397E690AA8D158D7E404EC8CDA235CC3B7D1898680131CEC2CDF2638C65196279577750F15884AEE19F94199155B92B13297978469D4F8D358DF0AEF7631E28DC8F0D9F437D5D39A83B2231A1D52D543813A824EF8D44BCFF2FA6A31BD1E8DAD87F1CCB526B3879935BF59CDADD5C37479BB1CDD4CA7B3556B516589
310
EF352754B706114D9C885EC9131DE6EFEB43D99AFE2391C2F958179413D7CFEF6B1B6DB1E7600F00DE6E5C67454A339A4BA2E0FBA85ED26F045D454F463DBFCE484C2F90F2E5E3666003662ED8F755951A7D1BECD5B30B550B2785C8E7320B7292A4838DDA71BBC863ED7613CAF659337A3354231D4FF4A182A54904C2898C
310
98B28C4AD0CE056CCF332A80986E571EE9DBC305BB5FEB7E509220A58D25CF042D712A806AC0AD0C657FDEF80D2D9CEAA2EE4D1C76F60BFE74219A06527D6F82DF6412526107381E55E353090704D085B52408A8913C4ED159D79BDA71BB4BC506F4831350EB6F975CD22D69BF7AC49B91A2C0A9DDA3D5CA36AD20FC478E37
310
E61844E2352865EBCB61A275A65283CAAA9DD27703B4102F5AF51EF5F573B75CBB5AD38BC845F7A49F82A0966A49C2E3EA5EA0ECD326CD965F1DB402C6FA8B51A4658C5C5E2EC9E214602E55810345408596591009A82E7E7FFACA19EEA299B14A0081A705CB3296EBC14CDF658DCD336EA6D1136881AAEB87B81AB9EE53D5
310
F5EB8BC8362082DA24122F98680A4E7930C01A0079749CEA14382A0783E5EBA5A10F8C098456A03D6A4AEB6BB881E2513747552A5DB22C7EDAF83BD5528081A365F7FF06504B0304140006080000CC70623B000000000000000000000000350000006662782F41393633353835312D344632462D344230382D423046372D37
310
39314545314133324237412F76657274696365732E62696E504B0304140006080800CC70623BF270F1330600000004000000360000006662782F41393633353835312D344632462D344230382D423046372D3739314545314133324237412F747269616E676C65732E62696E636660600000504B0304140006080000CC7062
310
3B000000000000000000000000370000006662782F41393633353835312D344632462D344230382D423046372D3739314545314133324237412F617474726962757465732E62696E504B0304140006080800CC70623B08DA0BD19000000041010000360000006662782F41393633353835312D344632462D344230382D4230
310
46372D3739314545314133324237412F6469726563746F72792E786D6C858F410AC3201045AF22B36F53E9A60B35CBEEBAE80D244E44489C6234F4F835464A48035D0DF398FF9F8AF63D0E6CC63039F212F8F9020C7D47C6792B21C5FE7403D62A1188E2E60C98D7234A5830286103A55745067B9D86B8A3CF9C7F90C11DE6
310
07FB144396D7B6A82D282E9A152AD114D5EF2CB866EEE831B8EEA07A7BB5A8D7D61A2BAAEB7FD5F70921FF497D00504B0304140006080800CC70623BEDD1DC58FD000000A00100003B0000006662782F41393633353835312D344632462D344230382D423046372D3739314545314133324237412F7265736F75726365732F
310
636F72652E786D6C8D504B6E833010BD0A9A6D65B00922041947112427E8052C33A156828DFCA97AFC9A40A576D7CDCCE87D344F8F9FBFE667F689CE6B6B3A6039850C8DB2A336530731DC4903D95970676DF82583CCC8193B5861107C72362E3BA4AC096842428D1D7107A5F7182053CF7474E0D507CE32973124857FE48B
310
540F3961CEF244279DE03EB81420DB9EAC1384436FA353E879B1B182C7A8C75DA3C7F453DF353A1075D537A7BA6464B8F535A99AE14A9A2BBD90E350DD183B5CFABE3AF262350B1EF4FC9351399401471025A527C218A1E53BAB5A5AB765F5469B96525EACF23FA6B88CFF34456DC2A1DCE36E360F82A5202F42F062ED2BAD
310
579969AFDD8A6F504B010214000A0000080000CC70623B3DEE336E79000000790000001B00000000000000000000000000000000006175746F6465736B2D64657369676E2D7061636B6167652E786D6C504B01021400140006080800CC70623BD486FD9CA0000000F40000001300000000000000000000000000B20000005B
310
436F6E74656E745F54797065735D2E786D6C504B01021400140006080800CC70623B853B8169EB0000007C010000080000000000000000000000000083010000636F72652E786D6C504B01021400140006080800CC70623B55019EA25F0000007C000000070000000000000000000000000094020000636E782E786D6C504B
310
01021400140006080800CC70623BDBABAAF470010000D40300000C00000000000000000000000000180300006662782F636F72652E786D6C504B01021400140006080800CC70623B9C113CC27E0000009D0000000B00000000000000000000000000B20400006662782F636E782E786D6C504B01021400140006080800CC70
310
623B7DF2F77C2A010000120200003100000000000000000000000000590500006662782F41393633353835312D344632462D344230382D423046372D3739314545314133324237412F636F72652E786D6C504B01021400140006080800CC70623BAD7543B64E010000330300003000000000000000000000000000D2060000
310
6662782F41393633353835312D344632462D344230382D423046372D3739314545314133324237412F636E782E786D6C504B01021400140006080800CC70623BE75B7789680500003C10000034000000000000000000000000006E0800006662782F41393633353835312D344632462D344230382D423046372D3739314545
310
314133324237412F6F626A656374732E786D6C504B01021400140006080000CC70623B0000000000000000000000003500000000000000000000000000280E00006662782F41393633353835312D344632462D344230382D423046372D3739314545314133324237412F76657274696365732E62696E504B01021400140006
310
080800CC70623BF270F133060000000400000036000000000000000000000000007B0E00006662782F41393633353835312D344632462D344230382D423046372D3739314545314133324237412F747269616E676C65732E62696E504B01021400140006080000CC70623B0000000000000000000000003700000000000000
310
000000000000D50E00006662782F41393633353835312D344632462D344230382D423046372D3739314545314133324237412F617474726962757465732E62696E504B01021400140006080800CC70623B08DA0BD1900000004101000036000000000000000000000000002A0F00006662782F41393633353835312D344632
310
462D344230382D423046372D3739314545314133324237412F6469726563746F72792E786D6C504B01021400140006080800CC70623BEDD1DC58FD000000A00100003B000000000000000000000000000E1000006662782F41393633353835312D344632462D344230382D423046372D3739314545314133324237412F7265
310
736F75726365732F636F72652E786D6C504B0506000000000E000E0080040000641100000000
  0
XRECORD
  5
1F8
102
{ACAD_REACTORS
330
1F7
102
}
330
1F7
100
AcDbXrecord
280
     1
 70
     1
 90
429727718
  1
30362254-06B7-45E0-A893-8CFA70E3D6BC
310
504B03040A0000080000CC70623B3DEE336E79000000790000001B0000006175746F6465736B2D64657369676E2D7061636B6167652E786D6C3C3F786D6C2076657273696F6E3D22312E302220656E636F64696E673D227574662D3822203F3E3C666F726D6174733E3C666F726D61743E687474703A2F2F736368656D612E
310
6175746F6465736B2E636F6D2F64657369676E2D7061636B6167652F323030393C2F666F726D61743E3C2F666F726D6174733E504B0304140006080800CC70623BD486FD9CA0000000F4000000130000005B436F6E74656E745F54797065735D2E786D6C7D8EC10E82300C865F65E91D8A1E8C310C0EEA1BF002731658846E
310
D98AC1B77784ABF1D8FE5FBFBF75BBCE937A534CCEB38643598122B6FEE978D0B0485F9C41B54DDD7D022595594E1A469170414C76A4D9A4D207E29CF43ECE46F218070CC6BECC4078ACAA135ACF422C856C0E68EA1BF5669944DDD7BCDE7B1F8E415D77AECB980613C2E4AC91FC167A2B244592486606FC29C8FD7F045B9A
310
EF7053A7E60B504B0304140006080800CC70623B1EC5D7A3EB0000007C01000008000000636F72652E786D6C8D90416EC3201045AF82665B6103C6756C6122AB4D4ED00B204C5C94182C03558F5F9C3852BBEB6A467FFE9B197D71FC9E6FE8CBACC17AD7032D0820E3B41FAD9B7A48F1820F808E52ACDEC75F36404ECDA687
310
4D0629A6D5A76597B477D1B89855E747B38B2A041301E95B6E7A08FAD3CCAA50296647B8168BD2573599823EBB0CA76447F43862C7BCCF5EAC59410E4DDD9C7973C2755553CCCFA4C603E3040F1565ED3B1FDE4E432BCA0D9622DAF9795FAF464533826484B498524CD807E51D79ED187F21878E10516EF63F505AC67F42C9
310
BA58B1FDDD071640D2FCC87D2045B96591CB3DA85CB7DCE40F504B0304140006080800CC70623B55019EA25F0000007C00000007000000636E782E786D6C4DCB3B0E80201045D1AD90E915ED2CF8AC45050C11660C8261F98AB1B07AC9C97D42D718D865D3E909258CFD00CCE24AC6E326A164D74DC0B4128928FF32603847
310
2BA13128B1252AC747C6BAB984FC68F0B87FE8960A5C09FE86CFB69FBA01504B0304140006080800CC70623B8C9102E971010000D40300000C0000006662782F636F72652E786D6CC5535B6E833010BC8AE5DF0A6C08340F1947A84D4ED00B38C6A128602363A31CBFCB234A53A551FA553EC09AD9F5CE8C31DB9E9B1AF5CA
310
7695D1198E428A91D2D214952E33ECDD315861B4E5CC1AE3BE9561A445A3323CC098B3D21ADFCE9034DA29ED00D5A6503328BA4E398C640D8B0C77F253352214DE4145770A5B214FA2546114020D759C75CE8200340D19DE981F0F6746269C33EFAB6266AB02A655C74A59CCF365BADC27CB5D902ED22848F6340DF238A141
310
BE88E2F57B92BFEDF23523433367AE6A2EEAA455C2A902F398D2751045018D3FA264435F3771F242571B4A1919CA6F9A7C5B3CD9E42BED16F12C776AEB308F40C848FC700B1139D4891EF410CEC810227CC6846F8386402064270EF5C5C709A05E49676C024C61FC95EA45ED154CA5211D1FF4FB8291A913A68E9B83EBBB33
310
E2A7673CDE118E5AE8124C0807CB8377834E366998436B950D7A7746DAD846D4CFD978E0F04FD455FC5D49D2D4C6FE9722321F10997F0F32DC47FE05504B0304140006080800CC70623BFFEA85907E0000009D0000000B0000006662782F636E782E786D6C4DCCD10A83201886E15B91FFDC95D95A811AB6F23E625948A6C3
310
E9D8E5AF46073BFAE0E1E365ED67B3E8ADC3CB78C7815C7240DA3DFC64DCC221C519D7805AC182F7F1EF06C88D9BE6703008B6049F9E274D7A1E938DBB5AE3D6131B2589BA0D3D965551E0B2EA732C9B9A624AAEB41E3A557677029960D9AFB4EF11165F504B0304140006080800CC70623B4FEEA4082C0100001202000031
310
0000006662782F39464131463745442D413632322D343644302D413938332D3331353338454246344243312F636F72652E786D6C8D515B6EC32010BC0AE2AB55850DD871ED0813254D72825EC00192A2C460F1A872FC42ED48ED5F7E00CDCECCCEB26C731F6FE05B39AFADE921293004CA082BB5B9F43086336A21D870E6AC
310
0D7F68109861543DCC30E4ECE26C9C164858139409093556AA051CBC570102714B8F1E7AF1A5C6A11862480C7F2DA6415C878B2A4891CA89C7990F2E050073937C42DE1DB7E4F87ED8A36D4329AA9B3D46DBAEAD504556557BD81DEBDD0761E52CE42C462D17B996298E3E6BE59E35C962CE821E1FF18553435012728A7187
310
0841987E927A8D9B35ADDF70BBC6989599FE4F1427F9A4286A132ABAC49D651EF234CD5CE04CDA78BA3DC2A8FB645D00B9DF8B57E215725C60BCA2A463E54C4CE327C7A65E1C7DB02E7DEFCBF594B864C5CA6CDBD49C957943E9FA5D5FBAF336F90F504B0304140006080800CC70623BAD7543B64E01000033030000300000
310
006662782F39464131463745442D413632322D343644302D413938332D3331353338454246344243312F636E782E786D6CD593CD6EC32010845F0571AD6CE3D48AD20813A9873E410FBD12D82434182C7EAAE6EDBB2424CD25871E7B41D6EC30B3FA84F9E67BB2E40B4234DE8DB46F1925E094D7C6ED479AD3AE5951B2113C
310
789FEE6C943839C1488B4C05DF079FE72A69D8C96C13AAD6B8631503449F83828872B949AC57D26200B826A308D316B4064D6E46FCDA41C05550DC9E483A00797BFD207EFB092A45DE9514C1BBD22178396BD39D891265658C238DEA00936C654E5E433CB65A26D9F6EDB5EBC14EBF49A45CB856E66048291F6939A9A81BB5
310
C8917738143CA680F4AA299D66A042CEB3354A2684DC9D8D178FE0D9B8B41CAAD720F880EE7EF93C0C18769E099ECC04D5A102C8049A8A05632F4DDF376CF1DE0F6BB65C2F8627B65A33C6BB62177CEBBDAD973006829F89F22E814B54F4BC2BE347F8AA8F681390B50FA73F804400B5F542E796F19FF974E7F78DB802FE05
310
E207504B0304140006080800CC70623B16AB87BA640500003C100000340000006662782F39464131463745442D413632322D343644302D413938332D3331353338454246344243312F6F626A656374732E786D6CAD575B6FA33818FD2B887DE6924B3BED8A326A92B68A663B534DD4D13E548A0C38942D60649B369D5FBFC7
310
600890A493BDE42160637FD7F31D7FF63E6FB3D478A55C242CBF3247B66B1A340F5994E4F19559CA8D75611A9F7D8F33263BCB4C232719BD32D5B4E97B316765A1A722BA21652A07B3B7B33F0D11D29C9A46981221AE4C113ED38CD8A4942CA2E2C58E882476BCD9DA23BB5ED8171B73523C0F841684D35CC252CCE79062D4
310
468DFA43D7747CCF51DF7D4FFDEB5593E3AB9CCA9FBEFE241792E4E19EB28198C968BAB8199F5D5A67D3E9C49A9E8F47D6EC76B6B0469F26EEFC7C3EBFBCBEB98462213924694B38DD98FE1D62C393D073EA4FADC5DAF04326852CCF6958F90F0F2B9BB5C48816348F90C7840A68EB78EDF68723159BCEE7891A6B95DDE9D3
310
BCEAEEE8086A6C6F9E5D4B59F0175C10A7A0820BAA5055C7473B5AE3CFDD452D602CD5DF12616444529E90D448938013FE6EFA58AA96F85E4F8C42275708571E98FE6827AF6B2B4AE3D7D83D64E5A64C53054DD3AF90BD06FEA9149565C94FCA0F6B834DC85599E4F2423B24DF0B6AFA979E534DFA9E7A4CC6FA631D486393
310
921829879BF5D781A373557BCB85E97FB90DB62B558F8795179C15944B051F40AB495CF35451D26A4727654E6D8033BD98EF82F21D91FF8AF2DD9982BCF1643BDD4EB516C9492E368C67C88DED563FC36D5EACF66DFF057C3658BDBFA69DF9578B3DA735B64F18C7F20770A9D45CFCF7FCF563D6456A277DBEF78A02637CA2
310
43B90A490AEAB94F72244481D24819A6C0E59B606BFA4B3025981DBB48EAB701D97BF19C577CC77F2D1B6C55A9EF3C732474C0B727303F625995056C3B02963D9EAC146BE78EC5FCEC7FA999EBC5EACBAAE41B12D27B4D2C0BBA49F244E2ECDC81B76B502F113D8F5EE8FB1BE3111CDD4FC2AA9B844CAB1288B68AB90A7CDC
310
1C166AB0D3DC5310625FCC14E779BFD0709F8890A629C9292B1B2DED31A4B0DA928CEE135085754027E3018A397D4D5427D15BD1330B677DC8934285AC3DF45A9EB68FF8F2B8FC0A509AFEECFD0FF2DE25CC6047F7214B195F07EFEB9A094D800F7BFAE8FED187B78EA8A3A400F115961BCAD1215E47C966530AF0EE8128FE
310
58CEBB996A8964FFA529A046635D9353B0336A8F700DDF46271A024E70B0B37C9DE01847591E54DED53D54202AB947E4076556AC49C6CA5C9E1226B7F1A7B1BE15DEED62C41B91E1B3E9AFAAA735036547343A925075041DF0A9979E893B391F8FCFA6967B3EFB644DCF6E5CEBFAE272625DCC6FAF3FB93793C5F90CE1EF57
310
407342756B10D1C489E8953CD1617E5CEECAD6F4EF8914CE5D5D504E5C3F1F9736DA62CFC11E00BCDDB8CC8A9466349744C1F75EBDA4DF09BA8A9E8C7A7E9991989E20E5DBDD6A6003664ED8F7A04A8DBE0DF6EAD9B9AA858342E47399053949D2C146EDB85DE4B176BB0965FBAC19BD19AA918E27FA50C1D22402E144464C
310
59462568E704B6E71915404CB72B8FF4EDE184DDAF753F284990D2C6926782963815403548A70C657FDEF80D2D9CEAA2AE4C1C76F60BFE74219A06527D6582DF6412526107381E55E353090704D085B52408D0933C4ED159D79BDA71BB4BC506F4831350EB6F979CD22D69BF7AC49B91A2C0A9DDA3D5CA36AD20FC478E37E6
310
1844E2352865EBCB6EA275A652E3836BE04EFB400BF1A2556F515F1FBB35B2AB35BD889C744FFA1004B5544B121E57F70215746DD2F5E2C1412B602CBF19455AC6C8E5E9922C4E01E65215385004546899059180EAFCF7A707CE7017CD8CDB0410789AB32C63B91E5CEBBBACB17AC6CD347A022D5075FD106377347AAABA7E
310
7D11590744509B44E205134DC1290F06580320F78E537D3D73540E06CB970B431F185308AD40BBD794D6D77003C5A36E8EAA54BA64597CD8F83BD552A080A365F7FF06504B0304140006080000CC70623B000000000000000000000000350000006662782F39464131463745442D413632322D343644302D413938332D3331
310
353338454246344243312F76657274696365732E62696E504B0304140006080800CC70623BF270F1330600000004000000360000006662782F39464131463745442D413632322D343644302D413938332D3331353338454246344243312F747269616E676C65732E62696E636660600000504B0304140006080000CC70623B
310
000000000000000000000000370000006662782F39464131463745442D413632322D343644302D413938332D3331353338454246344243312F617474726962757465732E62696E504B0304140006080800CC70623B08DA0BD19000000041010000360000006662782F39464131463745442D413632322D343644302D413938
310
332D3331353338454246344243312F6469726563746F72792E786D6C858F410AC3201045AF22B36F53E9A60B35CBEEBAE80D244E44489C6234F4F835464A48035D0DF398FF9F8AF63D0E6CC63039F212F8F9020C7D47C6792B21C5FE7403D62A1188E2E60C98D7234A5830286103A55745067B9D86B8A3CF9C7F90C11DE607
310
FB144396D7B6A82D282E9A152AD114D5EF2CB866EEE831B8EEA07A7BB5A8D7D61A2BAAEB7FD5F70921FF497D00504B0304140006080800CC70623B0D6EF93BFE000000A00100003B0000006662782F39464131463745442D413632322D343644302D413938332D3331353338454246344243312F7265736F75726365732F63
310
6F72652E786D6C8D50596E833010BD0A9ADFCA60B334011947A8694ED00B586642AC041B79A97AFC9A40A5F6AF3F33A3B7689E1E3F7DCD8FEC139DD7D6F4C0720A191A65476DA61E62B892236427C19DB5E1970C322367EC618541F0C9D9B8EC90B226A009093576C41D94DE63804C3DD2D18357379C652E63480A7FCF17A9
310
EE72C29CE5894E3AC17D702940B63D59270887DE46A7D0F36263058F518FBB468FE9A7BE6A7420864373B8D4873369AA8691FA421B3294352543C5CAF65C0F6FEF43CB8BD52C78D0F34F46E550061C419494B6843142CB0F5677F4B52BEB177AEC28E5C52AFF638ACBF84F53D42654E51E77B379102C05791282176B5F693D
310
CB4C7BED567C03504B010214000A0000080000CC70623B3DEE336E79000000790000001B00000000000000000000000000000000006175746F6465736B2D64657369676E2D7061636B6167652E786D6C504B01021400140006080800CC70623BD486FD9CA0000000F40000001300000000000000000000000000B20000005B
310
436F6E74656E745F54797065735D2E786D6C504B01021400140006080800CC70623B1EC5D7A3EB0000007C010000080000000000000000000000000083010000636F72652E786D6C504B01021400140006080800CC70623B55019EA25F0000007C000000070000000000000000000000000094020000636E782E786D6C504B
310
01021400140006080800CC70623B8C9102E971010000D40300000C00000000000000000000000000180300006662782F636F72652E786D6C504B01021400140006080800CC70623BFFEA85907E0000009D0000000B00000000000000000000000000B30400006662782F636E782E786D6C504B01021400140006080800CC70
310
623B4FEEA4082C0100001202000031000000000000000000000000005A0500006662782F39464131463745442D413632322D343644302D413938332D3331353338454246344243312F636F72652E786D6C504B01021400140006080800CC70623BAD7543B64E010000330300003000000000000000000000000000D5060000
310
6662782F39464131463745442D413632322D343644302D413938332D3331353338454246344243312F636E782E786D6C504B01021400140006080800CC70623B16AB87BA640500003C1000003400000000000000000000000000710800006662782F39464131463745442D413632322D343644302D413938332D3331353338
310
454246344243312F6F626A656374732E786D6C504B01021400140006080000CC70623B0000000000000000000000003500000000000000000000000000270E00006662782F39464131463745442D413632322D343644302D413938332D3331353338454246344243312F76657274696365732E62696E504B01021400140006
310
080800CC70623BF270F133060000000400000036000000000000000000000000007A0E00006662782F39464131463745442D413632322D343644302D413938332D3331353338454246344243312F747269616E676C65732E62696E504B01021400140006080000CC70623B0000000000000000000000003700000000000000
310
000000000000D40E00006662782F39464131463745442D413632322D343644302D413938332D3331353338454246344243312F617474726962757465732E62696E504B01021400140006080800CC70623B08DA0BD190000000410100003600000000000000000000000000290F00006662782F39464131463745442D413632
310
322D343644302D413938332D3331353338454246344243312F6469726563746F72792E786D6C504B01021400140006080800CC70623B0D6EF93BFE000000A00100003B000000000000000000000000000D1000006662782F39464131463745442D413632322D343644302D413938332D3331353338454246344243312F7265
310
736F75726365732F636F72652E786D6C504B0506000000000E000E0080040000641100000000
  0
XRECORD
  5
175
102
{ACAD_REACTORS
330
173
102
}
330
173
100
AcDbXrecord
280
     1
270
     1
271
     1
  0
XRECORD
  5
174
102
{ACAD_REACTORS
330
173
102
}
330
173
100
AcDbXrecord
280
     1
270
     1
271
     1
  0
XRECORD
  5
1FB
102
{ACAD_REACTORS
330
173
102
}
330
173
100
AcDbXrecord
280
     1
 70
     0
 90
1673772943
  1
ECE7A1D2-D628-4531-984C-D00F80459256
310
504B03040A0000080000CC70623B3DEE336E79000000790000001B0000006175746F6465736B2D64657369676E2D7061636B6167652E786D6C3C3F786D6C2076657273696F6E3D22312E302220656E636F64696E673D227574662D3822203F3E3C666F726D6174733E3C666F726D61743E687474703A2F2F736368656D612E
310
6175746F6465736B2E636F6D2F64657369676E2D7061636B6167652F323030393C2F666F726D61743E3C2F666F726D6174733E504B0304140006080800CC70623BD486FD9CA0000000F4000000130000005B436F6E74656E745F54797065735D2E786D6C7D8EC10E82300C865F65E91D8A1E8C310C0EEA1BF002731658846E
310
D98AC1B77784ABF1D8FE5FBFBF75BBCE937A534CCEB38643598122B6FEE978D0B0485F9C41B54DDD7D022595594E1A469170414C76A4D9A4D207E29CF43ECE46F218070CC6BECC4078ACAA135ACF422C856C0E68EA1BF5669944DDD7BCDE7B1F8E415D77AECB980613C2E4AC91FC167A2B244592486606FC29C8FD7F045B9A
310
EF7053A7E60B504B0304140006080800CC70623BD9DDAED0EC0000007C01000008000000636F72652E786D6C8D90416EC3201045AF82665B61836D9CD8C2444DD39CA01740405C94182C03558F5F9C3852BBEB6A467FFE9B197D7EF89E6EE8CB2CC17A37002D0820E394D7D68D03A478C17B4007C117EFE32F1B20272733C0
310
2A83E0E3E2D3BC49CABB685CCCAAF3DA6CA20CC14440EA969B0182FA34932C648AD911AEC52CD5558EA6A0CF2EC329598D1E47ACCEFBECC59A050463A7EA5833865FEBDD0E37353BE3EE8DBDE3F6786A48D375FBF6CC78B9C282473B3DEFABC5C86834888A900E538A49F5419B9EB47DD5BC907D4F082F57FB1F28CDFA9F50
310
B22ED6D5F6EE030B20687EE43E10BC5CB3C8E51E54AE6B6EE207504B0304140006080800CC70623B55019EA25F0000007C00000007000000636E782E786D6C4DCB3B0E80201045D1AD90E915ED2CF8AC45050C11660C8261F98AB1B07AC9C97D42D718D865D3E909258CFD00CCE24AC6E326A164D74DC0B4128928FF326038
310
472BA13128B1252AC747C6BAB984FC68F0B87FE8960A5C09FE86CFB69FBA01504B0304140006080800CC70623BA24EB22D72010000D40300000C0000006662782F636F72652E786D6CC5535B6E833010BC8AE5DF0A6C5E49888CA3A6694ED00B38E05014B091B1518EDFE511A5A9D228FD2A1F60CDEC7A67C6986DCE4D8D7A
310
69BA4AAB0C073EC548AA5C17952A33ECECD15B61B4E1CC686DBF9561A44423333CC098B3D268D7CE50AE9595CA02AA74216750749DB418E5352C32DCE59FB211BE70162ABA93DF8AFC244AE9073ED050C759670D0840D390E18DF9F1706664C23973AE2A66B62A605A75ACA4C13C4976E1364A12EF355A2EBD384AF65EFA96
310
BC7B8BED2EA6719AAE16FB8491A199335B351775B991C2CA02F390D2D40B028F861F41BCA68B7518BFD0D59A524686F29B26D7164F36B94AD9289CE54E6D1DE6010819891F6E21228B3AD1831EC219194284CF98F06DD01008846CC5A1BEF83801D4CBDC6A1303536877A57A513B0953A94FC707FDBE6064EA84A9E3E6E0FA
310
EE8CF0E9198F7784A316AA0413C2C2F2E0ECA0934D1AE6D05A69BCDE9E91D2A611F573361E38FC1375157F5752AE6B6DFE4B11990F88CCBF0719EE23FF02504B0304140006080800CC70623B408A7D3B7C0000009D0000000B0000006662782F636E782E786D6C4DCCD10A83201886E15B91FFDC552A92A0064DBC8F581632
310
D3703A76F9ABD1C18E3E78F878E5F0D9027ABBFCF2292AE86E2D20171F69F6715550CB827B40839639A5F2770314A7CD293819B45C73AAFB45B35BA61ACAA1C1C7E7855C58C15BC331339661262CC762340413D68D77DA5B42298546CBE6573AF60CEB2F504B0304140006080800CC70623B449FB9BD290100001202000031
310
0000006662782F36394639363044362D344446342D343946362D394244322D3234314243333846323333332F636F72652E786D6C8D515B6EC32010BC0AE22B55850D98B871848994463E412FE002495162B07854397EA176A4F62F3F2C9A9D991D587EB84F37F0AD7D30CEF6905418026DA553C65E7A98E219ED203808EE9D
310
8B7F6810D871D23D2C3014FCE25D9A57483A1BB58D19B54EE9151C43D0110279CB971E06F9A5A7B11A53CC8C70ADE6515EC78BAE4895DB992778883E0700CB907242D17643D7E2538BD869608875438BBAE38922CAC8F1BDD90DB4691A5E2F42C153326A951B95E398B3D1FE599322163C9AE9115F7A3D46ADA0A018778810
310
84E907617BDCEE297BC5BB3DC6BC2EF47FA234AB2745C9D8D8D035EE220B50105E2F0DC1954B9FB747187D9F9D8FA0CCDB042D5FA0C015C65B42DF78BD10F3F3B363CB56C7109DCFDFBBB97E662ED92EB62D13BC2E1BCAE5777DB9966D8A1F504B0304140006080800CC70623BAD7543B64E01000033030000300000006662
310
782F36394639363044362D344446342D343946362D394244322D3234314243333846323333332F636E782E786D6CD593CD6EC32010845F0571AD6CE3D48AD20813A9873E410FBD12D82434182C7EAAE6EDBB2424CD25871E7B41D6EC30B3FA84F9E67BB2E40B4234DE8DB46F1925E094D7C6ED479AD3AE5951B2113C789FEE
310
6C943839C1488B4C05DF079FE72A69D8C96C13AAD6B8631503449F83828872B949AC57D26200B826A308D316B4064D6E46FCDA41C05550DC9E483A00797BFD207EFB092A45DE9514C1BBD22178396BD39D891265658C238DEA00936C654E5E433CB65A26D9F6EDB5EBC14EBF49A45CB856E66048291F6939A9A81BB5C89177
310
38143CA680F4AA299D66A042CEB3354A2684DC9D8D178FE0D9B8B41CAAD720F880EE7EF93C0C18769E099ECC04D5A102C8049A8A05632F4DDF376CF1DE0F6BB65C2F8627B65A33C6BB62177CEBBDAD973006829F89F22E814B54F4BC2BE347F8AA8F681390B50FA73F804400B5F542E796F19FF974E7F78DB802FE05E20750
310
4B0304140006080800CC70623B8D05915C650500003B100000340000006662782F36394639363044362D344446342D343946362D394244322D3234314243333846323333332F6F626A656374732E786D6CAD575B6FA33814FE2B887D06429276DA1565D4266D158D3A339A6846FB502932E050B66023DB74D2FDF5FB190C01
310
9276B2973C046C8ECFF53B17071F77456EBD502133CEAE6CDF9DD81665314F32965ED995DA3A17B6F5310C04E7AA47665B8C14F4CAD6DB7618A48257A5D94AE89654B91AEDDEDDFC61C998326A5B714EA4BCB265FC440BE2924AF184CA6737218AB8E976E7FA6E4338649B0A523E8D98964450A6A029F619B8588D52FE7039
310
B1BD30F0F4F730D0FF866AF6369557DB33949F31A9088B0F848DD8CCFCF9F2767A76E99CCDE733677E3EF59D9BBB9BA5E37F984D16E78BC5E5F5ED25044B25C0C96822E8D60EEFE11B91C581D77CEA34368A1F5329E68CD1B8B61F16D63A1B8E092D294B10C78C4A48EB593D192E7DED9BDEE7995E1B91FDEDD3ACEA9FE831
310
6A756F9F7D4D79F4274C90A7A04248AA51D5F8C718DAE06FB2F75AC4796EBE65D22A88A22223B995679120E2D50E41AA49C260C046A35368846B0BECD0DFF3EBEB8AD4F835768F69B9ADF25C43D30E6B646F807FAA64AD59F61715C7A54127C4AACA98BA3006A9D792DAE165E0D59B61A01FB3A9F9D838D2DAE62445C86166
310
F37564E842E7DE6A69879FEEA2DD5AE7E371E1A5E025154AC307D06A03D73EB5978C58FFA4C8E9033066E0F3BD53BEC1F39F91BE7B55103791EDE6BBB991A2046172CB4581D8B893FA674DDA17A77B3B7C413D1B511FD2743BFF8A38F03A658705E3ADF8015C3A3417FF3D7E439FF591DA0B5F18BC20C1B8981957AE6392A3
310
F43C640C01D1A0B4728E2DD4F26DB4B3C3152A252A3B4E913CEC1C72F012782FF88EFF8637AA552DBEF76408E8A8DE9E50F9E1CB3A2DA0DB1B6039A893B56063DC5B3E3FFB5F72E67AB9FEB4AEC496C4F4C1149625DD662C53E89D7BF0F6151A046260D1337DFDC94502430F83B0EE07A130A224BCAD7DAE1D9FB6CD422FF6
310
920702629C4BB9AE79C12F243C6432A6794E18E5552BA56B431AAB5D91317302B2B071E86C3A42B1A02F999E24061403B5D0EB639195DA655DD3EBEAB4FB862DDF579F014AD0E73C22F99E28DA57FB98E75C6CA2D74D53086D600F4786E0FE3144B771A8A7B900F03594DB8A633CBC49B2EDB69228BB479CF863B5E807AAAB
310
23872F6DFEB4129B949CA33823F58830E86D65621E10047D9DB34D862E8EAC3C2ABC2F7B2C40D67CDFE01F5545B92105AF983AC54D93D69E56FB8E797F88913F898A9FEC705D3F9D1B54EC8426FB500D40A03BD0119B06E1B95DDC7EB8F6975367793EBD70E66733DFB9BC982F9CE564727731999F5D4ECFCE3B8D6A4DC2A0
310
6D50FD148437D110834A64C6CDDF57FBACB5C307A2A477DFE4939736CFEF2B175371E0E10CF0DD1D5C15654E0BCA14D1E87DD02FF93782A162C0A3D95F1524A52770F972BF1EE9809D13CE7DD599467F8ECE9ADD85CE85A34CD45355448C64F9E8A031DC2D596ACC6E5DD93D9B82DE2EF5CAF81363A8E47996A0DE24564A79
310
4115AACE09C55E14540231FDA13C319787134EBF34E3A022514E5B4D9E0826E25C02D5805B15ABE1BEF51B26383D445DD9E875EE33FE4C22DA16427D65A3BCA92CA6D28DD01DF5DC53330704308475351050232CCD31583787BA75774AFB06E5070DD0C8EF484E19968C5D83BA5B90B244D31E54D55A372320FE4786B7EA58
310
44E135AA5467CB7EA333A61683CC6A8C3257034C10CF46F40EF9F5BE59BE5BD30C3C72D235E95D10345C1D45445A5F0BB47E46A5EBE5570F9380B5FA629579952296A773720405982B9DE04011506178964401AA8BDF1FBF0A8EAB6861DD6580C0E38217056766716DAEB2D6FA0917D3E4116581EADB879C4E7CFFB11EFACD
310
3D641311495D92C8676CB409A72D18610D803CE8A626049E8EC1887CB5B44CC39883690DDA8399B4B9855B481E7D71D4A9D22F96E5BB73BF5793020C02137BF837504B0304140006080000CC70623B000000000000000000000000350000006662782F36394639363044362D344446342D343946362D394244322D32343142
310
43333846323333332F76657274696365732E62696E504B0304140006080800CC70623BF270F1330600000004000000360000006662782F36394639363044362D344446342D343946362D394244322D3234314243333846323333332F747269616E676C65732E62696E636660600000504B0304140006080000CC70623B0000
310
00000000000000000000370000006662782F36394639363044362D344446342D343946362D394244322D3234314243333846323333332F617474726962757465732E62696E504B0304140006080800CC70623B08DA0BD19000000041010000360000006662782F36394639363044362D344446342D343946362D394244322D
310
3234314243333846323333332F6469726563746F72792E786D6C858F410AC3201045AF22B36F53E9A60B35CBEEBAE80D244E44489C6234F4F835464A48035D0DF398FF9F8AF63D0E6CC63039F212F8F9020C7D47C6792B21C5FE7403D62A1188E2E60C98D7234A5830286103A55745067B9D86B8A3CF9C7F90C11DE607FB14
310
4396D7B6A82D282E9A152AD114D5EF2CB866EEE831B8EEA07A7BB5A8D7D61A2BAAEB7FD5F70921FF497D00504B0304140006080800CC70623BCA768048FE000000A00100003B0000006662782F36394639363044362D344446342D343946362D394244322D3234314243333846323333332F7265736F75726365732F636F72
310
652E786D6C8D50596E833010BD0A9ADFCA60D600328E9AA639412F609909B1126CE4A5EAF16B0295DABFFECC8CDEA2797AECF8353F924FB44E193D409E5248504B332A3D0D10FC95B4901C39B3C6F85F3248B49871801506CE266BC2B243D2688FDA47549B11775038871E12F988C7004EDE7016A9083E2ADC3D5D84BC8B09
310
D33C8D74D471E6BC8D0192EDC93A815B742658898E651BCB59086ADC356A8C3FD555A1055ED7E7E254D615792D0F075295F585746FF53B694EE78A565DD736979A65AB9933AFE69F8CD2A2F038022F28ED489E135A7CE4554F9BBEA85E68DB53CAB255FEC71496F19FA6A0B42F8B3DEE6673C0F318E4497096AD7DC5F52C33
310
EEB55BFE0D504B010214000A0000080000CC70623B3DEE336E79000000790000001B00000000000000000000000000000000006175746F6465736B2D64657369676E2D7061636B6167652E786D6C504B01021400140006080800CC70623BD486FD9CA0000000F40000001300000000000000000000000000B20000005B436F
310
6E74656E745F54797065735D2E786D6C504B01021400140006080800CC70623BD9DDAED0EC0000007C010000080000000000000000000000000083010000636F72652E786D6C504B01021400140006080800CC70623B55019EA25F0000007C000000070000000000000000000000000095020000636E782E786D6C504B0102
310
1400140006080800CC70623BA24EB22D72010000D40300000C00000000000000000000000000190300006662782F636F72652E786D6C504B01021400140006080800CC70623B408A7D3B7C0000009D0000000B00000000000000000000000000B50400006662782F636E782E786D6C504B01021400140006080800CC70623B
310
449FB9BD290100001202000031000000000000000000000000005A0500006662782F36394639363044362D344446342D343946362D394244322D3234314243333846323333332F636F72652E786D6C504B01021400140006080800CC70623BAD7543B64E010000330300003000000000000000000000000000D20600006662
310
782F36394639363044362D344446342D343946362D394244322D3234314243333846323333332F636E782E786D6C504B01021400140006080800CC70623B8D05915C650500003B10000034000000000000000000000000006E0800006662782F36394639363044362D344446342D343946362D394244322D32343142433338
310
46323333332F6F626A656374732E786D6C504B01021400140006080000CC70623B0000000000000000000000003500000000000000000000000000250E00006662782F36394639363044362D344446342D343946362D394244322D3234314243333846323333332F76657274696365732E62696E504B010214001400060808
310
00CC70623BF270F13306000000040000003600000000000000000000000000780E00006662782F36394639363044362D344446342D343946362D394244322D3234314243333846323333332F747269616E676C65732E62696E504B01021400140006080000CC70623B00000000000000000000000037000000000000000000
310
00000000D20E00006662782F36394639363044362D344446342D343946362D394244322D3234314243333846323333332F617474726962757465732E62696E504B01021400140006080800CC70623B08DA0BD190000000410100003600000000000000000000000000270F00006662782F36394639363044362D344446342D
310
343946362D394244322D3234314243333846323333332F6469726563746F72792E786D6C504B01021400140006080800CC70623BCA768048FE000000A00100003B000000000000000000000000000B1000006662782F36394639363044362D344446342D343946362D394244322D3234314243333846323333332F7265736F
310
75726365732F636F72652E786D6C504B0506000000000E000E0080040000621100000000
  0
XRECORD
  5
176
102
{ACAD_REACTORS
330
173
102
}
330
173
100
AcDbXrecord
280
     1
270
     1
271
     1
  0
XRECORD
  5
177
102
{ACAD_REACTORS
330
173
102
}
330
173
100
AcDbXrecord
280
     1
270
     1
271
     1
  0
XRECORD
  5
887
102
{ACAD_REACTORS
330
886
102
}
330
886
100
AcDbXrecord
280
     1
102
DISPLAYNAME
  1
Metric50
102
FLAGS
 90
        0
  0
CELLSTYLEMAP
  5
87C
102
{ACAD_REACTORS
330
162
102
}
330
162
100
AcDbCellStyleMap
 90
        3
300
CELLSTYLE
  1
TABLEFORMAT_BEGIN
 90
        5
170
     1
 91
        0
 92
    32768
 62
   257
 93
        1
300
CONTENTFORMAT
  1
CONTENTFORMAT_BEGIN
 90
        0
 91
        0
 92
      512
 93
        0
300

 40
0.0
140
1.0
 94
        5
 62
     0
340
11
144
6.0
309
CONTENTFORMAT_END
171
     1
301
MARGIN
  1
CELLMARGIN_BEGIN
 40
1.5
 40
1.5
 40
1.5
 40
1.5
 40
4.5
 40
4.5
309
CELLMARGIN_END
 94
        6
 95
        1
302
GRIDFORMAT
  1
GRIDFORMAT_BEGIN
 90
        0
 91
        1
 62
     0
 92
       -2
340
14
 93
        0
 40
1.125
309
GRIDFORMAT_END
 95
        2
302
GRIDFORMAT
  1
GRIDFORMAT_BEGIN
 90
        0
 91
        1
 62
     0
 92
       -2
340
14
 93
        0
 40
1.125
309
GRIDFORMAT_END
 95
        4
302
GRIDFORMAT
  1
GRIDFORMAT_BEGIN
 90
        0
 91
        1
 62
     0
 92
       -2
340
14
 93
        0
 40
1.125
309
GRIDFORMAT_END
 95
        8
302
GRIDFORMAT
  1
GRIDFORMAT_BEGIN
 90
        0
 91
        1
 62
     0
 92
       -2
340
14
 93
        0
 40
1.125
309
GRIDFORMAT_END
 95
       16
302
GRIDFORMAT
  1
GRIDFORMAT_BEGIN
 90
        0
 91
        1
 62
     0
 92
       -2
340
14
 93
        0
 40
1.125
309
GRIDFORMAT_END
 95
       32
302
GRIDFORMAT
  1
GRIDFORMAT_BEGIN
 90
        0
 91
        1
 62
     0
 92
       -2
340
14
 93
        0
 40
1.125
309
GRIDFORMAT_END
309
TABLEFORMAT_END
  1
CELLSTYLE_BEGIN
 90
        1
 91
        1
300
_TITLE
309
CELLSTYLE_END
300
CELLSTYLE
  1
TABLEFORMAT_BEGIN
 90
        5
170
     1
 91
        0
 92
        0
 62
   257
 93
        1
300
CONTENTFORMAT
  1
CONTENTFORMAT_BEGIN
 90
        0
 91
        0
 92
      512
 93
        0
300

 40
0.0
140
1.0
 94
        5
 62
     0
340
11
144
4.5
309
CONTENTFORMAT_END
171
     1
301
MARGIN
  1
CELLMARGIN_BEGIN
 40
1.5
 40
1.5
 40
1.5
 40
1.5
 40
4.5
 40
4.5
309
CELLMARGIN_END
 94
        6
 95
        1
302
GRIDFORMAT
  1
GRIDFORMAT_BEGIN
 90
        0
 91
        1
 62
     0
 92
       -2
340
14
 93
        0
 40
1.125
309
GRIDFORMAT_END
 95
        2
302
GRIDFORMAT
  1
GRIDFORMAT_BEGIN
 90
        0
 91
        1
 62
     0
 92
       -2
340
14
 93
        0
 40
1.125
309
GRIDFORMAT_END
 95
        4
302
GRIDFORMAT
  1
GRIDFORMAT_BEGIN
 90
        0
 91
        1
 62
     0
 92
       -2
340
14
 93
        0
 40
1.125
309
GRIDFORMAT_END
 95
        8
302
GRIDFORMAT
  1
GRIDFORMAT_BEGIN
 90
        0
 91
        1
 62
     0
 92
       -2
340
14
 93
        0
 40
1.125
309
GRIDFORMAT_END
 95
       16
302
GRIDFORMAT
  1
GRIDFORMAT_BEGIN
 90
        0
 91
        1
 62
     0
 92
       -2
340
14
 93
        0
 40
1.125
309
GRIDFORMAT_END
 95
       32
302
GRIDFORMAT
  1
GRIDFORMAT_BEGIN
 90
        0
 91
        1
 62
     0
 92
       -2
340
14
 93
        0
 40
1.125
309
GRIDFORMAT_END
309
TABLEFORMAT_END
  1
CELLSTYLE_BEGIN
 90
        2
 91
        1
300
_HEADER
309
CELLSTYLE_END
300
CELLSTYLE
  1
TABLEFORMAT_BEGIN
 90
        5
170
     1
 91
        0
 92
        0
 62
   257
 93
        1
300
CONTENTFORMAT
  1
CONTENTFORMAT_BEGIN
 90
        0
 91
        0
 92
      512
 93
        0
300

 40
0.0
140
1.0
 94
        2
 62
     0
340
11
144
4.5
309
CONTENTFORMAT_END
171
     1
301
MARGIN
  1
CELLMARGIN_BEGIN
 40
1.5
 40
1.5
 40
1.5
 40
1.5
 40
4.5
 40
4.5
309
CELLMARGIN_END
 94
        6
 95
        1
302
GRIDFORMAT
  1
GRIDFORMAT_BEGIN
 90
        0
 91
        1
 62
     0
 92
       -2
340
14
 93
        0
 40
1.125
309
GRIDFORMAT_END
 95
        2
302
GRIDFORMAT
  1
GRIDFORMAT_BEGIN
 90
        0
 91
        1
 62
     0
 92
       -2
340
14
 93
        0
 40
1.125
309
GRIDFORMAT_END
 95
        4
302
GRIDFORMAT
  1
GRIDFORMAT_BEGIN
 90
        0
 91
        1
 62
     0
 92
       -2
340
14
 93
        0
 40
1.125
309
GRIDFORMAT_END
 95
        8
302
GRIDFORMAT
  1
GRIDFORMAT_BEGIN
 90
        0
 91
        1
 62
     0
 92
       -2
340
14
 93
        0
 40
1.125
309
GRIDFORMAT_END
 95
       16
302
GRIDFORMAT
  1
GRIDFORMAT_BEGIN
 90
        0
 91
        1
 62
     0
 92
       -2
340
14
 93
        0
 40
1.125
309
GRIDFORMAT_END
 95
       32
302
GRIDFORMAT
  1
GRIDFORMAT_BEGIN
 90
        0
 91
        1
 62
     0
 92
       -2
340
14
 93
        0
 40
1.125
309
GRIDFORMAT_END
309
TABLEFORMAT_END
  1
CELLSTYLE_BEGIN
 90
        3
 91
        2
300
_DATA
309
CELLSTYLE_END
  0
ENDSEC
  0
SECTION
  2
ACDSDATA
 70
     2
 71
     8
  0
ACDSSCHEMA
 90
        0
  1
AcDb_Thumbnail_Schema
  2
AcDbDs::ID
280
    10
 91
        8
  2
Thumbnail_Data
280
    15
 91
        0
101
ACDSRECORD
 95
        0
 90
        1
  2
AcDbDs::TreatedAsObjectData
280
     1
291
     1
101
ACDSRECORD
 95
        0
 90
        2
  2
AcDbDs::Legacy
280
     1
291
     1
101
ACDSRECORD
  1
AcDbDs::ID
 90
        3
  2
AcDs:Indexable
280
     1
291
     1
101
ACDSRECORD
  1
AcDbDs::ID
 90
        4
  2
AcDbDs::HandleAttribute
280
     7
282
     1
  0
ACDSSCHEMA
 90
        1
  1
AcDbDs::TreatedAsObjectDataSchema
  2
AcDbDs::TreatedAsObjectData
280
     1
 91
        0
  0
ACDSSCHEMA
 90
        2
  1
AcDbDs::LegacySchema
  2
AcDbDs::Legacy
280
     1
 91
        0
  0
ACDSSCHEMA
 90
        3
  1
AcDbDs::IndexedPropertySchema
  2
AcDs:Indexable
280
     1
 91
        0
  0
ACDSSCHEMA
 90
        4
  1
AcDbDs::HandleAttributeSchema
  2
AcDbDs::HandleAttribute
280
     7
 91
        1
284
     1
  0
ACDSRECORD
 90
        0
  2
AcDbDs::ID
280
    10
320
22
  2
Thumbnail_Data
280
    15
 94
      896
310
89504E470D0A1A0A0000000D49484452000001000000009108030000001BE1960600000300504C5445212830FFFFFF2128300000000000000000000000000000000000000000000000000000330000660000990000CC0000FF0033000033330033660033990033CC0033FF0066000066330066660066990066CC0066FF0099
310
000099330099660099990099CC0099FF00CC0000CC3300CC6600CC9900CCCC00CCFF00FF0000FF3300FF6600FF9900FFCC00FFFF3300003300333300663300993300CC3300FF3333003333333333663333993333CC3333FF3366003366333366663366993366CC3366FF3399003399333399663399993399CC3399FF33CC00
310
33CC3333CC6633CC9933CCCC33CCFF33FF0033FF3333FF6633FF9933FFCC33FFFF6600006600336600666600996600CC6600FF6633006633336633666633996633CC6633FF6666006666336666666666996666CC6666FF6699006699336699666699996699CC6699FF66CC0066CC3366CC6666CC9966CCCC66CCFF66FF0066
310
FF3366FF6666FF9966FFCC66FFFF9900009900339900669900999900CC9900FF9933009933339933669933999933CC9933FF9966009966339966669966999966CC9966FF9999009999339999669999999999CC9999FF99CC0099CC3399CC6699CC9999CCCC99CCFF99FF0099FF3399FF6699FF9999FFCC99FFFFCC0000CC00
310
33CC0066CC0099CC00CCCC00FFCC3300CC3333CC3366CC3399CC33CCCC33FFCC6600CC6633CC6666CC6699CC66CCCC66FFCC9900CC9933CC9966CC9999CC99CCCC99FFCCCC00CCCC33CCCC66CCCC99CCCCCCCCCCFFCCFF00CCFF33CCFF66CCFF99CCFFCCCCFFFFFF0000FF0033FF0066FF0099FF00CCFF00FFFF3300FF3333
310
FF3366FF3399FF33CCFF33FFFF6600FF6633FF6666FF6699FF66CCFF66FFFF9900FF9933FF9966FF9999FF99CCFF99FFFFCC00FFCC33FFCC66FFCC99FFCCCCFFCCFFFFFF00FFFF33FFFF66FFFF99FFFFCCFFFFFF0000000D0D0D1A1A1A2828283535354343435050505D5D5D6B6B6B787878868686939393A1A1A1AEAEAEBB
310
BBBBC9C9C9D6D6D6E4E4E4F1F1F1FFFFFF0000000000000000000000000000000000000000000000000000000000002E4550F10000003B4944415478DAEDC13101000000C2A0F54F6D0B2FA0000000000000000000000000000000000000000000000000000000000000000000000000CE06919100016C9A5B1B0000000049
310
454E44AE426082
  0
ENDSEC
  0
EOF
