  0
SECTION
  2
HEADER
  9
$ACADVER
  1
AC1027
  9
$ACADMAINTVER
 70
   125
  9
$DWGCODEPAGE
  3
ANSI_1252
  9
$LASTSAVEDBY
  1
ufficio.tecnico
  9
$REQUIREDVERSIONS
160
                 0
  9
$INSBASE
 10
0.0
 20
0.0
 30
0.0
  9
$EXTMIN
 10
-1.377520168673036
 20
-32.49191628485077
 30
0.0
  9
$EXTMAX
 10
98.01310354427755
 20
-14.95722845859059
 30
0.0
  9
$LIMMIN
 10
0.0
 20
0.0
  9
$LIMMAX
 10
12.0
 20
9.0
  9
$ORTHOMODE
 70
     0
  9
$REGENMODE
 70
     1
  9
$FILLMODE
 70
     1
  9
$QTEXTMODE
 70
     0
  9
$MIRRTEXT
 70
     0
  9
$LTSCALE
 40
1.0
  9
$ATTMODE
 70
     1
  9
$TEXTSIZE
 40
0.2
  9
$TRACEWID
 40
0.05
  9
$TEXTSTYLE
  7
Standard
  9
$CLAYER
  8
0
  9
$CELTYPE
  6
ByLayer
  9
$CECOLOR
 62
   256
  9
$CELTSCALE
 40
1.0
  9
$DISPSILH
 70
     0
  9
$DIMSCALE
 40
1.0
  9
$DIMASZ
 40
0.18
  9
$DIMEXO
 40
0.0625
  9
$DIMDLI
 40
0.38
  9
$DIMRND
 40
0.0
  9
$DIMDLE
 40
0.0
  9
$DIMEXE
 40
0.18
  9
$DIMTP
 40
0.0
  9
$DIMTM
 40
0.0
  9
$DIMTXT
 40
0.18
  9
$DIMCEN
 40
0.09
  9
$DIMTSZ
 40
0.0
  9
$DIMTOL
 70
     0
  9
$DIMLIM
 70
     0
  9
$DIMTIH
 70
     1
  9
$DIMTOH
 70
     1
  9
$DIMSE1
 70
     0
  9
$DIMSE2
 70
     0
  9
$DIMTAD
 70
     0
  9
$DIMZIN
 70
     0
  9
$DIMBLK
  1

  9
$DIMASO
 70
     1
  9
$DIMSHO
 70
     1
  9
$DIMPOST
  1

  9
$DIMAPOST
  1

  9
$DIMALT
 70
     0
  9
$DIMALTD
 70
     2
  9
$DIMALTF
 40
25.4
  9
$DIMLFAC
 40
1.0
  9
$DIMTOFL
 70
     0
  9
$DIMTVP
 40
0.0
  9
$DIMTIX
 70
     0
  9
$DIMSOXD
 70
     0
  9
$DIMSAH
 70
     0
  9
$DIMBLK1
  1

  9
$DIMBLK2
  1

  9
$DIMSTYLE
  2
Standard
  9
$DIMCLRD
 70
     0
  9
$DIMCLRE
 70
     0
  9
$DIMCLRT
 70
     0
  9
$DIMTFAC
 40
1.0
  9
$DIMGAP
 40
0.09
  9
$DIMJUST
 70
     0
  9
$DIMSD1
 70
     0
  9
$DIMSD2
 70
     0
  9
$DIMTOLJ
 70
     1
  9
$DIMTZIN
 70
     0
  9
$DIMALTZ
 70
     0
  9
$DIMALTTZ
 70
     0
  9
$DIMUPT
 70
     0
  9
$DIMDEC
 70
     4
  9
$DIMTDEC
 70
     4
  9
$DIMALTU
 70
     2
  9
$DIMALTTD
 70
     2
  9
$DIMTXSTY
  7
Standard
  9
$DIMAUNIT
 70
     0
  9
$DIMADEC
 70
     0
  9
$DIMALTRND
 40
0.0
  9
$DIMAZIN
 70
     0
  9
$DIMDSEP
 70
    46
  9
$DIMATFIT
 70
     3
  9
$DIMFRAC
 70
     0
  9
$DIMLDRBLK
  1

  9
$DIMLUNIT
 70
     2
  9
$DIMLWD
 70
    -2
  9
$DIMLWE
 70
    -2
  9
$DIMTMOVE
 70
     0
  9
$DIMFXL
 40
1.0
  9
$DIMFXLON
 70
     0
  9
$DIMJOGANG
 40
0.7853981633974483
  9
$DIMTFILL
 70
     0
  9
$DIMTFILLCLR
 70
     0
  9
$DIMARCSYM
 70
     0
  9
$DIMLTYPE
  6

  9
$DIMLTEX1
  6

  9
$DIMLTEX2
  6

  9
$DIMTXTDIRECTION
 70
     0
  9
$LUNITS
 70
     2
  9
$LUPREC
 70
     4
  9
$SKETCHINC
 40
0.1
  9
$FILLETRAD
 40
0.0
  9
$AUNITS
 70
     0
  9
$AUPREC
 70
     0
  9
$MENU
  1
.
  9
$ELEVATION
 40
0.0
  9
$PELEVATION
 40
0.0
  9
$THICKNESS
 40
0.0
  9
$LIMCHECK
 70
     0
  9
$CHAMFERA
 40
0.0
  9
$CHAMFERB
 40
0.0
  9
$CHAMFERC
 40
0.0
  9
$CHAMFERD
 40
0.0
  9
$SKPOLY
 70
     0
  9
$TDCREATE
 40
2459858.650983797
  9
$TDUCREATE
 40
2459858.567650463
  9
$TDUPDATE
 40
2459864.414050926
  9
$TDUUPDATE
 40
2459864.330717592
  9
$TDINDWG
 40
0.0051273148
  9
$TDUSRTIMER
 40
0.0051273148
  9
$USRTIMER
 70
     1
  9
$ANGBASE
 50
0.0
  9
$ANGDIR
 70
     0
  9
$PDMODE
 70
     0
  9
$PDSIZE
 40
0.0
  9
$PLINEWID
 40
0.0
  9
$SPLFRAME
 70
     0
  9
$SPLINETYPE
 70
     6
  9
$SPLINESEGS
 70
     8
  9
$HANDSEED
  5
2FD
  9
$SURFTAB1
 70
     6
  9
$SURFTAB2
 70
     6
  9
$SURFTYPE
 70
     6
  9
$SURFU
 70
     6
  9
$SURFV
 70
     6
  9
$UCSBASE
  2

  9
$UCSNAME
  2

  9
$UCSORG
 10
0.0
 20
0.0
 30
0.0
  9
$UCSXDIR
 10
1.0
 20
0.0
 30
0.0
  9
$UCSYDIR
 10
0.0
 20
1.0
 30
0.0
  9
$UCSORTHOREF
  2

  9
$UCSORTHOVIEW
 70
     0
  9
$UCSORGTOP
 10
0.0
 20
0.0
 30
0.0
  9
$UCSORGBOTTOM
 10
0.0
 20
0.0
 30
0.0
  9
$UCSORGLEFT
 10
0.0
 20
0.0
 30
0.0
  9
$UCSORGRIGHT
 10
0.0
 20
0.0
 30
0.0
  9
$UCSORGFRONT
 10
0.0
 20
0.0
 30
0.0
  9
$UCSORGBACK
 10
0.0
 20
0.0
 30
0.0
  9
$PUCSBASE
  2

  9
$PUCSNAME
  2

  9
$PUCSORG
 10
0.0
 20
0.0
 30
0.0
  9
$PUCSXDIR
 10
1.0
 20
0.0
 30
0.0
  9
$PUCSYDIR
 10
0.0
 20
1.0
 30
0.0
  9
$PUCSORTHOREF
  2

  9
$PUCSORTHOVIEW
 70
     0
  9
$PUCSORGTOP
 10
0.0
 20
0.0
 30
0.0
  9
$PUCSORGBOTTOM
 10
0.0
 20
0.0
 30
0.0
  9
$PUCSORGLEFT
 10
0.0
 20
0.0
 30
0.0
  9
$PUCSORGRIGHT
 10
0.0
 20
0.0
 30
0.0
  9
$PUCSORGFRONT
 10
0.0
 20
0.0
 30
0.0
  9
$PUCSORGBACK
 10
0.0
 20
0.0
 30
0.0
  9
$USERI1
 70
     0
  9
$USERI2
 70
     0
  9
$USERI3
 70
     0
  9
$USERI4
 70
     0
  9
$USERI5
 70
     0
  9
$USERR1
 40
0.0
  9
$USERR2
 40
0.0
  9
$USERR3
 40
0.0
  9
$USERR4
 40
0.0
  9
$USERR5
 40
0.0
  9
$WORLDVIEW
 70
     1
  9
$SHADEDGE
 70
     3
  9
$SHADEDIF
 70
    70
  9
$TILEMODE
 70
     1
  9
$MAXACTVP
 70
    64
  9
$PINSBASE
 10
0.0
 20
0.0
 30
0.0
  9
$PLIMCHECK
 70
     0
  9
$PEXTMIN
 10
1.000000000000000E+20
 20
1.000000000000000E+20
 30
1.000000000000000E+20
  9
$PEXTMAX
 10
-1.000000000000000E+20
 20
-1.000000000000000E+20
 30
-1.000000000000000E+20
  9
$PLIMMIN
 10
0.0
 20
0.0
  9
$PLIMMAX
 10
12.0
 20
9.0
  9
$UNITMODE
 70
     0
  9
$VISRETAIN
 70
     1
  9
$PLINEGEN
 70
     0
  9
$PSLTSCALE
 70
     1
  9
$TREEDEPTH
 70
  3020
  9
$CMLSTYLE
  2
Standard
  9
$CMLJUST
 70
     0
  9
$CMLSCALE
 40
1.0
  9
$PROXYGRAPHICS
 70
     1
  9
$MEASUREMENT
 70
     0
  9
$CELWEIGHT
370
    -1
  9
$ENDCAPS
280
     0
  9
$JOINSTYLE
280
     0
  9
$LWDISPLAY
290
     1
  9
$INSUNITS
 70
     4
  9
$HYPERLINKBASE
  1

  9
$STYLESHEET
  1

  9
$XEDIT
290
     1
  9
$CEPSNTYPE
380
     0
  9
$PSTYLEMODE
290
     1
  9
$FINGERPRINTGUID
  2
{E715C84E-C3B2-DA45-A460-956375EB4486}
  9
$VERSIONGUID
  2
{62F6A91B-C6BB-3F48-B667-3347A40B35F0}
  9
$EXTNAMES
290
     1
  9
$PSVPSCALE
 40
0.0
  9
$OLESTARTUP
290
     0
  9
$SORTENTS
280
   127
  9
$INDEXCTL
280
     0
  9
$HIDETEXT
280
     1
  9
$XCLIPFRAME
280
     2
  9
$HALOGAP
280
     0
  9
$OBSCOLOR
 70
   257
  9
$OBSLTYPE
280
     0
  9
$INTERSECTIONDISPLAY
280
     0
  9
$INTERSECTIONCOLOR
 70
   257
  9
$DIMASSOC
280
     2
  9
$PROJECTNAME
  1

  9
$CAMERADISPLAY
290
     0
  9
$LENSLENGTH
 40
50.0
  9
$CAMERAHEIGHT
 40
0.0
  9
$STEPSPERSEC
 40
2.0
  9
$STEPSIZE
 40
6.0
  9
$3DDWFPREC
 40
2.0
  9
$PSOLWIDTH
 40
0.25
  9
$PSOLHEIGHT
 40
4.0
  9
$LOFTANG1
 40
1.570796326794896
  9
$LOFTANG2
 40
1.570796326794896
  9
$LOFTMAG1
 40
0.0
  9
$LOFTMAG2
 40
0.0
  9
$LOFTPARAM
 70
     7
  9
$LOFTNORMALS
280
     1
  9
$LATITUDE
 40
37.795
  9
$LONGITUDE
 40
-122.394
  9
$NORTHDIRECTION
 40
0.0
  9
$TIMEZONE
 70
 -8000
  9
$LIGHTGLYPHDISPLAY
280
     1
  9
$TILEMODELIGHTSYNCH
280
     1
  9
$CMATERIAL
347
11
  9
$SOLIDHIST
280
     0
  9
$SHOWHIST
280
     1
  9
$DWFFRAME
280
     2
  9
$DGNFRAME
280
     0
  9
$REALWORLDSCALE
290
     1
  9
$INTERFERECOLOR
 62
     1
  9
$INTERFEREOBJVS
345
33
  9
$INTERFEREVPVS
346
30
  9
$CSHADOW
280
     0
  9
$SHADOWPLANELOCATION
 40
0.0
  0
ENDSEC
  0
SECTION
  2
CLASSES
  0
CLASS
  1
ACDBDICTIONARYWDFLT
  2
AcDbDictionaryWithDefault
  3
ObjectDBX Classes
 90
        0
 91
        1
280
     0
281
     0
  0
CLASS
  1
MATERIAL
  2
AcDbMaterial
  3
ObjectDBX Classes
 90
     1153
 91
        3
280
     0
281
     0
  0
CLASS
  1
VISUALSTYLE
  2
AcDbVisualStyle
  3
ObjectDBX Classes
 90
     4095
 91
       24
280
     0
281
     0
  0
CLASS
  1
SCALE
  2
AcDbScale
  3
ObjectDBX Classes
 90
     1153
 91
       17
280
     0
281
     0
  0
CLASS
  1
TABLESTYLE
  2
AcDbTableStyle
  3
ObjectDBX Classes
 90
     4095
 91
        1
280
     0
281
     0
  0
CLASS
  1
MLEADERSTYLE
  2
AcDbMLeaderStyle
  3
ACDB_MLEADERSTYLE_CLASS
 90
     4095
 91
        1
280
     0
281
     0
  0
CLASS
  1
ACDBSECTIONVIEWSTYLE
  2
AcDbSectionViewStyle
  3
ObjectDBX Classes
 90
     1025
 91
        1
280
     0
281
     0
  0
CLASS
  1
ACDBDETAILVIEWSTYLE
  2
AcDbDetailViewStyle
  3
ObjectDBX Classes
 90
     1025
 91
        1
280
     0
281
     0
  0
CLASS
  1
DICTIONARYVAR
  2
AcDbDictionaryVar
  3
ObjectDBX Classes
 90
        0
 91
        5
280
     0
281
     0
  0
CLASS
  1
SORTENTSTABLE
  2
AcDbSortentsTable
  3
ObjectDBX Classes
 90
        0
 91
        3
280
     0
281
     0
  0
CLASS
  1
CELLSTYLEMAP
  2
AcDbCellStyleMap
  3
ObjectDBX Classes
 90
     1152
 91
        3
280
     0
281
     0
  0
ENDSEC
  0
SECTION
  2
TABLES
  0
TABLE
  2
VPORT
  5
8
330
0
100
AcDbSymbolTable
 70
     1
1001
ACAD
1000
DbSaveVer
1071
      249
  0
VPORT
  5
57
330
8
100
AcDbSymbolTableRecord
100
AcDbViewportTableRecord
  2
*Active
 70
     0
 10
0.0
 20
0.0
 11
1.0
 21
1.0
 12
-2.466615675300531
 22
-21.91630946413311
 13
0.0
 23
0.0
 14
1.0
 24
1.0
 15
0.0
 25
0.0
 16
0.0
 26
0.0
 36
1.0
 17
49.99999998749409
 27
-16.79677418934916
 37
0.0
 40
89.75507348479087
 41
1.855329949238578
 42
50.0
 43
0.0
 44
0.0
 50
0.0
 51
0.0
 71
     0
 72
   100
 73
     1
 74
     1
 75
     0
 76
     0
 77
     0
 78
     0
281
     0
 65
     1
110
0.0
120
0.0
130
0.0
111
1.0
121
0.0
131
0.0
112
0.0
122
1.0
132
0.0
 79
     0
146
0.0
348
2F
 60
     3
 61
     5
292
     1
282
     1
141
0.0
142
0.0
 63
   250
421
  3355443
1001
ACAD_NAV_VCDISPLAY
1070
     3
  0
ENDTAB
  0
TABLE
  2
LTYPE
  5
5
330
0
100
AcDbSymbolTable
 70
     3
  0
LTYPE
  5
5B
330
5
100
AcDbSymbolTableRecord
100
AcDbLinetypeTableRecord
  2
ByBlock
 70
     0
  3

 72
    65
 73
     0
 40
0.0
  0
LTYPE
  5
5C
330
5
100
AcDbSymbolTableRecord
100
AcDbLinetypeTableRecord
  2
ByLayer
 70
     0
  3

 72
    65
 73
     0
 40
0.0
  0
LTYPE
  5
5D
330
5
100
AcDbSymbolTableRecord
100
AcDbLinetypeTableRecord
  2
Continuous
 70
     0
  3
Solid line
 72
    65
 73
     0
 40
0.0
  0
ENDTAB
  0
TABLE
  2
LAYER
  5
2
330
0
100
AcDbSymbolTable
 70
     2
  0
LAYER
  5
54
330
2
100
AcDbSymbolTableRecord
100
AcDbLayerTableRecord
  2
0
 70
     0
 62
     7
  6
Continuous
370
    -3
390
F
347
21
348
0
  0
LAYER
  5
78
330
2
100
AcDbSymbolTableRecord
100
AcDbLayerTableRecord
  2
Livello 1
 70
     0
 62
     7
  6
Continuous
370
     0
390
F
347
21
348
0
  0
ENDTAB
  0
TABLE
  2
STYLE
  5
3
330
0
100
AcDbSymbolTable
 70
     2
  0
STYLE
  5
55
330
3
100
AcDbSymbolTableRecord
100
AcDbTextStyleTableRecord
  2
Standard
 70
     0
 40
0.0
 41
1.0
 50
0.0
 71
     0
 42
0.2
  3
txt
  4

  0
STYLE
  5
5A
330
3
100
AcDbSymbolTableRecord
100
AcDbTextStyleTableRecord
  2
Annotative
 70
     0
 40
0.0
 41
1.0
 50
0.0
 71
     0
 42
0.2
  3
txt
  4

1001
AcadAnnotative
1000
AnnotativeData
1002
{
1070
     1
1070
     1
1002
}
  0
ENDTAB
  0
TABLE
  2
VIEW
  5
6
330
0
100
AcDbSymbolTable
 70
     0
  0
ENDTAB
  0
TABLE
  2
UCS
  5
7
330
0
100
AcDbSymbolTable
 70
     0
  0
ENDTAB
  0
TABLE
  2
APPID
  5
9
330
0
100
AcDbSymbolTable
 70
     4
  0
APPID
  5
56
330
9
100
AcDbSymbolTableRecord
100
AcDbRegAppTableRecord
  2
ACAD
 70
     0
  0
APPID
  5
5E
330
9
100
AcDbSymbolTableRecord
100
AcDbRegAppTableRecord
  2
AcadAnnotative
 70
     0
  0
APPID
  5
2CB
330
9
100
AcDbSymbolTableRecord
100
AcDbRegAppTableRecord
  2
ACAD_EXEMPT_FROM_CAD_STANDARDS
 70
     0
  0
APPID
  5
2D7
330
9
100
AcDbSymbolTableRecord
100
AcDbRegAppTableRecord
  2
ACAD_NAV_VCDISPLAY
 70
     0
  0
ENDTAB
  0
TABLE
  2
DIMSTYLE
  5
A
330
0
100
AcDbSymbolTable
 70
     3
100
AcDbDimStyleTable
 71
     1
340
58
  0
DIMSTYLE
105
58
330
A
100
AcDbSymbolTableRecord
100
AcDbDimStyleTableRecord
  2
Standard
 70
     0
340
55
  0
DIMSTYLE
105
59
330
A
100
AcDbSymbolTableRecord
100
AcDbDimStyleTableRecord
  2
Annotative
 70
     0
340
55
1001
AcadAnnotative
1000
AnnotativeData
1002
{
1070
     1
1070
     1
1002
}
  0
ENDTAB
  0
TABLE
  2
BLOCK_RECORD
  5
1
330
0
100
AcDbSymbolTable
 70
     4
  0
BLOCK_RECORD
  5
70
102
{ACAD_XDICTIONARY
360
1FA
102
}
330
1
100
AcDbSymbolTableRecord
100
AcDbBlockTableRecord
  2
*Model_Space
340
73
 70
     0
280
     1
281
     0
  0
BLOCK_RECORD
  5
6C
330
1
100
AcDbSymbolTableRecord
100
AcDbBlockTableRecord
  2
*Paper_Space
340
6F
 70
     0
280
     1
281
     0
  0
BLOCK_RECORD
  5
74
330
1
100
AcDbSymbolTableRecord
100
AcDbBlockTableRecord
  2
*Paper_Space0
340
77
 70
     0
280
     1
281
     0
  0
ENDTAB
  0
ENDSEC
  0
SECTION
  2
BLOCKS
  0
BLOCK
  5
71
330
70
100
AcDbEntity
  8
0
100
AcDbBlockBegin
  2
*Model_Space
 70
     0
 10
0.0
 20
0.0
 30
0.0
  3
*Model_Space
  1

  0
ENDBLK
  5
72
330
70
100
AcDbEntity
  8
0
100
AcDbBlockEnd
  0
BLOCK
  5
6D
330
6C
100
AcDbEntity
 67
     1
  8
0
100
AcDbBlockBegin
  2
*Paper_Space
 70
     0
 10
0.0
 20
0.0
 30
0.0
  3
*Paper_Space
  1

  0
ENDBLK
  5
6E
330
6C
100
AcDbEntity
 67
     1
  8
0
100
AcDbBlockEnd
  0
BLOCK
  5
75
330
74
100
AcDbEntity
 67
     1
  8
0
100
AcDbBlockBegin
  2
*Paper_Space0
 70
     0
 10
0.0
 20
0.0
 30
0.0
  3
*Paper_Space0
  1

  0
ENDBLK
  5
76
330
74
100
AcDbEntity
 67
     1
  8
0
100
AcDbBlockEnd
  0
ENDSEC
  0
SECTION
  2
ENTITIES
  0
LINE
  5
79
330
70
100
AcDbEntity
  8
Livello 1
370
     9
100
AcDbLine
 10
8.627880326801536
 20
-18.49755341302049
 30
0.0
 11
8.710209569786146
 21
-18.82687038495957
 31
0.0
  0
LINE
  5
7A
330
70
100
AcDbEntity
  8
Livello 1
370
     9
100
AcDbLine
 10
12.25051358595531
 20
-21.95550724794431
 30
0.0
 11
12.29167820744762
 21
-19.03269349242078
 31
0.0
  0
LINE
  5
7B
330
70
100
AcDbEntity
  8
Livello 1
370
     9
100
AcDbLine
 10
12.82683922510928
 20
-22.53185382535933
 30
0.0
 11
12.25051358595531
 21
-21.9966718694363
 31
0.0
  0
LINE
  5
7C
330
70
100
AcDbEntity
  8
Livello 1
370
     9
100
AcDbLine
 10
11.34485003660152
 20
-17.50956062068241
 30
0.0
 11
11.46835437020929
 21
-17.83887759262085
 31
0.0
  0
LINE
  5
7D
330
70
100
AcDbEntity
  8
Livello 1
370
     9
100
AcDbLine
 10
13.27967099978601
 20
-19.89719242028226
 30
0.0
 11
13.27967099978601
 21
-20.06185090625212
 31
0.0
  0
LINE
  5
7E
330
70
100
AcDbEntity
  8
Livello 1
370
     9
100
AcDbLine
 10
13.32083562127832
 20
-19.89719242028226
 30
0.0
 11
13.32083562127832
 21
-20.06185090625212
 31
0.0
  0
LINE
  5
7F
330
70
100
AcDbEntity
  8
Livello 1
370
     9
100
AcDbLine
 10
12.82683922510928
 20
-19.03269349242078
 30
0.0
 11
12.82683922510928
 21
-21.74968414048246
 31
0.0
  0
LINE
  5
80
330
70
100
AcDbEntity
  8
Livello 1
370
     9
100
AcDbLine
 10
13.07383742319396
 20
-19.73253393431304
 30
0.0
 11
13.07383742319396
 21
-20.10301552774411
 31
0.0
  0
LINE
  5
81
330
70
100
AcDbEntity
  8
Livello 1
370
     9
100
AcDbLine
 10
13.11500204468626
 20
-19.73253393431304
 30
0.0
 11
13.11500204468626
 21
-20.10301552774411
 31
0.0
  0
LINE
  5
82
330
70
100
AcDbEntity
  8
Livello 1
370
     9
100
AcDbLine
 10
13.19733128767088
 20
-20.06185090625212
 30
0.0
 11
13.19733128767088
 21
-19.73253393431304
 31
0.0
  0
LINE
  5
84
330
70
100
AcDbEntity
  8
Livello 1
370
     9
100
AcDbLine
 10
13.23850637829371
 20
-20.06185090625212
 30
0.0
 11
13.23850637829371
 21
-19.73253393431304
 31
0.0
  0
LINE
  5
85
330
70
100
AcDbEntity
  8
Livello 1
370
     9
100
AcDbLine
 10
13.32083562127832
 20
-19.65020469132843
 30
0.0
 11
13.32083562127832
 21
-19.56787544834382
 31
0.0
  0
LINE
  5
86
330
70
100
AcDbEntity
  8
Livello 1
370
     9
100
AcDbLine
 10
13.36200024277062
 20
-19.65020469132843
 30
0.0
 11
13.36200024277062
 21
-19.56787544834382
 31
0.0
  0
LINE
  5
87
330
70
100
AcDbEntity
  8
Livello 1
370
     9
100
AcDbLine
 10
13.36200024277062
 20
-20.06185090625212
 30
0.0
 11
13.36200024277062
 21
-19.73253393431304
 31
0.0
  0
LINE
  5
88
330
70
100
AcDbEntity
  8
Livello 1
370
     9
100
AcDbLine
 10
13.65016306234761
 20
-21.74968414048246
 30
0.0
 11
13.65016306234761
 21
-19.03269349242078
 31
0.0
  0
LINE
  5
89
330
70
100
AcDbEntity
  8
Livello 1
370
     9
100
AcDbLine
 10
13.27967099978601
 20
-20.06185090625212
 30
0.0
 11
13.27967099978601
 21
-19.89719242028226
 31
0.0
  0
LINE
  5
8A
330
70
100
AcDbEntity
  8
Livello 1
370
     9
100
AcDbLine
 10
13.07383742319396
 20
-19.73253393431304
 30
0.0
 11
13.11500204468626
 21
-19.56787544834382
 31
0.0
  0
LINE
  5
8B
330
70
100
AcDbEntity
  8
Livello 1
370
     9
100
AcDbLine
 10
14.67932047617831
 20
-22.65534768983593
 30
0.0
 11
14.67932047617831
 21
-22.57301844685132
 31
0.0
  0
LINE
  5
8C
330
70
100
AcDbEntity
  8
Livello 1
370
     9
100
AcDbLine
 10
16.32597861978614
 20
-15.41008117152838
 30
0.0
 11
16.32597861978614
 21
-19.03269349242078
 31
0.0
  0
LINE
  5
8D
330
70
100
AcDbEntity
  8
Livello 1
370
     9
100
AcDbLine
 10
16.81996454682465
 20
-18.20935918605192
 30
0.0
 11
16.81996454682465
 21
-15.41008117152838
 31
0.0
  0
LINE
  5
8E
330
70
100
AcDbEntity
  8
Livello 1
370
     9
100
AcDbLine
 10
17.02579812341702
 20
-22.65534768983593
 30
0.0
 11
17.02579812341702
 21
-22.57301844685132
 31
0.0
  0
LINE
  5
8F
330
70
100
AcDbEntity
  8
Livello 1
370
     9
100
AcDbLine
 10
16.81996454682465
 20
-16.35690934237447
 30
0.0
 11
16.90230425893979
 21
-16.6038970713283
 31
0.0
  0
LINE
  5
90
330
70
100
AcDbEntity
  8
Livello 1
370
     9
100
AcDbLine
 10
16.90230425893979
 20
-14.99839308008257
 30
0.0
 11
16.81996454682465
 21
-15.20425806406653
 31
0.0
  0
LINE
  5
91
330
70
100
AcDbEntity
  8
Livello 1
370
     9
100
AcDbLine
 10
17.14930245702447
 20
-16.68622631431291
 30
0.0
 11
18.91945446510921
 21
-18.78570576346694
 31
0.0
  0
LINE
  5
92
330
70
100
AcDbEntity
  8
Livello 1
370
     9
100
AcDbLine
 10
17.35513603361684
 20
-16.52156782834369
 30
0.0
 11
19.2487819061785
 21
-18.78570576346694
 31
0.0
  0
LINE
  5
93
330
70
100
AcDbEntity
  8
Livello 1
370
     9
100
AcDbLine
 10
19.08411295107843
 20
-18.62104727749773
 30
0.0
 11
18.91945446510921
 21
-17.38606675620517
 31
0.0
  0
LINE
  5
94
330
70
100
AcDbEntity
  8
Livello 1
370
     9
100
AcDbLine
 10
19.33111114916311
 20
-18.78570576346694
 30
0.0
 11
19.16645266319357
 21
-17.34490213471319
 31
0.0
  0
LINE
  5
95
330
70
100
AcDbEntity
  8
Livello 1
370
     9
100
AcDbLine
 10
18.54895193341677
 20
-15.86289200794406
 30
0.0
 11
18.75478551000914
 21
-17.38606675620517
 31
0.0
  0
LINE
  5
96
330
70
100
AcDbEntity
  8
Livello 1
370
     9
100
AcDbLine
 10
19.12527757257073
 20
-15.78056276495945
 30
0.0
 11
19.33111114916311
 21
-17.30373751322056
 31
0.0
  0
LINE
  5
97
330
70
100
AcDbEntity
  8
Livello 1
370
     9
100
AcDbLine
 10
20.52493751809389
 20
-19.03269349242078
 30
0.0
 11
20.52493751809389
 21
-18.78570576346694
 31
0.0
  0
LINE
  5
98
330
70
100
AcDbEntity
  8
Livello 1
370
     9
100
AcDbLine
 10
18.17845987085517
 20
-15.5747396574976
 30
0.0
 11
18.46662269043216
 21
-15.0395577015752
 31
0.0
  0
LINE
  5
99
330
70
100
AcDbEntity
  8
Livello 1
370
     9
100
AcDbLine
 10
18.75478551000914
 20
-15.24542268555916
 30
0.0
 11
18.46662269043216
 21
-15.73939814346682
 31
0.0
  0
LINE
  5
9A
330
70
100
AcDbEntity
  8
Livello 1
370
     9
100
AcDbLine
 10
17.35513603361684
 20
-16.52156782834369
 30
0.0
 11
17.14930245702447
 21
-16.68622631431291
 31
0.0
  0
LINE
  5
9B
330
70
100
AcDbEntity
  8
Livello 1
370
     9
100
AcDbLine
 10
14.67932047617831
 20
-22.65534768983593
 30
0.0
 11
17.02579812341702
 21
-22.65534768983593
 31
0.0
  0
LINE
  5
9C
330
70
100
AcDbEntity
  8
Livello 1
370
     9
100
AcDbLine
 10
82.60369931987806
 20
-22.57301844685132
 30
0.0
 11
12.86800384660159
 21
-22.57301844685132
 31
0.0
  0
LINE
  5
9D
330
70
100
AcDbEntity
  8
Livello 1
370
     9
100
AcDbLine
 10
82.64486394137069
 20
-22.53185382535933
 30
0.0
 11
12.82683922510928
 21
-22.53185382535933
 31
0.0
  0
LINE
  5
9E
330
70
100
AcDbEntity
  8
Livello 1
370
     9
100
AcDbLine
 10
12.25051358595531
 20
-21.9966718694363
 30
0.0
 11
83.18002495903204
 21
-21.9966718694363
 31
0.0
  0
LINE
  5
9F
330
70
100
AcDbEntity
  8
Livello 1
370
     9
100
AcDbLine
 10
12.25051358595531
 20
-21.95550724794431
 30
0.0
 11
12.82683922510928
 21
-21.95550724794431
 31
0.0
  0
LINE
  5
A0
330
70
100
AcDbEntity
  8
Livello 1
370
     9
100
AcDbLine
 10
12.86800384660159
 20
-21.95550724794431
 30
0.0
 11
83.22118958052467
 21
-21.95550724794431
 31
0.0
  0
LINE
  5
A1
330
70
100
AcDbEntity
  8
Livello 1
370
     9
100
AcDbLine
 10
18.17845987085517
 20
-15.5747396574976
 30
0.0
 11
18.46662269043216
 21
-15.73939814346682
 31
0.0
  0
LINE
  5
A2
330
70
100
AcDbEntity
  8
Livello 1
370
     9
100
AcDbLine
 10
18.46662269043216
 20
-15.0395577015752
 30
0.0
 11
18.75478551000914
 21
-15.24542268555916
 31
0.0
  0
LINE
  5
A3
330
70
100
AcDbEntity
  8
Livello 1
370
     9
100
AcDbLine
 10
13.07383742319396
 20
-20.14418014923673
 30
0.0
 11
13.11500204468626
 21
-20.14418014923673
 31
0.0
  0
LINE
  5
A4
330
70
100
AcDbEntity
  8
Livello 1
370
     9
100
AcDbLine
 10
13.19733128767088
 20
-20.14418014923673
 30
0.0
 11
13.36200024277062
 21
-20.14418014923673
 31
0.0
  0
LINE
  5
A5
330
70
100
AcDbEntity
  8
Livello 1
370
     9
100
AcDbLine
 10
13.32083562127832
 20
-20.06185090625212
 30
0.0
 11
13.36200024277062
 21
-20.06185090625212
 31
0.0
  0
LINE
  5
A6
330
70
100
AcDbEntity
  8
Livello 1
370
     9
100
AcDbLine
 10
13.27967099978601
 20
-20.06185090625212
 30
0.0
 11
13.32083562127832
 21
-20.06185090625212
 31
0.0
  0
LINE
  5
A7
330
70
100
AcDbEntity
  8
Livello 1
370
     9
100
AcDbLine
 10
13.03267280170133
 20
-19.73253393431304
 30
0.0
 11
13.07383742319396
 21
-19.73253393431304
 31
0.0
  0
LINE
  5
A8
330
70
100
AcDbEntity
  8
Livello 1
370
     9
100
AcDbLine
 10
13.11500204468626
 20
-19.73253393431304
 30
0.0
 11
13.15616666617857
 21
-19.73253393431304
 31
0.0
  0
LINE
  5
A9
330
70
100
AcDbEntity
  8
Livello 1
370
     9
100
AcDbLine
 10
13.19733128767088
 20
-19.65020469132843
 30
0.0
 11
13.23850637829371
 21
-19.65020469132843
 31
0.0
  0
LINE
  5
AA
330
70
100
AcDbEntity
  8
Livello 1
370
     9
100
AcDbLine
 10
13.36200024277062
 20
-19.65020469132843
 30
0.0
 11
13.40316486426293
 21
-19.65020469132843
 31
0.0
  0
LINE
  5
AB
330
70
100
AcDbEntity
  8
Livello 1
370
     9
100
AcDbLine
 10
13.23850637829371
 20
-19.65020469132843
 30
0.0
 11
13.32083562127832
 21
-19.65020469132843
 31
0.0
  0
LINE
  5
AC
330
70
100
AcDbEntity
  8
Livello 1
370
     9
100
AcDbLine
 10
13.07383742319396
 20
-20.10301552774411
 30
0.0
 11
13.11500204468626
 21
-20.10301552774411
 31
0.0
  0
LINE
  5
AD
330
70
100
AcDbEntity
  8
Livello 1
370
     9
100
AcDbLine
 10
13.19733128767088
 20
-20.06185090625212
 30
0.0
 11
13.23850637829371
 21
-20.06185090625212
 31
0.0
  0
LINE
  5
AE
330
70
100
AcDbEntity
  8
Livello 1
370
     9
100
AcDbLine
 10
13.07383742319396
 20
-19.73253393431304
 30
0.0
 11
13.11500204468626
 21
-19.73253393431304
 31
0.0
  0
LINE
  5
AF
330
70
100
AcDbEntity
  8
Livello 1
370
     9
100
AcDbLine
 10
13.03267280170133
 20
-19.73253393431304
 30
0.0
 11
13.07383742319396
 21
-19.73253393431304
 31
0.0
  0
LINE
  5
B0
330
70
100
AcDbEntity
  8
Livello 1
370
     9
100
AcDbLine
 10
13.19733128767088
 20
-19.73253393431304
 30
0.0
 11
13.23850637829371
 21
-19.73253393431304
 31
0.0
  0
LINE
  5
B2
330
70
100
AcDbEntity
  8
Livello 1
370
     9
100
AcDbLine
 10
13.27967099978601
 20
-19.89719242028226
 30
0.0
 11
13.32083562127832
 21
-19.89719242028226
 31
0.0
  0
LINE
  5
B3
330
70
100
AcDbEntity
  8
Livello 1
370
     9
100
AcDbLine
 10
13.32083562127832
 20
-19.73253393431304
 30
0.0
 11
13.27967099978601
 21
-19.73253393431304
 31
0.0
  0
LINE
  5
B5
330
70
100
AcDbEntity
  8
Livello 1
370
     9
100
AcDbLine
 10
13.32083562127832
 20
-19.65020469132843
 30
0.0
 11
13.36200024277062
 21
-19.65020469132843
 31
0.0
  0
LINE
  5
B6
330
70
100
AcDbEntity
  8
Livello 1
370
     9
100
AcDbLine
 10
13.23850637829371
 20
-19.65020469132843
 30
0.0
 11
13.27967099978601
 21
-19.65020469132843
 31
0.0
  0
LINE
  5
B7
330
70
100
AcDbEntity
  8
Livello 1
370
     9
100
AcDbLine
 10
13.32083562127832
 20
-19.65020469132843
 30
0.0
 11
13.36200024277062
 21
-19.65020469132843
 31
0.0
  0
LINE
  5
B8
330
70
100
AcDbEntity
  8
Livello 1
370
     9
100
AcDbLine
 10
13.23850637829371
 20
-19.56787544834382
 30
0.0
 11
13.27967099978601
 21
-19.56787544834382
 31
0.0
  0
LINE
  5
B9
330
70
100
AcDbEntity
  8
Livello 1
370
     9
100
AcDbLine
 10
13.32083562127832
 20
-19.56787544834382
 30
0.0
 11
13.36200024277062
 21
-19.56787544834382
 31
0.0
  0
LINE
  5
BA
330
70
100
AcDbEntity
  8
Livello 1
370
     9
100
AcDbLine
 10
13.32083562127832
 20
-19.44438158386658
 30
0.0
 11
13.27967099978601
 21
-19.44438158386658
 31
0.0
  0
LINE
  5
BB
330
70
100
AcDbEntity
  8
Livello 1
370
     9
100
AcDbLine
 10
19.2076172846862
 20
-18.78570576346694
 30
0.0
 11
19.2487819061785
 21
-18.78570576346694
 31
0.0
  0
LINE
  5
BC
330
70
100
AcDbEntity
  8
Livello 1
370
     9
100
AcDbLine
 10
8.627880326801536
 20
-18.49755341302049
 30
0.0
 11
11.34485003660152
 21
-17.50956062068241
 31
0.0
  0
LINE
  5
BD
330
70
100
AcDbEntity
  8
Livello 1
370
     9
100
AcDbLine
 10
16.32597861978614
 20
-15.78056276495945
 30
0.0
 11
11.34485003660152
 21
-17.59188986366702
 31
0.0
  0
LINE
  5
BE
330
70
100
AcDbEntity
  8
Livello 1
370
     9
100
AcDbLine
 10
16.32597861978614
 20
-16.02755049391328
 30
0.0
 11
11.42718974871666
 21
-17.79771297112887
 31
0.0
  0
LINE
  5
BF
330
70
100
AcDbEntity
  8
Livello 1
370
     9
100
AcDbLine
 10
8.710209569786146
 20
-18.82687038495957
 30
0.0
 11
11.46835437020929
 21
-17.83887759262085
 31
0.0
  0
LINE
  5
C1
330
70
100
AcDbEntity
  8
Livello 1
370
     9
100
AcDbLine
 10
78.0754025113705
 20
-18.78570576346694
 30
0.0
 11
74.9467656483864
 21
-18.78570576346694
 31
0.0
  0
LINE
  5
C2
330
70
100
AcDbEntity
  8
Livello 1
370
     9
100
AcDbLine
 10
20.52493751809389
 20
-18.78570576346694
 30
0.0
 11
17.39630065510915
 21
-18.78570576346694
 31
0.0
  0
LINE
  5
C3
330
70
100
AcDbEntity
  8
Livello 1
370
     9
100
AcDbLine
 10
19.2899465276708
 20
-18.78570576346694
 30
0.0
 11
19.33111114916311
 21
-18.78570576346694
 31
0.0
  0
LINE
  5
C4
330
70
100
AcDbEntity
  8
Livello 1
370
     9
100
AcDbLine
 10
76.0994169266937
 20
-18.78570576346694
 30
0.0
 11
76.14060248644739
 21
-18.78570576346694
 31
0.0
  0
LINE
  5
C5
330
70
100
AcDbEntity
  8
Livello 1
370
     9
100
AcDbLine
 10
19.33111114916311
 20
-17.30373751322056
 30
0.0
 11
18.75478551000914
 21
-17.38606675620517
 31
0.0
  0
LINE
  5
C6
330
70
100
AcDbEntity
  8
Livello 1
370
     9
100
AcDbLine
 10
19.12527757257073
 20
-15.78056276495945
 30
0.0
 11
18.54895193341677
 21
-15.86289200794406
 31
0.0
  0
LINE
  5
C7
330
70
100
AcDbEntity
  8
Livello 1
370
     9
100
AcDbLine
 10
79.14572454669382
 20
-15.41008117152838
 30
0.0
 11
78.65172815052448
 21
-15.41008117152838
 31
0.0
  0
LINE
  5
C8
330
70
100
AcDbEntity
  8
Livello 1
370
     9
100
AcDbLine
 10
16.81996454682465
 20
-15.41008117152838
 30
0.0
 11
16.32597861978614
 21
-15.41008117152838
 31
0.0
  0
LINE
  5
C9
330
70
100
AcDbEntity
  8
Livello 1
370
     9
100
AcDbLine
 10
76.71692812560135
 20
-17.38606675620517
 30
0.0
 11
76.14060248644739
 21
-17.30373751322056
 31
0.0
  0
LINE
  5
CA
330
70
100
AcDbEntity
  8
Livello 1
370
     9
100
AcDbLine
 10
76.92275123306321
 20
-15.86289200794406
 30
0.0
 11
76.34642559390923
 21
-15.78056276495945
 31
0.0
  0
LINE
  5
CB
330
70
100
AcDbEntity
  8
Livello 1
370
     9
100
AcDbLine
 10
16.81996454682465
 20
-16.6038970713283
 30
0.0
 11
16.90230425893979
 21
-16.6038970713283
 31
0.0
  0
LINE
  5
CC
330
70
100
AcDbEntity
  8
Livello 1
370
     9
100
AcDbLine
 10
16.81996454682465
 20
-16.35690934237447
 30
0.0
 11
16.86113963744748
 21
-16.35690934237447
 31
0.0
  0
LINE
  5
CD
330
70
100
AcDbEntity
  8
Livello 1
370
     9
100
AcDbLine
 10
78.65172815052448
 20
-16.6038970713283
 30
0.0
 11
78.56939890753986
 21
-16.6038970713283
 31
0.0
  0
LINE
  5
CE
330
70
100
AcDbEntity
  8
Livello 1
370
     9
100
AcDbLine
 10
86.72032897520152
 20
-18.82687038495957
 30
0.0
 11
84.00335926540153
 21
-17.83887759262085
 31
0.0
  0
LINE
  5
CF
330
70
100
AcDbEntity
  8
Livello 1
370
     9
100
AcDbLine
 10
84.04452388689351
 20
-17.79771297112887
 30
0.0
 11
79.76323574560147
 21
-16.23341547789723
 31
0.0
  0
LINE
  5
D0
330
70
100
AcDbEntity
  8
Livello 1
370
     9
100
AcDbLine
 10
79.14572454669382
 20
-16.02755049391328
 30
0.0
 11
79.43389783540133
 21
-16.10987973689789
 31
0.0
  0
LINE
  5
D1
330
70
100
AcDbEntity
  8
Livello 1
370
     9
100
AcDbLine
 10
79.14572454669382
 20
-15.78056276495945
 30
0.0
 11
79.51622707838595
 21
-15.90405662943668
 31
0.0
  0
LINE
  5
D2
330
70
100
AcDbEntity
  8
Livello 1
370
     9
100
AcDbLine
 10
79.7220501858478
 20
-15.98638587242129
 30
0.0
 11
84.12685312987813
 21
-17.59188986366702
 31
0.0
  0
LINE
  5
D3
330
70
100
AcDbEntity
  8
Livello 1
370
     9
100
AcDbLine
 10
86.84382283967876
 20
-18.49755341302049
 30
0.0
 11
84.12685312987813
 21
-17.50956062068241
 31
0.0
  0
LINE
  5
D4
330
70
100
AcDbEntity
  8
Livello 1
370
     9
100
AcDbLine
 10
77.00508047604781
 20
-15.0395577015752
 30
0.0
 11
76.71692812560135
 21
-15.24542268555916
 31
0.0
  0
LINE
  5
D5
330
70
100
AcDbEntity
  8
Livello 1
370
     9
100
AcDbLine
 10
77.29325376475532
 20
-15.5747396574976
 30
0.0
 11
77.00508047604781
 21
-15.73939814346682
 31
0.0
  0
LINE
  5
D6
330
70
100
AcDbEntity
  8
Livello 1
370
     9
100
AcDbLine
 10
79.55739169987857
 20
-16.31574472088184
 30
0.0
 11
79.39273321390935
 21
-16.15104435839052
 31
0.0
  0
LINE
  5
D7
330
70
100
AcDbEntity
  8
Livello 1
370
     9
100
AcDbLine
 10
78.2812465570934
 20
-16.68622631431291
 30
0.0
 11
78.11656713286312
 21
-16.52156782834369
 31
0.0
  0
LINE
  5
D8
330
70
100
AcDbEntity
  8
Livello 1
370
     9
100
AcDbLine
 10
74.9467656483864
 20
-19.03269349242078
 30
0.0
 11
74.9467656483864
 21
-18.78570576346694
 31
0.0
  0
LINE
  5
D9
330
70
100
AcDbEntity
  8
Livello 1
370
     9
100
AcDbLine
 10
78.11656713286312
 20
-16.52156782834369
 30
0.0
 11
76.38759021540121
 21
-18.62104727749773
 31
0.0
  0
LINE
  5
DA
330
70
100
AcDbEntity
  8
Livello 1
370
     9
100
AcDbLine
 10
77.00508047604781
 20
-15.73939814346682
 30
0.0
 11
76.71692812560135
 21
-15.24542268555916
 31
0.0
  0
LINE
  5
DB
330
70
100
AcDbEntity
  8
Livello 1
370
     9
100
AcDbLine
 10
77.00508047604781
 20
-15.0395577015752
 30
0.0
 11
77.29325376475532
 21
-15.5747396574976
 31
0.0
  0
LINE
  5
DC
330
70
100
AcDbEntity
  8
Livello 1
370
     9
100
AcDbLine
 10
76.34642559390923
 20
-15.78056276495945
 30
0.0
 11
76.14060248644739
 21
-17.30373751322056
 31
0.0
  0
LINE
  5
DD
330
70
100
AcDbEntity
  8
Livello 1
370
     9
100
AcDbLine
 10
76.92275123306321
 20
-15.86289200794406
 30
0.0
 11
76.71692812560135
 21
-17.38606675620517
 31
0.0
  0
LINE
  5
DE
330
70
100
AcDbEntity
  8
Livello 1
370
     9
100
AcDbLine
 10
76.0994169266937
 20
-18.78570576346694
 30
0.0
 11
76.3052609724166
 21
-17.34490213471319
 31
0.0
  0
LINE
  5
DF
330
70
100
AcDbEntity
  8
Livello 1
370
     9
100
AcDbLine
 10
76.34642559390923
 20
-18.78570576346694
 30
0.0
 11
76.55224870137108
 21
-17.38606675620517
 31
0.0
  0
LINE
  5
E0
330
70
100
AcDbEntity
  8
Livello 1
370
     9
100
AcDbLine
 10
78.2812465570934
 20
-16.68622631431291
 30
0.0
 11
76.51108407987845
 21
-18.78570576346694
 31
0.0
  0
LINE
  5
E1
330
70
100
AcDbEntity
  8
Livello 1
370
     9
100
AcDbLine
 10
78.65172815052448
 20
-15.41008117152838
 30
0.0
 11
78.65172815052448
 21
-18.20935918605192
 31
0.0
  0
LINE
  5
E2
330
70
100
AcDbEntity
  8
Livello 1
370
     9
100
AcDbLine
 10
79.14572454669382
 20
-19.03269349242078
 30
0.0
 11
79.14572454669382
 21
-15.41008117152838
 31
0.0
  0
LINE
  5
E4
330
70
100
AcDbEntity
  8
Livello 1
370
     9
100
AcDbLine
 10
79.76323574560147
 20
-16.23341547789723
 30
0.0
 11
79.84556498858609
 21
-16.02755049391328
 31
0.0
  0
LINE
  5
E5
330
70
100
AcDbEntity
  8
Livello 1
370
     9
100
AcDbLine
 10
83.22118958052467
 20
-21.95550724794431
 30
0.0
 11
83.18002495903204
 21
-19.03269349242078
 31
0.0
  0
LINE
  5
E6
330
70
100
AcDbEntity
  8
Livello 1
370
     9
100
AcDbLine
 10
82.64486394137069
 20
-22.53185382535933
 30
0.0
 11
83.18002495903204
 21
-21.9966718694363
 31
0.0
  0
LINE
  5
E7
330
70
100
AcDbEntity
  8
Livello 1
370
     9
100
AcDbLine
 10
84.00335926540153
 20
-17.83887759262085
 30
0.0
 11
84.12685312987813
 21
-17.50956062068241
 31
0.0
  0
LINE
  5
E8
330
70
100
AcDbEntity
  8
Livello 1
370
     9
100
AcDbLine
 10
86.72032897520152
 20
-18.82687038495957
 30
0.0
 11
86.84382283967876
 21
-18.49755341302049
 31
0.0
  0
LINE
  5
E9
330
70
100
AcDbEntity
  8
Livello 1
370
     9
100
AcDbLine
 10
13.23850637829371
 20
-19.56787544834382
 30
0.0
 11
13.27967099978601
 21
-19.56787544834382
 31
0.0
  0
LINE
  5
EA
330
70
100
AcDbEntity
  8
Livello 1
370
     9
100
AcDbLine
 10
13.36200024277062
 20
-19.56787544834382
 30
0.0
 11
13.40316486426293
 21
-19.56787544834382
 31
0.0
  0
LINE
  5
EB
330
70
100
AcDbEntity
  8
Livello 1
370
     9
100
AcDbLine
 10
13.32083562127832
 20
-19.44438158386658
 30
0.0
 11
13.36200024277062
 21
-19.44438158386658
 31
0.0
  0
LINE
  5
EC
330
70
100
AcDbEntity
  8
Livello 1
370
     9
100
AcDbLine
 10
13.27967099978601
 20
-19.44438158386658
 30
0.0
 11
13.32083562127832
 21
-19.44438158386658
 31
0.0
  0
LINE
  5
EF
330
70
100
AcDbEntity
  8
Livello 1
370
     9
100
AcDbLine
 10
12.29167820744762
 20
-19.03269349242078
 30
0.0
 11
12.29167820744762
 21
-19.03269349242078
 31
0.0
  0
LINE
  5
F3
330
70
100
AcDbEntity
  8
Livello 1
370
     9
100
AcDbLine
 10
15.70847789000934
 20
-15.69823352197484
 30
0.0
 11
15.70847789000934
 21
-15.73939814346682
 31
0.0
  0
LINE
  5
F4
330
70
100
AcDbEntity
  8
Livello 1
370
     9
100
AcDbLine
 10
16.86113963744748
 20
-14.99839308008257
 30
0.0
 11
16.73763530384004
 21
-14.95722845859059
 31
0.0
  0
LINE
  5
F5
330
70
100
AcDbEntity
  8
Livello 1
370
     9
100
AcDbLine
 10
16.53180172724766
 20
-14.95722845859059
 30
0.0
 11
16.40830786277075
 21
-14.95722845859059
 31
0.0
  0
LINE
  5
F6
330
70
100
AcDbEntity
  8
Livello 1
370
     9
100
AcDbLine
 10
17.39630065510915
 20
-15.65706890048221
 30
0.0
 11
17.39630065510915
 21
-15.53357503600561
 31
0.0
  0
LINE
  5
F7
330
70
100
AcDbEntity
  8
Livello 1
370
     9
100
AcDbLine
 10
17.43746527660145
 20
-15.73939814346682
 30
0.0
 11
17.39630065510915
 21
-15.65706890048221
 31
0.0
  0
LINE
  5
F8
330
70
100
AcDbEntity
  8
Livello 1
370
     9
100
AcDbLine
 10
16.12014504319376
 20
-15.08072232306719
 30
0.0
 11
16.07898042170146
 21
-15.12188694455981
 31
0.0
  0
LINE
  5
F9
330
70
100
AcDbEntity
  8
Livello 1
370
     9
100
AcDbLine
 10
15.70847789000934
 20
-15.78056276495945
 30
0.0
 11
15.70847789000934
 21
-15.86289200794406
 31
0.0
  0
LINE
  5
FA
330
70
100
AcDbEntity
  8
Livello 1
370
     9
100
AcDbLine
 10
15.74964251150164
 20
-15.65706890048221
 30
0.0
 11
15.70847789000934
 21
-15.69823352197484
 31
0.0
  0
LINE
  5
FB
330
70
100
AcDbEntity
  8
Livello 1
370
     9
100
AcDbLine
 10
15.70847789000934
 20
-15.73939814346682
 30
0.0
 11
15.70847789000934
 21
-15.78056276495945
 31
0.0
  0
LINE
  5
FC
330
70
100
AcDbEntity
  8
Livello 1
370
     9
100
AcDbLine
 10
15.83198222361678
 20
-15.36891655003575
 30
0.0
 11
15.87314684510908
 21
-15.36891655003575
 31
0.0
  0
LINE
  5
FD
330
70
100
AcDbEntity
  8
Livello 1
370
     9
100
AcDbLine
 10
16.28480352916299
 20
-16.6038970713283
 30
0.0
 11
16.32597861978614
 21
-16.6038970713283
 31
0.0
  0
LINE
  5
FE
330
70
100
AcDbEntity
  8
Livello 1
370
     9
100
AcDbLine
 10
15.83198222361678
 20
-16.19225085640525
 30
0.0
 11
15.87314684510908
 21
-16.27458009938986
 31
0.0
  0
LINE
  5
FF
330
70
100
AcDbEntity
  8
Livello 1
370
     9
100
AcDbLine
 10
17.35513603361684
 20
-15.451245793021
 30
0.0
 11
17.31396094299401
 21
-15.41008117152838
 31
0.0
  0
LINE
  5
100
330
70
100
AcDbEntity
  8
Livello 1
370
     9
100
AcDbLine
 10
17.14930245702447
 20
-15.16309344257455
 30
0.0
 11
17.10813783553216
 21
-15.12188694455981
 31
0.0
  0
LINE
  5
101
330
70
100
AcDbEntity
  8
Livello 1
370
     9
100
AcDbLine
 10
17.35513603361684
 20
-15.451245793021
 30
0.0
 11
17.31396094299401
 21
-15.41008117152838
 31
0.0
  0
LINE
  5
102
330
70
100
AcDbEntity
  8
Livello 1
370
     9
100
AcDbLine
 10
17.31396094299401
 20
-15.36891655003575
 30
0.0
 11
17.27279632150138
 21
-15.28658730705114
 31
0.0
  0
LINE
  5
103
330
70
100
AcDbEntity
  8
Livello 1
370
     9
100
AcDbLine
 10
17.14930245702447
 20
-15.16309344257455
 30
0.0
 11
17.10813783553216
 21
-15.12188694455981
 31
0.0
  0
LINE
  5
104
330
70
100
AcDbEntity
  8
Livello 1
370
     9
100
AcDbLine
 10
17.02579812341702
 20
-15.08072232306719
 30
0.0
 11
16.98463350192472
 21
-15.0395577015752
 31
0.0
  0
LINE
  5
106
330
70
100
AcDbEntity
  8
Livello 1
370
     9
100
AcDbLine
 10
16.90230425893979
 20
-14.99839308008257
 30
0.0
 11
16.86113963744748
 21
-14.99839308008257
 31
0.0
  0
LINE
  5
107
330
70
100
AcDbEntity
  8
Livello 1
370
     9
100
AcDbLine
 10
17.39630065510915
 20
-15.53357503600561
 30
0.0
 11
17.35513603361684
 21
-15.451245793021
 31
0.0
  0
LINE
  5
108
330
70
100
AcDbEntity
  8
Livello 1
370
     9
100
AcDbLine
 10
16.40830786277075
 20
-14.95722845859059
 30
0.0
 11
16.36714324127844
 21
-14.95722845859059
 31
0.0
  0
LINE
  5
109
330
70
100
AcDbEntity
  8
Livello 1
370
     9
100
AcDbLine
 10
15.87314684510908
 20
-15.32775192854377
 30
0.0
 11
15.83198222361678
 21
-15.36891655003575
 31
0.0
  0
LINE
  5
10A
330
70
100
AcDbEntity
  8
Livello 1
370
     9
100
AcDbLine
 10
15.74964251150164
 20
-15.65706890048221
 30
0.0
 11
15.70847789000934
 21
-15.73939814346682
 31
0.0
  0
LINE
  5
10B
330
70
100
AcDbEntity
  8
Livello 1
370
     9
100
AcDbLine
 10
17.31396094299401
 20
-15.41008117152838
 30
0.0
 11
17.31396094299401
 21
-15.36891655003575
 31
0.0
  0
LINE
  5
10C
330
70
100
AcDbEntity
  8
Livello 1
370
     9
100
AcDbLine
 10
17.27279632150138
 20
-15.28658730705114
 30
0.0
 11
17.23163170000908
 21
-15.24542268555916
 31
0.0
  0
LINE
  5
10D
330
70
100
AcDbEntity
  8
Livello 1
370
     9
100
AcDbLine
 10
17.10813783553216
 20
-15.12188694455981
 30
0.0
 11
17.02579812341702
 21
-15.08072232306719
 31
0.0
  0
LINE
  5
10E
330
70
100
AcDbEntity
  8
Livello 1
370
     9
100
AcDbLine
 10
16.98463350192472
 20
-15.0395577015752
 30
0.0
 11
16.94346888043241
 21
-15.0395577015752
 31
0.0
  0
LINE
  5
10F
330
70
100
AcDbEntity
  8
Livello 1
370
     9
100
AcDbLine
 10
16.12014504319376
 20
-15.08072232306719
 30
0.0
 11
16.16130966468607
 21
-15.08072232306719
 31
0.0
  0
LINE
  5
113
330
70
100
AcDbEntity
  8
Livello 1
370
     9
100
AcDbLine
 10
15.70847789000934
 20
-15.86289200794406
 30
0.0
 11
15.70847789000934
 21
-15.90405662943668
 31
0.0
  0
LINE
  5
114
330
70
100
AcDbEntity
  8
Livello 1
370
     9
100
AcDbLine
 10
16.07898042170146
 20
-15.12188694455981
 30
0.0
 11
16.03780533107863
 21
-15.12188694455981
 31
0.0
  0
LINE
  5
115
330
70
100
AcDbEntity
  8
Livello 1
370
     9
100
AcDbLine
 10
16.90230425893979
 20
-14.99839308008257
 30
0.0
 11
16.86113963744748
 21
-14.99839308008257
 31
0.0
  0
LINE
  5
116
330
70
100
AcDbEntity
  8
Livello 1
370
     9
100
AcDbLine
 10
15.99664070958632
 20
-16.43923858535908
 30
0.0
 11
16.03780533107863
 21
-16.43923858535908
 31
0.0
  0
LINE
  5
117
330
70
100
AcDbEntity
  8
Livello 1
370
     9
100
AcDbLine
 10
16.32597861978614
 20
-16.6038970713283
 30
0.0
 11
16.36714324127844
 21
-16.6038970713283
 31
0.0
  0
LINE
  5
118
330
70
100
AcDbEntity
  8
Livello 1
370
     9
100
AcDbLine
 10
16.16130966468607
 20
-15.08072232306719
 30
0.0
 11
16.12014504319376
 21
-15.08072232306719
 31
0.0
  0
LINE
  5
119
330
70
100
AcDbEntity
  8
Livello 1
370
     9
100
AcDbLine
 10
15.87314684510908
 20
-15.32775192854377
 30
0.0
 11
15.91431146660139
 21
-15.32775192854377
 31
0.0
  0
LINE
  5
11A
330
70
100
AcDbEntity
  8
Livello 1
370
     9
100
AcDbLine
 10
16.90230425893979
 20
-14.99839308008257
 30
0.0
 11
16.86113963744748
 21
-14.99839308008257
 31
0.0
  0
LINE
  5
11B
330
70
100
AcDbEntity
  8
Livello 1
370
     9
100
AcDbLine
 10
16.03780533107863
 20
-15.12188694455981
 30
0.0
 11
16.07898042170146
 21
-15.12188694455981
 31
0.0
  0
LINE
  5
11C
330
70
100
AcDbEntity
  8
Livello 1
370
     9
100
AcDbLine
 10
16.12014504319376
 20
-15.08072232306719
 30
0.0
 11
16.16130966468607
 21
-15.08072232306719
 31
0.0
  0
LINE
  5
11D
330
70
100
AcDbEntity
  8
Livello 1
370
     9
100
AcDbLine
 10
17.43746527660145
 20
-15.78056276495945
 30
0.0
 11
17.43746527660145
 21
-15.73939814346682
 31
0.0
  0
LINE
  5
11E
330
70
100
AcDbEntity
  8
Livello 1
370
     9
100
AcDbLine
 10
16.86113963744748
 20
-14.99839308008257
 30
0.0
 11
16.90230425893979
 21
-14.99839308008257
 31
0.0
  0
LINE
  5
11F
330
70
100
AcDbEntity
  8
Livello 1
370
     9
100
AcDbLine
 10
15.83198222361678
 20
-15.41008117152838
 30
0.0
 11
15.79080713299395
 21
-15.41008117152838
 31
0.0
  0
LINE
  5
120
330
70
100
AcDbEntity
  8
Livello 1
370
     9
100
AcDbLine
 10
15.70847789000934
 20
-15.78056276495945
 30
0.0
 11
15.74964251150164
 21
-15.78056276495945
 31
0.0
  0
LINE
  5
121
330
70
100
AcDbEntity
  8
Livello 1
370
     9
100
AcDbLine
 10
17.43746527660145
 20
-15.78056276495945
 30
0.0
 11
17.43746527660145
 21
-15.73939814346682
 31
0.0
  0
LINE
  5
122
330
70
100
AcDbEntity
  8
Livello 1
370
     9
100
AcDbLine
 10
15.70847789000934
 20
-15.90405662943668
 30
0.0
 11
15.74964251150164
 21
-15.90405662943668
 31
0.0
  0
LINE
  5
123
330
70
100
AcDbEntity
  8
Livello 1
370
     9
100
AcDbLine
 10
16.12014504319376
 20
-15.08072232306719
 30
0.0
 11
16.16130966468607
 21
-15.08072232306719
 31
0.0
  0
LINE
  5
124
330
70
100
AcDbEntity
  8
Livello 1
370
     9
100
AcDbLine
 10
17.39630065510915
 20
-15.65706890048221
 30
0.0
 11
17.43746527660145
 21
-15.65706890048221
 31
0.0
  0
LINE
  5
125
330
70
100
AcDbEntity
  8
Livello 1
370
     9
100
AcDbLine
 10
15.70847789000934
 20
-15.78056276495945
 30
0.0
 11
15.70847789000934
 21
-15.82172738645143
 31
0.0
  0
LINE
  5
126
330
70
100
AcDbEntity
  8
Livello 1
370
     9
100
AcDbLine
 10
16.86113963744748
 20
-14.99839308008257
 30
0.0
 11
16.90230425893979
 21
-14.99839308008257
 31
0.0
  0
LINE
  5
127
330
70
100
AcDbEntity
  8
Livello 1
370
     9
100
AcDbLine
 10
16.12014504319376
 20
-15.08072232306719
 30
0.0
 11
16.16130966468607
 21
-15.08072232306719
 31
0.0
  0
LINE
  5
128
330
70
100
AcDbEntity
  8
Livello 1
370
     9
100
AcDbLine
 10
17.39630065510915
 20
-15.65706890048221
 30
0.0
 11
17.43746527660145
 21
-15.65706890048221
 31
0.0
  0
LINE
  5
129
330
70
100
AcDbEntity
  8
Livello 1
370
     9
100
AcDbLine
 10
17.43746527660145
 20
-15.73939814346682
 30
0.0
 11
17.47862989809376
 21
-15.73939814346682
 31
0.0
  0
LINE
  5
12D
330
70
100
AcDbEntity
  8
Livello 1
370
     9
100
AcDbLine
 10
16.81996454682465
 20
-16.35690934237447
 30
0.0
 11
16.86113963744748
 21
-16.35690934237447
 31
0.0
  0
LINE
  5
12E
330
70
100
AcDbEntity
  8
Livello 1
370
     9
100
AcDbLine
 10
17.19046707851677
 20
-15.82172738645143
 30
0.0
 11
17.19046707851677
 21
-15.78056276495945
 31
0.0
  0
LINE
  5
12F
330
70
100
AcDbEntity
  8
Livello 1
370
     9
100
AcDbLine
 10
17.19046707851677
 20
-15.82172738645143
 30
0.0
 11
17.23163170000908
 21
-15.82172738645143
 31
0.0
  0
LINE
  5
130
330
70
100
AcDbEntity
  8
Livello 1
370
     9
100
AcDbLine
 10
17.19046707851677
 20
-15.73939814346682
 30
0.0
 11
17.19046707851677
 21
-15.69823352197484
 31
0.0
  0
LINE
  5
134
330
70
100
AcDbEntity
  8
Livello 1
370
     9
100
AcDbLine
 10
17.19046707851677
 20
-15.78056276495945
 30
0.0
 11
17.23163170000908
 21
-15.78056276495945
 31
0.0
  0
LINE
  5
135
330
70
100
AcDbEntity
  8
Livello 1
370
     9
100
AcDbLine
 10
17.19046707851677
 20
-15.73939814346682
 30
0.0
 11
17.23163170000908
 21
-15.73939814346682
 31
0.0
  0
LINE
  5
136
330
70
100
AcDbEntity
  8
Livello 1
370
     9
100
AcDbLine
 10
16.81996454682465
 20
-16.35690934237447
 30
0.0
 11
16.86113963744748
 21
-16.35690934237447
 31
0.0
  0
LINE
  5
137
330
70
100
AcDbEntity
  8
Livello 1
370
     9
100
AcDbLine
 10
17.19046707851677
 20
-15.73939814346682
 30
0.0
 11
17.23163170000908
 21
-15.73939814346682
 31
0.0
  0
LINE
  5
138
330
70
100
AcDbEntity
  8
Livello 1
370
     9
100
AcDbLine
 10
16.81996454682465
 20
-16.35690934237447
 30
0.0
 11
16.86113963744748
 21
-16.35690934237447
 31
0.0
  0
LINE
  5
139
330
70
100
AcDbEntity
  8
Livello 1
370
     9
100
AcDbLine
 10
17.19046707851677
 20
-15.82172738645143
 30
0.0
 11
17.19046707851677
 21
-15.73939814346682
 31
0.0
  0
LINE
  5
13A
330
70
100
AcDbEntity
  8
Livello 1
370
     9
100
AcDbLine
 10
16.81996454682465
 20
-16.35690934237447
 30
0.0
 11
16.86113963744748
 21
-16.35690934237447
 31
0.0
  0
LINE
  5
13B
330
70
100
AcDbEntity
  8
Livello 1
370
     9
100
AcDbLine
 10
17.19046707851677
 20
-15.82172738645143
 30
0.0
 11
17.23163170000908
 21
-15.82172738645143
 31
0.0
  0
LINE
  5
13C
330
70
100
AcDbEntity
  8
Livello 1
370
     9
100
AcDbLine
 10
17.19046707851677
 20
-15.78056276495945
 30
0.0
 11
17.23163170000908
 21
-15.78056276495945
 31
0.0
  0
LINE
  5
13E
330
70
100
AcDbEntity
  8
Livello 1
370
     9
100
AcDbLine
 10
16.81996454682465
 20
-16.35690934237447
 30
0.0
 11
16.86113963744748
 21
-16.35690934237447
 31
0.0
  0
LINE
  5
143
330
70
100
AcDbEntity
  8
Livello 1
370
     9
100
AcDbLine
 10
83.18002495903204
 20
-21.9966718694363
 30
0.0
 11
83.22118958052467
 21
-21.95550724794431
 31
0.0
  0
LINE
  5
144
330
70
100
AcDbEntity
  8
Livello 1
370
     9
100
AcDbLine
 10
82.60369931987806
 20
-22.57301844685132
 30
0.0
 11
82.64486394137069
 21
-22.53185382535933
 31
0.0
  0
LINE
  5
14A
330
70
100
AcDbEntity
  8
Livello 1
370
     9
100
AcDbLine
 10
78.2812465570934
 20
-16.3980739638671
 30
0.0
 11
78.11656713286312
 21
-16.52156782834369
 31
0.0
  0
LINE
  5
14C
330
70
100
AcDbEntity
  8
Livello 1
370
     9
100
AcDbLine
 10
79.7220501858478
 20
-15.90405662943668
 30
0.0
 11
79.7220501858478
 21
-15.78056276495945
 31
0.0
  0
LINE
  5
14D
330
70
100
AcDbEntity
  8
Livello 1
370
     9
100
AcDbLine
 10
78.48706966455525
 20
-16.56273244983632
 30
0.0
 11
78.61056352903249
 21
-16.6038970713283
 31
0.0
  0
LINE
  5
14E
330
70
100
AcDbEntity
  8
Livello 1
370
     9
100
AcDbLine
 10
79.35156859241672
 20
-15.08072232306719
 30
0.0
 11
79.2280747279395
 21
-15.0395577015752
 31
0.0
  0
LINE
  5
14F
330
70
100
AcDbEntity
  8
Livello 1
370
     9
100
AcDbLine
 10
78.40474042157064
 20
-16.4804032068517
 30
0.0
 11
78.48706966455525
 21
-16.56273244983632
 31
0.0
  0
LINE
  5
150
330
70
100
AcDbEntity
  8
Livello 1
370
     9
100
AcDbLine
 10
79.43389783540133
 20
-15.12188694455981
 30
0.0
 11
79.35156859241672
 21
-15.08072232306719
 31
0.0
  0
LINE
  5
151
330
70
100
AcDbEntity
  8
Livello 1
370
     9
100
AcDbLine
 10
79.68088556435517
 20
-15.49241041451299
 30
0.0
 11
79.7220501858478
 21
-15.49241041451299
 31
0.0
  0
LINE
  5
152
330
70
100
AcDbEntity
  8
Livello 1
370
     9
100
AcDbLine
 10
79.55739169987857
 20
-16.31574472088184
 30
0.0
 11
79.59855632137056
 21
-16.31574472088184
 31
0.0
  0
LINE
  5
153
330
70
100
AcDbEntity
  8
Livello 1
370
     9
100
AcDbLine
 10
79.39273321390935
 20
-15.12188694455981
 30
0.0
 11
79.43389783540133
 21
-15.12188694455981
 31
0.0
  0
LINE
  5
154
330
70
100
AcDbEntity
  8
Livello 1
370
     9
100
AcDbLine
 10
79.47506245689396
 20
-15.20425806406653
 30
0.0
 11
79.47506245689396
 21
-15.16309344257455
 31
0.0
  0
LINE
  5
155
330
70
100
AcDbEntity
  8
Livello 1
370
     9
100
AcDbLine
 10
79.68088556435517
 20
-15.49241041451299
 30
0.0
 11
79.68088556435517
 21
-15.451245793021
 31
0.0
  0
LINE
  5
156
330
70
100
AcDbEntity
  8
Livello 1
370
     9
100
AcDbLine
 10
79.47506245689396
 20
-15.16309344257455
 30
0.0
 11
79.43389783540133
 21
-15.16309344257455
 31
0.0
  0
LINE
  5
157
330
70
100
AcDbEntity
  8
Livello 1
370
     9
100
AcDbLine
 10
78.61056352903249
 20
-16.6038970713283
 30
0.0
 11
78.65172815052448
 21
-16.6038970713283
 31
0.0
  0
LINE
  5
158
330
70
100
AcDbEntity
  8
Livello 1
370
     9
100
AcDbLine
 10
79.7220501858478
 20
-15.53357503600561
 30
0.0
 11
79.68088556435517
 21
-15.49241041451299
 31
0.0
  0
LINE
  5
159
330
70
100
AcDbEntity
  8
Livello 1
370
     9
100
AcDbLine
 10
78.48706966455525
 20
-16.56273244983632
 30
0.0
 11
78.52823428604787
 21
-16.56273244983632
 31
0.0
  0
LINE
  5
15A
330
70
100
AcDbEntity
  8
Livello 1
370
     9
100
AcDbLine
 10
79.35156859241672
 20
-15.08072232306719
 30
0.0
 11
79.26923934943213
 21
-15.0395577015752
 31
0.0
  0
LINE
  5
15B
330
70
100
AcDbEntity
  8
Livello 1
370
     9
100
AcDbLine
 10
79.51622707838595
 20
-15.20425806406653
 30
0.0
 11
79.47506245689396
 21
-15.16309344257455
 31
0.0
  0
LINE
  5
15C
330
70
100
AcDbEntity
  8
Livello 1
370
     9
100
AcDbLine
 10
79.68088556435517
 20
-15.53357503600561
 30
0.0
 11
79.68088556435517
 21
-15.49241041451299
 31
0.0
  0
LINE
  5
15E
330
70
100
AcDbEntity
  8
Livello 1
370
     9
100
AcDbLine
 10
78.61056352903249
 20
-16.6038970713283
 30
0.0
 11
78.65172815052448
 21
-16.6038970713283
 31
0.0
  0
LINE
  5
161
330
70
100
AcDbEntity
  8
Livello 1
370
     9
100
AcDbLine
 10
78.61056352903249
 20
-16.6038970713283
 30
0.0
 11
78.65172815052448
 21
-16.6038970713283
 31
0.0
  0
LINE
  5
162
330
70
100
AcDbEntity
  8
Livello 1
370
     9
100
AcDbLine
 10
78.03423788987851
 20
-15.73939814346682
 30
0.0
 11
78.03423788987851
 21
-15.78056276495945
 31
0.0
  0
LINE
  5
163
330
70
100
AcDbEntity
  8
Livello 1
370
     9
100
AcDbLine
 10
79.7220501858478
 20
-15.90405662943668
 30
0.0
 11
79.7220501858478
 21
-15.86289200794406
 31
0.0
  0
LINE
  5
164
330
70
100
AcDbEntity
  8
Livello 1
370
     9
100
AcDbLine
 10
79.63972094286319
 20
-15.451245793021
 30
0.0
 11
79.63972094286319
 21
-15.36891655003575
 31
0.0
  0
LINE
  5
165
330
70
100
AcDbEntity
  8
Livello 1
370
     9
100
AcDbLine
 10
79.7220501858478
 20
-15.78056276495945
 30
0.0
 11
79.7220501858478
 21
-15.73939814346682
 31
0.0
  0
LINE
  5
167
330
70
100
AcDbEntity
  8
Livello 1
370
     9
100
AcDbLine
 10
79.43389783540133
 20
-15.16309344257455
 30
0.0
 11
79.43389783540133
 21
-15.12188694455981
 31
0.0
  0
LINE
  5
168
330
70
100
AcDbEntity
  8
Livello 1
370
     9
100
AcDbLine
 10
78.40474042157064
 20
-16.4804032068517
 30
0.0
 11
78.44590504306326
 21
-16.4804032068517
 31
0.0
  0
LINE
  5
169
330
70
100
AcDbEntity
  8
Livello 1
370
     9
100
AcDbLine
 10
78.03423788987851
 20
-15.73939814346682
 30
0.0
 11
78.0754025113705
 21
-15.73939814346682
 31
0.0
  0
LINE
  5
16A
330
70
100
AcDbEntity
  8
Livello 1
370
     9
100
AcDbLine
 10
79.68088556435517
 20
-15.451245793021
 30
0.0
 11
79.63972094286319
 21
-15.451245793021
 31
0.0
  0
LINE
  5
16B
330
70
100
AcDbEntity
  8
Livello 1
370
     9
100
AcDbLine
 10
78.61056352903249
 20
-16.6038970713283
 30
0.0
 11
78.65172815052448
 21
-16.6038970713283
 31
0.0
  0
LINE
  5
16C
330
70
100
AcDbEntity
  8
Livello 1
370
     9
100
AcDbLine
 10
78.40474042157064
 20
-16.4804032068517
 30
0.0
 11
78.44590504306326
 21
-16.4804032068517
 31
0.0
  0
LINE
  5
16D
330
70
100
AcDbEntity
  8
Livello 1
370
     9
100
AcDbLine
 10
79.35156859241672
 20
-15.08072232306719
 30
0.0
 11
79.39273321390935
 21
-15.08072232306719
 31
0.0
  0
LINE
  5
16E
330
70
100
AcDbEntity
  8
Livello 1
370
     9
100
AcDbLine
 10
79.43389783540133
 20
-15.16309344257455
 30
0.0
 11
79.43389783540133
 21
-15.12188694455981
 31
0.0
  0
LINE
  5
16F
330
70
100
AcDbEntity
  8
Livello 1
370
     9
100
AcDbLine
 10
78.48706966455525
 20
-16.56273244983632
 30
0.0
 11
78.52823428604787
 21
-16.56273244983632
 31
0.0
  0
LINE
  5
170
330
70
100
AcDbEntity
  8
Livello 1
370
     9
100
AcDbLine
 10
78.61056352903249
 20
-16.6038970713283
 30
0.0
 11
78.65172815052448
 21
-16.6038970713283
 31
0.0
  0
LINE
  5
171
330
70
100
AcDbEntity
  8
Livello 1
370
     9
100
AcDbLine
 10
79.43389783540133
 20
-15.12188694455981
 30
0.0
 11
79.47506245689396
 21
-15.12188694455981
 31
0.0
  0
LINE
  5
172
330
70
100
AcDbEntity
  8
Livello 1
370
     9
100
AcDbLine
 10
78.40474042157064
 20
-16.4804032068517
 30
0.0
 11
78.44590504306326
 21
-16.4804032068517
 31
0.0
  0
LINE
  5
173
330
70
100
AcDbEntity
  8
Livello 1
370
     9
100
AcDbLine
 10
78.48706966455525
 20
-16.56273244983632
 30
0.0
 11
78.52823428604787
 21
-16.56273244983632
 31
0.0
  0
LINE
  5
174
330
70
100
AcDbEntity
  8
Livello 1
370
     9
100
AcDbLine
 10
78.03423788987851
 20
-15.73939814346682
 30
0.0
 11
78.0754025113705
 21
-15.73939814346682
 31
0.0
  0
LINE
  5
175
330
70
100
AcDbEntity
  8
Livello 1
370
     9
100
AcDbLine
 10
79.35156859241672
 20
-15.08072232306719
 30
0.0
 11
79.39273321390935
 21
-15.08072232306719
 31
0.0
  0
LINE
  5
177
330
70
100
AcDbEntity
  8
Livello 1
370
     9
100
AcDbLine
 10
79.51622707838595
 20
-15.78056276495945
 30
0.0
 11
79.51622707838595
 21
-15.73939814346682
 31
0.0
  0
LINE
  5
178
330
70
100
AcDbEntity
  8
Livello 1
370
     9
100
AcDbLine
 10
78.2812465570934
 20
-15.82172738645143
 30
0.0
 11
78.32241117858602
 21
-15.82172738645143
 31
0.0
  0
LINE
  5
179
330
70
100
AcDbEntity
  8
Livello 1
370
     9
100
AcDbLine
 10
79.18688916818645
 20
-15.24542268555916
 30
0.0
 11
79.14572454669382
 21
-15.24542268555916
 31
0.0
  0
LINE
  5
17A
330
70
100
AcDbEntity
  8
Livello 1
370
     9
100
AcDbLine
 10
79.10455992520184
 20
-15.20425806406653
 30
0.0
 11
79.06339530370921
 21
-15.20425806406653
 31
0.0
  0
LINE
  5
17B
330
70
100
AcDbEntity
  8
Livello 1
370
     9
100
AcDbLine
 10
78.2812465570934
 20
-15.78056276495945
 30
0.0
 11
78.2812465570934
 21
-15.82172738645143
 31
0.0
  0
LINE
  5
17C
330
70
100
AcDbEntity
  8
Livello 1
370
     9
100
AcDbLine
 10
79.51622707838595
 20
-15.82172738645143
 30
0.0
 11
79.55739169987857
 21
-15.82172738645143
 31
0.0
  0
LINE
  5
17D
330
70
100
AcDbEntity
  8
Livello 1
370
     9
100
AcDbLine
 10
78.65172815052448
 20
-16.35690934237447
 30
0.0
 11
78.6928927720171
 21
-16.35690934237447
 31
0.0
  0
LINE
  5
17E
330
70
100
AcDbEntity
  8
Livello 1
370
     9
100
AcDbLine
 10
79.18688916818645
 20
-15.24542268555916
 30
0.0
 11
79.2280747279395
 21
-15.24542268555916
 31
0.0
  0
LINE
  5
17F
330
70
100
AcDbEntity
  8
Livello 1
370
     9
100
AcDbLine
 10
78.61056352903249
 20
-16.35690934237447
 30
0.0
 11
78.65172815052448
 21
-16.35690934237447
 31
0.0
  0
LINE
  5
180
330
70
100
AcDbEntity
  8
Livello 1
370
     9
100
AcDbLine
 10
79.18688916818645
 20
-15.24542268555916
 30
0.0
 11
79.14572454669382
 21
-15.24542268555916
 31
0.0
  0
LINE
  5
181
330
70
100
AcDbEntity
  8
Livello 1
370
     9
100
AcDbLine
 10
79.51622707838595
 20
-15.86289200794406
 30
0.0
 11
79.51622707838595
 21
-15.82172738645143
 31
0.0
  0
LINE
  5
182
330
70
100
AcDbEntity
  8
Livello 1
370
     9
100
AcDbLine
 10
78.2812465570934
 20
-15.73939814346682
 30
0.0
 11
78.2812465570934
 21
-15.78056276495945
 31
0.0
  0
LINE
  5
183
330
70
100
AcDbEntity
  8
Livello 1
370
     9
100
AcDbLine
 10
78.2812465570934
 20
-15.73939814346682
 30
0.0
 11
78.32241117858602
 21
-15.73939814346682
 31
0.0
  0
LINE
  5
184
330
70
100
AcDbEntity
  8
Livello 1
370
     9
100
AcDbLine
 10
79.10455992520184
 20
-15.20425806406653
 30
0.0
 11
79.14572454669382
 21
-15.20425806406653
 31
0.0
  0
LINE
  5
185
330
70
100
AcDbEntity
  8
Livello 1
370
     9
100
AcDbLine
 10
78.2812465570934
 20
-15.78056276495945
 30
0.0
 11
78.2812465570934
 21
-15.82172738645143
 31
0.0
  0
LINE
  5
188
330
70
100
AcDbEntity
  8
Livello 1
370
     9
100
AcDbLine
 10
79.51622707838595
 20
-15.82172738645143
 30
0.0
 11
79.55739169987857
 21
-15.82172738645143
 31
0.0
  0
LINE
  5
189
330
70
100
AcDbEntity
  8
Livello 1
370
     9
100
AcDbLine
 10
78.2812465570934
 20
-15.82172738645143
 30
0.0
 11
78.32241117858602
 21
-15.82172738645143
 31
0.0
  0
LINE
  5
18A
330
70
100
AcDbEntity
  8
Livello 1
370
     9
100
AcDbLine
 10
79.18688916818645
 20
-15.24542268555916
 30
0.0
 11
79.14572454669382
 21
-15.24542268555916
 31
0.0
  0
LINE
  5
18B
330
70
100
AcDbEntity
  8
Livello 1
370
     9
100
AcDbLine
 10
78.2812465570934
 20
-15.78056276495945
 30
0.0
 11
78.32241117858602
 21
-15.78056276495945
 31
0.0
  0
LINE
  5
18C
330
70
100
AcDbEntity
  8
Livello 1
370
     9
100
AcDbLine
 10
79.51622707838595
 20
-15.82172738645143
 30
0.0
 11
79.55739169987857
 21
-15.82172738645143
 31
0.0
  0
LINE
  5
18D
330
70
100
AcDbEntity
  8
Livello 1
370
     9
100
AcDbLine
 10
79.10455992520184
 20
-15.20425806406653
 30
0.0
 11
79.14572454669382
 21
-15.20425806406653
 31
0.0
  0
LINE
  5
18F
330
70
100
AcDbEntity
  8
Livello 1
370
     9
100
AcDbLine
 10
79.51622707838595
 20
-15.78056276495945
 30
0.0
 11
79.55739169987857
 21
-15.78056276495945
 31
0.0
  0
LINE
  5
190
330
70
100
AcDbEntity
  8
Livello 1
370
     9
100
AcDbLine
 10
79.14572454669382
 20
-15.24542268555916
 30
0.0
 11
79.10455992520184
 21
-15.20425806406653
 31
0.0
  0
LINE
  5
191
330
70
100
AcDbEntity
  8
Livello 1
370
     9
100
AcDbLine
 10
79.18688916818645
 20
-15.24542268555916
 30
0.0
 11
79.14572454669382
 21
-15.24542268555916
 31
0.0
  0
LINE
  5
193
330
70
100
AcDbEntity
  8
Livello 1
370
     9
100
AcDbLine
 10
79.18688916818645
 20
-15.24542268555916
 30
0.0
 11
79.2280747279395
 21
-15.24542268555916
 31
0.0
  0
LINE
  5
194
330
70
100
AcDbEntity
  8
Livello 1
370
     9
100
AcDbLine
 10
79.51622707838595
 20
-15.82172738645143
 30
0.0
 11
79.55739169987857
 21
-15.82172738645143
 31
0.0
  0
LINE
  5
195
330
70
100
AcDbEntity
  8
Livello 1
370
     9
100
AcDbLine
 10
78.65172815052448
 20
-16.35690934237447
 30
0.0
 11
78.6928927720171
 21
-16.35690934237447
 31
0.0
  0
LINE
  5
196
330
70
100
AcDbEntity
  8
Livello 1
370
     9
100
AcDbLine
 10
78.2812465570934
 20
-15.78056276495945
 30
0.0
 11
78.2812465570934
 21
-15.82172738645143
 31
0.0
  0
LINE
  5
197
330
70
100
AcDbEntity
  8
Livello 1
370
     9
100
AcDbLine
 10
79.10455992520184
 20
-15.20425806406653
 30
0.0
 11
79.14572454669382
 21
-15.20425806406653
 31
0.0
  0
LINE
  5
198
330
70
100
AcDbEntity
  8
Livello 1
370
     9
100
AcDbLine
 10
79.51622707838595
 20
-15.82172738645143
 30
0.0
 11
79.55739169987857
 21
-15.82172738645143
 31
0.0
  0
LINE
  5
199
330
70
100
AcDbEntity
  8
Livello 1
370
     9
100
AcDbLine
 10
78.2812465570934
 20
-15.73939814346682
 30
0.0
 11
78.32241117858602
 21
-15.73939814346682
 31
0.0
  0
LINE
  5
1A1
330
70
100
AcDbEntity
  8
Livello 1
370
     9
100
AcDbLine
 10
13.27967099978601
 20
-20.06185090625212
 30
0.0
 11
13.27967099978601
 21
-20.06185090625212
 31
0.0
  0
LINE
  5
1A2
330
70
100
AcDbEntity
  8
Livello 1
370
     9
100
AcDbLine
 10
13.23850637829371
 20
-19.65020469132843
 30
0.0
 11
13.23850637829371
 21
-19.65020469132843
 31
0.0
  0
LINE
  5
1AA
330
70
100
AcDbEntity
  8
Livello 1
370
     9
100
AcDbLine
 10
13.27967099978601
 20
-20.06185090625212
 30
0.0
 11
13.27967099978601
 21
-20.06185090625212
 31
0.0
  0
LINE
  5
1AC
330
70
100
AcDbEntity
  8
Livello 1
370
     9
100
AcDbLine
 10
13.03267280170133
 20
-19.73253393431304
 30
0.0
 11
13.03267280170133
 21
-19.73253393431304
 31
0.0
  0
LINE
  5
1AE
330
70
100
AcDbEntity
  8
Livello 1
370
     9
100
AcDbLine
 10
13.32083562127832
 20
-19.65020469132843
 30
0.0
 11
13.32083562127832
 21
-19.65020469132843
 31
0.0
  0
LINE
  5
1B1
330
70
100
AcDbEntity
  8
Livello 1
370
     9
100
AcDbLine
 10
13.23850637829371
 20
-19.65020469132843
 30
0.0
 11
13.23850637829371
 21
-19.65020469132843
 31
0.0
  0
LINE
  5
1B5
330
70
100
AcDbEntity
  8
Livello 1
370
     9
100
AcDbLine
 10
13.32083562127832
 20
-20.06185090625212
 30
0.0
 11
13.32083562127832
 21
-20.06185090625212
 31
0.0
  0
LINE
  5
1FC
330
70
100
AcDbEntity
  8
Livello 1
370
     9
100
AcDbLine
 10
13.23850637829371
 20
-19.65020469132843
 30
0.0
 11
13.23850637829371
 21
-19.56787544834382
 31
0.0
  0
LINE
  5
1FD
330
70
100
AcDbEntity
  8
Livello 1
370
     9
100
AcDbLine
 10
13.23850637829371
 20
-19.56787544834382
 30
0.0
 11
13.23850637829371
 21
-19.65020469132843
 31
0.0
  0
LINE
  5
1FE
330
70
100
AcDbEntity
  8
Livello 1
370
     9
100
AcDbLine
 10
13.27967099978601
 20
-20.06185090625212
 30
0.0
 11
13.32083562127832
 21
-20.06185090625212
 31
0.0
  0
LINE
  5
1FF
330
70
100
AcDbEntity
  8
Livello 1
370
     9
100
AcDbLine
 10
13.32083562127832
 20
-20.06185090625212
 30
0.0
 11
13.27967099978601
 21
-20.06185090625212
 31
0.0
  0
LINE
  5
200
330
70
100
AcDbEntity
  8
Livello 1
370
     9
100
AcDbLine
 10
13.27967099978601
 20
-20.06185090625212
 30
0.0
 11
13.32083562127832
 21
-20.06185090625212
 31
0.0
  0
LINE
  5
201
330
70
100
AcDbEntity
  8
Livello 1
370
     9
100
AcDbLine
 10
13.19733128767088
 20
-19.65020469132843
 30
0.0
 11
13.23850637829371
 21
-19.65020469132843
 31
0.0
  0
LINE
  5
202
330
70
100
AcDbEntity
  8
Livello 1
370
     9
100
AcDbLine
 10
13.23850637829371
 20
-19.65020469132843
 30
0.0
 11
13.27967099978601
 21
-19.65020469132843
 31
0.0
  0
LINE
  5
203
330
70
100
AcDbEntity
  8
Livello 1
370
     9
100
AcDbLine
 10
83.18002495903204
 20
-19.03269349242078
 30
0.0
 11
12.82683922510928
 21
-19.03269349242078
 31
0.0
  0
LINE
  5
204
330
70
100
AcDbEntity
  8
Livello 1
370
     9
100
AcDbLine
 10
12.82683922510928
 20
-19.03269349242078
 30
0.0
 11
12.29167820744762
 21
-19.03269349242078
 31
0.0
  0
LINE
  5
205
330
70
100
AcDbEntity
  8
Livello 1
370
     9
100
AcDbLine
 10
12.29167820744762
 20
-19.03269349242078
 30
0.0
 11
83.13886033754005
 21
-19.03269349242078
 31
0.0
  0
LINE
  5
206
330
70
100
AcDbEntity
  8
Livello 1
370
     9
100
AcDbLine
 10
78.56939890753986
 20
-16.6038970713283
 30
0.0
 11
78.61056352903249
 21
-16.6038970713283
 31
0.0
  0
LINE
  5
207
330
70
100
AcDbEntity
  8
Livello 1
370
     9
100
AcDbLine
 10
78.61056352903249
 20
-16.6038970713283
 30
0.0
 11
78.65172815052448
 21
-16.4804032068517
 31
0.0
  0
LINE
  5
208
330
70
100
AcDbEntity
  8
Livello 1
370
     9
100
AcDbLine
 10
12.25051358595531
 20
-21.95550724794431
 30
0.0
 11
12.25051358595531
 21
-21.95550724794431
 31
0.0
  0
LINE
  5
209
330
70
100
AcDbEntity
  8
Livello 1
370
     9
100
AcDbLine
 10
12.25051358595531
 20
-21.95550724794431
 30
0.0
 11
12.25051358595531
 21
-21.9966718694363
 31
0.0
  0
LINE
  5
20A
330
70
100
AcDbEntity
  8
Livello 1
370
     9
100
AcDbLine
 10
12.82683922510928
 20
-22.53185382535933
 30
0.0
 11
12.82683922510928
 21
-22.53185382535933
 31
0.0
  0
LINE
  5
20B
330
70
100
AcDbEntity
  8
Livello 1
370
     9
100
AcDbLine
 10
12.82683922510928
 20
-22.53185382535933
 30
0.0
 11
12.86800384660159
 21
-22.57301844685132
 31
0.0
  0
LINE
  5
20C
330
70
100
AcDbEntity
  8
Livello 1
370
     9
100
AcDbLine
 10
17.35513603361684
 20
-16.52156782834369
 30
0.0
 11
17.10813783553216
 21
-16.35690934237447
 31
0.0
  0
LINE
  5
20D
330
70
100
AcDbEntity
  8
Livello 1
370
     9
100
AcDbLine
 10
17.10813783553216
 20
-16.35690934237447
 30
0.0
 11
16.81996454682465
 21
-16.35690934237447
 31
0.0
  0
LINE
  5
20E
330
70
100
AcDbEntity
  8
Livello 1
370
     9
100
AcDbLine
 10
17.14930245702447
 20
-16.68622631431291
 30
0.0
 11
17.02579812341702
 21
-16.6038970713283
 31
0.0
  0
LINE
  5
20F
330
70
100
AcDbEntity
  8
Livello 1
370
     9
100
AcDbLine
 10
17.02579812341702
 20
-16.6038970713283
 30
0.0
 11
16.90230425893979
 21
-16.6038970713283
 31
0.0
  0
LINE
  5
210
330
70
100
AcDbEntity
  8
Livello 1
370
     9
100
AcDbLine
 10
15.87314684510908
 20
-16.31574472088184
 30
0.0
 11
15.79080713299395
 21
-16.23341547789723
 31
0.0
  0
LINE
  5
211
330
70
100
AcDbEntity
  8
Livello 1
370
     9
100
AcDbLine
 10
15.79080713299395
 20
-16.23341547789723
 30
0.0
 11
15.70847789000934
 21
-16.23341547789723
 31
0.0
  0
LINE
  5
212
330
70
100
AcDbEntity
  8
Livello 1
370
     9
100
AcDbLine
 10
15.87314684510908
 20
-15.32775192854377
 30
0.0
 11
15.83198222361678
 21
-15.36891655003575
 31
0.0
  0
LINE
  5
213
330
70
100
AcDbEntity
  8
Livello 1
370
     9
100
AcDbLine
 10
15.83198222361678
 20
-15.36891655003575
 30
0.0
 11
15.83198222361678
 21
-15.41008117152838
 31
0.0
  0
LINE
  5
214
330
70
100
AcDbEntity
  8
Livello 1
370
     9
100
AcDbLine
 10
17.19046707851677
 20
-16.3980739638671
 30
0.0
 11
17.31396094299401
 21
-16.19225085640525
 31
0.0
  0
LINE
  5
215
330
70
100
AcDbEntity
  8
Livello 1
370
     9
100
AcDbLine
 10
17.31396094299401
 20
-16.19225085640525
 30
0.0
 11
17.39630065510915
 21
-15.90405662943668
 31
0.0
  0
LINE
  5
216
330
70
100
AcDbEntity
  8
Livello 1
370
     9
100
AcDbLine
 10
17.39630065510915
 20
-15.90405662943668
 30
0.0
 11
17.39630065510915
 21
-15.65706890048221
 31
0.0
  0
LINE
  5
217
330
70
100
AcDbEntity
  8
Livello 1
370
     9
100
AcDbLine
 10
15.83198222361678
 20
-16.19225085640525
 30
0.0
 11
16.03780533107863
 21
-16.43923858535908
 31
0.0
  0
LINE
  5
218
330
70
100
AcDbEntity
  8
Livello 1
370
     9
100
AcDbLine
 10
16.03780533107863
 20
-16.43923858535908
 30
0.0
 11
16.32597861978614
 21
-16.6038970713283
 31
0.0
  0
LINE
  5
219
330
70
100
AcDbEntity
  8
Livello 1
370
     9
100
AcDbLine
 10
17.39630065510915
 20
-15.53357503600561
 30
0.0
 11
17.19046707851677
 21
-15.20425806406653
 31
0.0
  0
LINE
  5
21A
330
70
100
AcDbEntity
  8
Livello 1
370
     9
100
AcDbLine
 10
17.19046707851677
 20
-15.20425806406653
 30
0.0
 11
16.90230425893979
 21
-14.99839308008257
 31
0.0
  0
LINE
  5
21B
330
70
100
AcDbEntity
  8
Livello 1
370
     9
100
AcDbLine
 10
16.90230425893979
 20
-14.99839308008257
 30
0.0
 11
16.53180172724766
 21
-14.95722845859059
 31
0.0
  0
LINE
  5
21C
330
70
100
AcDbEntity
  8
Livello 1
370
     9
100
AcDbLine
 10
16.53180172724766
 20
-14.95722845859059
 30
0.0
 11
16.16130966468607
 21
-15.0395577015752
 31
0.0
  0
LINE
  5
21D
330
70
100
AcDbEntity
  8
Livello 1
370
     9
100
AcDbLine
 10
16.16130966468607
 20
-15.0395577015752
 30
0.0
 11
15.91431146660139
 21
-15.28658730705114
 31
0.0
  0
LINE
  5
21E
330
70
100
AcDbEntity
  8
Livello 1
370
     9
100
AcDbLine
 10
15.91431146660139
 20
-15.28658730705114
 30
0.0
 11
15.74964251150164
 21
-15.61590427899022
 31
0.0
  0
LINE
  5
21F
330
70
100
AcDbEntity
  8
Livello 1
370
     9
100
AcDbLine
 10
15.74964251150164
 20
-15.61590427899022
 30
0.0
 11
15.74964251150164
 21
-15.98638587242129
 31
0.0
  0
LINE
  5
220
330
70
100
AcDbEntity
  8
Livello 1
370
     9
100
AcDbLine
 10
15.70847789000934
 20
-15.78056276495945
 30
0.0
 11
15.74964251150164
 21
-15.78056276495945
 31
0.0
  0
LINE
  5
221
330
70
100
AcDbEntity
  8
Livello 1
370
     9
100
AcDbLine
 10
15.74964251150164
 20
-15.78056276495945
 30
0.0
 11
15.70847789000934
 21
-15.78056276495945
 31
0.0
  0
LINE
  5
222
330
70
100
AcDbEntity
  8
Livello 1
370
     9
100
AcDbLine
 10
16.81996454682465
 20
-16.35690934237447
 30
0.0
 11
16.86113963744748
 21
-16.35690934237447
 31
0.0
  0
LINE
  5
223
330
70
100
AcDbEntity
  8
Livello 1
370
     9
100
AcDbLine
 10
16.86113963744748
 20
-16.35690934237447
 30
0.0
 11
16.81996454682465
 21
-16.35690934237447
 31
0.0
  0
LINE
  5
224
330
70
100
AcDbEntity
  8
Livello 1
370
     9
100
AcDbLine
 10
17.19046707851677
 20
-15.82172738645143
 30
0.0
 11
17.19046707851677
 21
-15.78056276495945
 31
0.0
  0
LINE
  5
225
330
70
100
AcDbEntity
  8
Livello 1
370
     9
100
AcDbLine
 10
17.19046707851677
 20
-15.78056276495945
 30
0.0
 11
17.19046707851677
 21
-15.69823352197484
 31
0.0
  0
LINE
  5
226
330
70
100
AcDbEntity
  8
Livello 1
370
     9
100
AcDbLine
 10
16.03780533107863
 20
-16.10987973689789
 30
0.0
 11
16.16130966468607
 21
-16.27458009938986
 31
0.0
  0
LINE
  5
227
330
70
100
AcDbEntity
  8
Livello 1
370
     9
100
AcDbLine
 10
16.16130966468607
 20
-16.27458009938986
 30
0.0
 11
16.32597861978614
 21
-16.35690934237447
 31
0.0
  0
LINE
  5
228
330
70
100
AcDbEntity
  8
Livello 1
370
     9
100
AcDbLine
 10
17.19046707851677
 20
-15.73939814346682
 30
0.0
 11
17.10813783553216
 21
-15.49241041451299
 31
0.0
  0
LINE
  5
229
330
70
100
AcDbEntity
  8
Livello 1
370
     9
100
AcDbLine
 10
17.10813783553216
 20
-15.49241041451299
 30
0.0
 11
16.90230425893979
 21
-15.28658730705114
 31
0.0
  0
LINE
  5
22A
330
70
100
AcDbEntity
  8
Livello 1
370
     9
100
AcDbLine
 10
16.90230425893979
 20
-15.28658730705114
 30
0.0
 11
16.65530606085543
 21
-15.16309344257455
 31
0.0
  0
LINE
  5
22B
330
70
100
AcDbEntity
  8
Livello 1
370
     9
100
AcDbLine
 10
16.65530606085543
 20
-15.16309344257455
 30
0.0
 11
16.36714324127844
 21
-15.20425806406653
 31
0.0
  0
LINE
  5
22C
330
70
100
AcDbEntity
  8
Livello 1
370
     9
100
AcDbLine
 10
16.36714324127844
 20
-15.20425806406653
 30
0.0
 11
16.12014504319376
 21
-15.36891655003575
 31
0.0
  0
LINE
  5
22D
330
70
100
AcDbEntity
  8
Livello 1
370
     9
100
AcDbLine
 10
16.12014504319376
 20
-15.36891655003575
 30
0.0
 11
15.99664070958632
 21
-15.61590427899022
 31
0.0
  0
LINE
  5
22E
330
70
100
AcDbEntity
  8
Livello 1
370
     9
100
AcDbLine
 10
15.99664070958632
 20
-15.61590427899022
 30
0.0
 11
15.9554760880937
 21
-15.90405662943668
 31
0.0
  0
LINE
  5
22F
330
70
100
AcDbEntity
  8
Livello 1
370
     9
100
AcDbLine
 10
16.81996454682465
 20
-16.35690934237447
 30
0.0
 11
17.02579812341702
 21
-16.23341547789723
 31
0.0
  0
LINE
  5
230
330
70
100
AcDbEntity
  8
Livello 1
370
     9
100
AcDbLine
 10
17.02579812341702
 20
-16.23341547789723
 30
0.0
 11
17.14930245702447
 21
-16.02755049391328
 31
0.0
  0
LINE
  5
231
330
70
100
AcDbEntity
  8
Livello 1
370
     9
100
AcDbLine
 10
17.14930245702447
 20
-16.02755049391328
 30
0.0
 11
17.19046707851677
 21
-15.78056276495945
 31
0.0
  0
LINE
  5
232
330
70
100
AcDbEntity
  8
Livello 1
370
     9
100
AcDbLine
 10
17.19046707851677
 20
-15.78056276495945
 30
0.0
 11
17.19046707851677
 21
-15.82172738645143
 31
0.0
  0
LINE
  5
233
330
70
100
AcDbEntity
  8
Livello 1
370
     9
100
AcDbLine
 10
17.19046707851677
 20
-15.78056276495945
 30
0.0
 11
17.19046707851677
 21
-15.73939814346682
 31
0.0
  0
LINE
  5
234
330
70
100
AcDbEntity
  8
Livello 1
370
     9
100
AcDbLine
 10
17.19046707851677
 20
-15.73939814346682
 30
0.0
 11
17.23163170000908
 21
-15.73939814346682
 31
0.0
  0
LINE
  5
235
330
70
100
AcDbEntity
  8
Livello 1
370
     9
100
AcDbLine
 10
16.81996454682465
 20
-18.20935918605192
 30
0.0
 11
16.90230425893979
 21
-18.49755341302049
 31
0.0
  0
LINE
  5
236
330
70
100
AcDbEntity
  8
Livello 1
370
     9
100
AcDbLine
 10
16.90230425893979
 20
-18.49755341302049
 30
0.0
 11
17.10813783553216
 21
-18.70337652048234
 31
0.0
  0
LINE
  5
237
330
70
100
AcDbEntity
  8
Livello 1
370
     9
100
AcDbLine
 10
17.10813783553216
 20
-18.70337652048234
 30
0.0
 11
17.39630065510915
 21
-18.78570576346694
 31
0.0
  0
LINE
  5
238
330
70
100
AcDbEntity
  8
Livello 1
370
     9
100
AcDbLine
 10
19.12527757257073
 20
-15.78056276495945
 30
0.0
 11
19.00178370809382
 21
-15.451245793021
 31
0.0
  0
LINE
  5
239
330
70
100
AcDbEntity
  8
Livello 1
370
     9
100
AcDbLine
 10
19.00178370809382
 20
-15.451245793021
 30
0.0
 11
18.75478551000914
 21
-15.24542268555916
 31
0.0
  0
LINE
  5
23A
330
70
100
AcDbEntity
  8
Livello 1
370
     9
100
AcDbLine
 10
18.46662269043216
 20
-15.0395577015752
 30
0.0
 11
18.2607891138401
 21
-15.0395577015752
 31
0.0
  0
LINE
  5
23B
330
70
100
AcDbEntity
  8
Livello 1
370
     9
100
AcDbLine
 10
18.2607891138401
 20
-15.0395577015752
 30
0.0
 11
18.09612015874003
 21
-15.08072232306719
 31
0.0
  0
LINE
  5
23C
330
70
100
AcDbEntity
  8
Livello 1
370
     9
100
AcDbLine
 10
18.09612015874003
 20
-15.08072232306719
 30
0.0
 11
18.01379091575542
 21
-15.24542268555916
 31
0.0
  0
LINE
  5
23D
330
70
100
AcDbEntity
  8
Livello 1
370
     9
100
AcDbLine
 10
18.01379091575542
 20
-15.24542268555916
 30
0.0
 11
18.05495553724773
 21
-15.451245793021
 31
0.0
  0
LINE
  5
23E
330
70
100
AcDbEntity
  8
Livello 1
370
     9
100
AcDbLine
 10
18.05495553724773
 20
-15.451245793021
 30
0.0
 11
18.17845987085517
 21
-15.5747396574976
 31
0.0
  0
LINE
  5
23F
330
70
100
AcDbEntity
  8
Livello 1
370
     9
100
AcDbLine
 10
18.54895193341677
 20
-15.86289200794406
 30
0.0
 11
18.50778731192446
 21
-15.78056276495945
 31
0.0
  0
LINE
  5
240
330
70
100
AcDbEntity
  8
Livello 1
370
     9
100
AcDbLine
 10
18.50778731192446
 20
-15.78056276495945
 30
0.0
 11
18.46662269043216
 21
-15.73939814346682
 31
0.0
  0
LINE
  5
241
330
70
100
AcDbEntity
  8
Livello 1
370
     9
100
AcDbLine
 10
83.18002495903204
 20
-19.03269349242078
 30
0.0
 11
83.18002495903204
 21
-19.03269349242078
 31
0.0
  0
LINE
  5
242
330
70
100
AcDbEntity
  8
Livello 1
370
     9
100
AcDbLine
 10
83.18002495903204
 20
-19.03269349242078
 30
0.0
 11
83.13886033754005
 21
-19.03269349242078
 31
0.0
  0
LINE
  5
243
330
70
100
AcDbEntity
  8
Livello 1
370
     9
100
AcDbLine
 10
78.0754025113705
 20
-18.78570576346694
 30
0.0
 11
78.36357580007801
 21
-18.70337652048234
 31
0.0
  0
LINE
  5
244
330
70
100
AcDbEntity
  8
Livello 1
370
     9
100
AcDbLine
 10
78.36357580007801
 20
-18.70337652048234
 30
0.0
 11
78.56939890753986
 21
-18.49755341302049
 31
0.0
  0
LINE
  5
245
330
70
100
AcDbEntity
  8
Livello 1
370
     9
100
AcDbLine
 10
78.56939890753986
 20
-18.49755341302049
 30
0.0
 11
78.65172815052448
 21
-18.20935918605192
 31
0.0
  0
LINE
  5
246
330
70
100
AcDbEntity
  8
Livello 1
370
     9
100
AcDbLine
 10
76.71692812560135
 20
-15.24542268555916
 30
0.0
 11
76.46991945838583
 21
-15.451245793021
 31
0.0
  0
LINE
  5
247
330
70
100
AcDbEntity
  8
Livello 1
370
     9
100
AcDbLine
 10
76.46991945838583
 20
-15.451245793021
 30
0.0
 11
76.34642559390923
 21
-15.78056276495945
 31
0.0
  0
LINE
  5
248
330
70
100
AcDbEntity
  8
Livello 1
370
     9
100
AcDbLine
 10
77.29325376475532
 20
-15.5747396574976
 30
0.0
 11
77.41674762923192
 21
-15.451245793021
 31
0.0
  0
LINE
  5
249
330
70
100
AcDbEntity
  8
Livello 1
370
     9
100
AcDbLine
 10
77.41674762923192
 20
-15.451245793021
 30
0.0
 11
77.45791225072455
 21
-15.24542268555916
 31
0.0
  0
LINE
  5
24A
330
70
100
AcDbEntity
  8
Livello 1
370
     9
100
AcDbLine
 10
77.45791225072455
 20
-15.24542268555916
 30
0.0
 11
77.33441838624731
 21
-15.08072232306719
 31
0.0
  0
LINE
  5
24B
330
70
100
AcDbEntity
  8
Livello 1
370
     9
100
AcDbLine
 10
77.33441838624731
 20
-15.08072232306719
 30
0.0
 11
77.21092452177072
 21
-15.0395577015752
 31
0.0
  0
LINE
  5
24C
330
70
100
AcDbEntity
  8
Livello 1
370
     9
100
AcDbLine
 10
77.21092452177072
 20
-15.0395577015752
 30
0.0
 11
77.00508047604781
 21
-15.0395577015752
 31
0.0
  0
LINE
  5
24D
330
70
100
AcDbEntity
  8
Livello 1
370
     9
100
AcDbLine
 10
77.00508047604781
 20
-15.73939814346682
 30
0.0
 11
76.92275123306321
 21
-15.78056276495945
 31
0.0
  0
LINE
  5
24E
330
70
100
AcDbEntity
  8
Livello 1
370
     9
100
AcDbLine
 10
76.92275123306321
 20
-15.78056276495945
 30
0.0
 11
76.92275123306321
 21
-15.86289200794406
 31
0.0
  0
LINE
  5
24F
330
70
100
AcDbEntity
  8
Livello 1
370
     9
100
AcDbLine
 10
78.56939890753986
 20
-16.6038970713283
 30
0.0
 11
78.44590504306326
 21
-16.6038970713283
 31
0.0
  0
LINE
  5
250
330
70
100
AcDbEntity
  8
Livello 1
370
     9
100
AcDbLine
 10
78.44590504306326
 20
-16.6038970713283
 30
0.0
 11
78.2812465570934
 21
-16.68622631431291
 31
0.0
  0
LINE
  5
251
330
70
100
AcDbEntity
  8
Livello 1
370
     9
100
AcDbLine
 10
79.2280747279395
 20
-15.0395577015752
 30
0.0
 11
78.85757219624737
 21
-14.95722845859059
 31
0.0
  0
LINE
  5
252
330
70
100
AcDbEntity
  8
Livello 1
370
     9
100
AcDbLine
 10
78.85757219624737
 20
-14.95722845859059
 30
0.0
 11
78.52823428604787
 21
-15.0395577015752
 31
0.0
  0
LINE
  5
253
330
70
100
AcDbEntity
  8
Livello 1
370
     9
100
AcDbLine
 10
78.52823428604787
 20
-15.0395577015752
 30
0.0
 11
78.24008193560143
 21
-15.28658730705114
 31
0.0
  0
LINE
  5
254
330
70
100
AcDbEntity
  8
Livello 1
370
     9
100
AcDbLine
 10
78.24008193560143
 20
-15.28658730705114
 30
0.0
 11
78.0754025113705
 21
-15.61590427899022
 31
0.0
  0
LINE
  5
255
330
70
100
AcDbEntity
  8
Livello 1
370
     9
100
AcDbLine
 10
78.0754025113705
 20
-15.61590427899022
 30
0.0
 11
78.0754025113705
 21
-15.98638587242129
 31
0.0
  0
LINE
  5
256
330
70
100
AcDbEntity
  8
Livello 1
370
     9
100
AcDbLine
 10
78.0754025113705
 20
-15.98638587242129
 30
0.0
 11
78.1989173141088
 21
-16.31574472088184
 31
0.0
  0
LINE
  5
257
330
70
100
AcDbEntity
  8
Livello 1
370
     9
100
AcDbLine
 10
78.1989173141088
 20
-16.31574472088184
 30
0.0
 11
78.48706966455525
 21
-16.56273244983632
 31
0.0
  0
LINE
  5
258
330
70
100
AcDbEntity
  8
Livello 1
370
     9
100
AcDbLine
 10
79.14572454669382
 20
-16.6038970713283
 30
0.0
 11
79.39273321390935
 21
-16.4804032068517
 31
0.0
  0
LINE
  5
259
330
70
100
AcDbEntity
  8
Livello 1
370
     9
100
AcDbLine
 10
79.39273321390935
 20
-16.4804032068517
 30
0.0
 11
79.55739169987857
 21
-16.31574472088184
 31
0.0
  0
LINE
  5
25A
330
70
100
AcDbEntity
  8
Livello 1
370
     9
100
AcDbLine
 10
79.7220501858478
 20
-15.98638587242129
 30
0.0
 11
79.7220501858478
 21
-15.65706890048221
 31
0.0
  0
LINE
  5
25B
330
70
100
AcDbEntity
  8
Livello 1
370
     9
100
AcDbLine
 10
79.7220501858478
 20
-15.65706890048221
 30
0.0
 11
79.59855632137056
 21
-15.32775192854377
 31
0.0
  0
LINE
  5
25C
330
70
100
AcDbEntity
  8
Livello 1
370
     9
100
AcDbLine
 10
79.59855632137056
 20
-15.32775192854377
 30
0.0
 11
79.35156859241672
 21
-15.08072232306719
 31
0.0
  0
LINE
  5
25D
330
70
100
AcDbEntity
  8
Livello 1
370
     9
100
AcDbLine
 10
78.61056352903249
 20
-16.6038970713283
 30
0.0
 11
78.65172815052448
 21
-16.6038970713283
 31
0.0
  0
LINE
  5
25E
330
70
100
AcDbEntity
  8
Livello 1
370
     9
100
AcDbLine
 10
78.65172815052448
 20
-16.6038970713283
 30
0.0
 11
78.61056352903249
 21
-16.6038970713283
 31
0.0
  0
LINE
  5
25F
330
70
100
AcDbEntity
  8
Livello 1
370
     9
100
AcDbLine
 10
78.61056352903249
 20
-16.6038970713283
 30
0.0
 11
78.65172815052448
 21
-16.6038970713283
 31
0.0
  0
LINE
  5
260
330
70
100
AcDbEntity
  8
Livello 1
370
     9
100
AcDbLine
 10
79.7220501858478
 20
-15.78056276495945
 30
0.0
 11
79.76323574560147
 21
-15.78056276495945
 31
0.0
  0
LINE
  5
261
330
70
100
AcDbEntity
  8
Livello 1
370
     9
100
AcDbLine
 10
79.76323574560147
 20
-15.78056276495945
 30
0.0
 11
79.7220501858478
 21
-15.78056276495945
 31
0.0
  0
LINE
  5
262
330
70
100
AcDbEntity
  8
Livello 1
370
     9
100
AcDbLine
 10
79.10455992520184
 20
-15.20425806406653
 30
0.0
 11
78.85757219624737
 21
-15.16309344257455
 31
0.0
  0
LINE
  5
263
330
70
100
AcDbEntity
  8
Livello 1
370
     9
100
AcDbLine
 10
78.85757219624737
 20
-15.16309344257455
 30
0.0
 11
78.56939890753986
 21
-15.24542268555916
 31
0.0
  0
LINE
  5
264
330
70
100
AcDbEntity
  8
Livello 1
370
     9
100
AcDbLine
 10
78.56939890753986
 20
-15.24542268555916
 30
0.0
 11
78.36357580007801
 21
-15.451245793021
 31
0.0
  0
LINE
  5
265
330
70
100
AcDbEntity
  8
Livello 1
370
     9
100
AcDbLine
 10
78.36357580007801
 20
-15.451245793021
 30
0.0
 11
78.2812465570934
 21
-15.69823352197484
 31
0.0
  0
LINE
  5
266
330
70
100
AcDbEntity
  8
Livello 1
370
     9
100
AcDbLine
 10
78.2812465570934
 20
-15.69823352197484
 30
0.0
 11
78.2812465570934
 21
-15.98638587242129
 31
0.0
  0
LINE
  5
267
330
70
100
AcDbEntity
  8
Livello 1
370
     9
100
AcDbLine
 10
78.2812465570934
 20
-15.98638587242129
 30
0.0
 11
78.44590504306326
 21
-16.19225085640525
 31
0.0
  0
LINE
  5
268
330
70
100
AcDbEntity
  8
Livello 1
370
     9
100
AcDbLine
 10
78.44590504306326
 20
-16.19225085640525
 30
0.0
 11
78.65172815052448
 21
-16.35690934237447
 31
0.0
  0
LINE
  5
269
330
70
100
AcDbEntity
  8
Livello 1
370
     9
100
AcDbLine
 10
79.14572454669382
 20
-16.35690934237447
 30
0.0
 11
79.35156859241672
 21
-16.19225085640525
 31
0.0
  0
LINE
  5
26A
330
70
100
AcDbEntity
  8
Livello 1
370
     9
100
AcDbLine
 10
79.35156859241672
 20
-16.19225085640525
 30
0.0
 11
79.47506245689396
 21
-15.94522125092867
 31
0.0
  0
LINE
  5
26B
330
70
100
AcDbEntity
  8
Livello 1
370
     9
100
AcDbLine
 10
79.47506245689396
 20
-15.94522125092867
 30
0.0
 11
79.47506245689396
 21
-15.65706890048221
 31
0.0
  0
LINE
  5
26C
330
70
100
AcDbEntity
  8
Livello 1
370
     9
100
AcDbLine
 10
79.47506245689396
 20
-15.65706890048221
 30
0.0
 11
79.35156859241672
 21
-15.41008117152838
 31
0.0
  0
LINE
  5
26D
330
70
100
AcDbEntity
  8
Livello 1
370
     9
100
AcDbLine
 10
79.35156859241672
 20
-15.41008117152838
 30
0.0
 11
79.14572454669382
 21
-15.24542268555916
 31
0.0
  0
LINE
  5
26E
330
70
100
AcDbEntity
  8
Livello 1
370
     9
100
AcDbLine
 10
78.65172815052448
 20
-16.35690934237447
 30
0.0
 11
78.6928927720171
 21
-16.35690934237447
 31
0.0
  0
LINE
  5
26F
330
70
100
AcDbEntity
  8
Livello 1
370
     9
100
AcDbLine
 10
78.6928927720171
 20
-16.35690934237447
 30
0.0
 11
78.65172815052448
 21
-16.35690934237447
 31
0.0
  0
LINE
  5
270
330
70
100
AcDbEntity
  8
Livello 1
370
     9
100
AcDbLine
 10
78.65172815052448
 20
-16.35690934237447
 30
0.0
 11
78.6928927720171
 21
-16.35690934237447
 31
0.0
  0
LINE
  5
271
330
70
100
AcDbEntity
  8
Livello 1
370
     9
100
AcDbLine
 10
78.6928927720171
 20
-16.35690934237447
 30
0.0
 11
78.65172815052448
 21
-16.35690934237447
 31
0.0
  0
LINE
  5
272
330
70
100
AcDbEntity
  8
Livello 1
370
     9
100
AcDbLine
 10
79.51622707838595
 20
-15.82172738645143
 30
0.0
 11
79.51622707838595
 21
-15.78056276495945
 31
0.0
  0
LINE
  5
273
330
70
100
AcDbEntity
  8
Livello 1
370
     9
100
AcDbLine
 10
79.51622707838595
 20
-15.78056276495945
 30
0.0
 11
79.55739169987857
 21
-15.78056276495945
 31
0.0
  0
LINE
  5
274
330
70
100
AcDbEntity
  8
Livello 1
370
     9
100
AcDbLine
 10
79.84556498858609
 20
-16.02755049391328
 30
0.0
 11
79.68088556435517
 21
-15.98638587242129
 31
0.0
  0
LINE
  5
275
330
70
100
AcDbEntity
  8
Livello 1
370
     9
100
AcDbLine
 10
79.68088556435517
 20
-15.98638587242129
 30
0.0
 11
79.51622707838595
 21
-16.0687151154059
 31
0.0
  0
LINE
  5
276
330
70
100
AcDbEntity
  8
Livello 1
370
     9
100
AcDbLine
 10
79.51622707838595
 20
-16.0687151154059
 30
0.0
 11
79.39273321390935
 21
-16.15104435839052
 31
0.0
  0
LINE
  5
277
330
70
100
AcDbEntity
  8
Livello 1
370
     9
100
AcDbLine
 10
79.76323574560147
 20
-16.23341547789723
 30
0.0
 11
79.68088556435517
 21
-16.23341547789723
 31
0.0
  0
LINE
  5
278
330
70
100
AcDbEntity
  8
Livello 1
370
     9
100
AcDbLine
 10
79.68088556435517
 20
-16.23341547789723
 30
0.0
 11
79.55739169987857
 21
-16.31574472088184
 31
0.0
  0
LINE
  5
279
330
70
100
AcDbEntity
  8
Livello 1
370
     9
100
AcDbLine
 10
13.27967099978601
 20
-19.73253393431304
 30
0.0
 11
13.27967099978601
 21
-19.73253393431304
 31
0.0
  0
LINE
  5
27A
330
70
100
AcDbEntity
  8
Livello 1
370
     9
100
AcDbLine
 10
13.27967099978601
 20
-19.73253393431304
 30
0.0
 11
13.27967099978601
 21
-19.77369855580566
 31
0.0
  0
LINE
  5
27B
330
70
100
AcDbEntity
  8
Livello 1
370
     9
100
AcDbLine
 10
13.27967099978601
 20
-19.77369855580566
 30
0.0
 11
13.23850637829371
 21
-19.77369855580566
 31
0.0
  0
LINE
  5
27C
330
70
100
AcDbEntity
  8
Livello 1
370
     9
100
AcDbLine
 10
13.23850637829371
 20
-19.77369855580566
 30
0.0
 11
13.23850637829371
 21
-19.81486317729765
 31
0.0
  0
LINE
  5
27D
330
70
100
AcDbEntity
  8
Livello 1
370
     9
100
AcDbLine
 10
13.23850637829371
 20
-19.81486317729765
 30
0.0
 11
13.23850637829371
 21
-19.85602779879027
 31
0.0
  0
LINE
  5
27E
330
70
100
AcDbEntity
  8
Livello 1
370
     9
100
AcDbLine
 10
13.23850637829371
 20
-19.85602779879027
 30
0.0
 11
13.27967099978601
 21
-19.85602779879027
 31
0.0
  0
LINE
  5
27F
330
70
100
AcDbEntity
  8
Livello 1
370
     9
100
AcDbLine
 10
13.27967099978601
 20
-19.85602779879027
 30
0.0
 11
13.27967099978601
 21
-19.89719242028226
 31
0.0
  0
LINE
  5
280
330
70
100
AcDbEntity
  8
Livello 1
370
     9
100
AcDbLine
 10
13.07383742319396
 20
-19.36205234088197
 30
0.0
 11
13.07383742319396
 21
-19.36205234088197
 31
0.0
  0
LINE
  5
281
330
70
100
AcDbEntity
  8
Livello 1
370
     9
100
AcDbLine
 10
13.07383742319396
 20
-19.36205234088197
 30
0.0
 11
13.07383742319396
 21
-19.40321696237459
 31
0.0
  0
LINE
  5
282
330
70
100
AcDbEntity
  8
Livello 1
370
     9
100
AcDbLine
 10
13.27967099978601
 20
-19.44438158386658
 30
0.0
 11
13.27967099978601
 21
-19.44438158386658
 31
0.0
  0
LINE
  5
283
330
70
100
AcDbEntity
  8
Livello 1
370
     9
100
AcDbLine
 10
13.27967099978601
 20
-19.44438158386658
 30
0.0
 11
13.23850637829371
 21
-19.48554620535921
 31
0.0
  0
LINE
  5
284
330
70
100
AcDbEntity
  8
Livello 1
370
     9
100
AcDbLine
 10
13.23850637829371
 20
-19.48554620535921
 30
0.0
 11
13.23850637829371
 21
-19.52671082685119
 31
0.0
  0
LINE
  5
285
330
70
100
AcDbEntity
  8
Livello 1
370
     9
100
AcDbLine
 10
13.23850637829371
 20
-19.52671082685119
 30
0.0
 11
13.23850637829371
 21
-19.56787544834382
 31
0.0
  0
LINE
  5
286
330
70
100
AcDbEntity
  8
Livello 1
370
     9
100
AcDbLine
 10
13.27967099978601
 20
-19.40321696237459
 30
0.0
 11
13.27967099978601
 21
-19.40321696237459
 31
0.0
  0
LINE
  5
287
330
70
100
AcDbEntity
  8
Livello 1
370
     9
100
AcDbLine
 10
13.27967099978601
 20
-19.40321696237459
 30
0.0
 11
13.32083562127832
 21
-19.40321696237459
 31
0.0
  0
LINE
  5
288
330
70
100
AcDbEntity
  8
Livello 1
370
     9
100
AcDbLine
 10
13.32083562127832
 20
-19.40321696237459
 30
0.0
 11
13.32083562127832
 21
-19.44438158386658
 31
0.0
  0
LINE
  5
289
330
70
100
AcDbEntity
  8
Livello 1
370
     9
100
AcDbLine
 10
13.32083562127832
 20
-19.44438158386658
 30
0.0
 11
13.32083562127832
 21
-19.48554620535921
 31
0.0
  0
LINE
  5
28A
330
70
100
AcDbEntity
  8
Livello 1
370
     9
100
AcDbLine
 10
13.32083562127832
 20
-19.48554620535921
 30
0.0
 11
13.32083562127832
 21
-19.52671082685119
 31
0.0
  0
LINE
  5
28B
330
70
100
AcDbEntity
  8
Livello 1
370
     9
100
AcDbLine
 10
13.32083562127832
 20
-19.52671082685119
 30
0.0
 11
13.36200024277062
 21
-19.52671082685119
 31
0.0
  0
LINE
  5
28C
330
70
100
AcDbEntity
  8
Livello 1
370
     9
100
AcDbLine
 10
13.36200024277062
 20
-19.52671082685119
 30
0.0
 11
13.36200024277062
 21
-19.56787544834382
 31
0.0
  0
LINE
  5
28D
330
70
100
AcDbEntity
  8
Livello 1
370
     9
100
AcDbLine
 10
13.07383742319396
 20
-19.40321696237459
 30
0.0
 11
13.11500204468626
 21
-19.48554620535921
 31
0.0
  0
LINE
  5
28E
330
70
100
AcDbEntity
  8
Livello 1
370
     9
100
AcDbLine
 10
13.11500204468626
 20
-19.48554620535921
 30
0.0
 11
13.11500204468626
 21
-19.6090400698358
 31
0.0
  0
LINE
  5
28F
330
70
100
AcDbEntity
  8
Livello 1
370
     9
100
AcDbLine
 10
13.11500204468626
 20
-19.6090400698358
 30
0.0
 11
13.11500204468626
 21
-19.73253393431304
 31
0.0
  0
LINE
  5
290
330
70
100
AcDbEntity
  8
Livello 1
370
     9
100
AcDbLine
 10
13.11500204468626
 20
-20.10301552774411
 30
0.0
 11
13.11500204468626
 21
-20.10301552774411
 31
0.0
  0
LINE
  5
291
330
70
100
AcDbEntity
  8
Livello 1
370
     9
100
AcDbLine
 10
13.11500204468626
 20
-20.10301552774411
 30
0.0
 11
13.11500204468626
 21
-20.14418014923673
 31
0.0
  0
LINE
  5
292
330
70
100
AcDbEntity
  8
Livello 1
370
     9
100
AcDbLine
 10
13.11500204468626
 20
-20.14418014923673
 30
0.0
 11
13.07383742319396
 21
-20.14418014923673
 31
0.0
  0
LINE
  5
293
330
70
100
AcDbEntity
  8
Livello 1
370
     9
100
AcDbLine
 10
13.36200024277062
 20
-20.06185090625212
 30
0.0
 11
13.36200024277062
 21
-20.10301552774411
 31
0.0
  0
LINE
  5
294
330
70
100
AcDbEntity
  8
Livello 1
370
     9
100
AcDbLine
 10
13.36200024277062
 20
-20.10301552774411
 30
0.0
 11
13.36200024277062
 21
-20.14418014923673
 31
0.0
  0
LINE
  5
295
330
70
100
AcDbEntity
  8
Livello 1
370
     9
100
AcDbLine
 10
13.36200024277062
 20
-19.65020469132843
 30
0.0
 11
13.36200024277062
 21
-19.65020469132843
 31
0.0
  0
LINE
  5
296
330
70
100
AcDbEntity
  8
Livello 1
370
     9
100
AcDbLine
 10
13.36200024277062
 20
-19.65020469132843
 30
0.0
 11
13.36200024277062
 21
-19.69136931282105
 31
0.0
  0
LINE
  5
297
330
70
100
AcDbEntity
  8
Livello 1
370
     9
100
AcDbLine
 10
13.36200024277062
 20
-19.69136931282105
 30
0.0
 11
13.36200024277062
 21
-19.73253393431304
 31
0.0
  0
LINE
  5
298
330
70
100
AcDbEntity
  8
Livello 1
370
     9
100
AcDbLine
 10
12.86800384660159
 20
-21.95550724794431
 30
0.0
 11
12.82683922510928
 21
-21.95550724794431
 31
0.0
  0
LINE
  5
299
330
70
100
AcDbEntity
  8
Livello 1
370
     9
100
AcDbLine
 10
12.82683922510928
 20
-21.95550724794431
 30
0.0
 11
12.82683922510928
 21
-21.91434262645168
 31
0.0
  0
LINE
  5
29A
330
70
100
AcDbEntity
  8
Livello 1
370
     9
100
AcDbLine
 10
12.82683922510928
 20
-21.91434262645168
 30
0.0
 11
12.82683922510928
 21
-21.87317800495906
 31
0.0
  0
LINE
  5
29B
330
70
100
AcDbEntity
  8
Livello 1
370
     9
100
AcDbLine
 10
12.82683922510928
 20
-21.87317800495906
 30
0.0
 11
12.82683922510928
 21
-21.83201338346707
 31
0.0
  0
LINE
  5
29C
330
70
100
AcDbEntity
  8
Livello 1
370
     9
100
AcDbLine
 10
12.82683922510928
 20
-21.83201338346707
 30
0.0
 11
12.82683922510928
 21
-21.79084876197445
 31
0.0
  0
LINE
  5
29D
330
70
100
AcDbEntity
  8
Livello 1
370
     9
100
AcDbLine
 10
12.82683922510928
 20
-21.79084876197445
 30
0.0
 11
12.82683922510928
 21
-21.74968414048246
 31
0.0
  0
LINE
  5
29E
330
70
100
AcDbEntity
  8
Livello 1
370
     9
100
AcDbLine
 10
13.65016306234761
 20
-21.74968414048246
 30
0.0
 11
13.65016306234761
 21
-21.79084876197445
 31
0.0
  0
LINE
  5
29F
330
70
100
AcDbEntity
  8
Livello 1
370
     9
100
AcDbLine
 10
13.65016306234761
 20
-21.79084876197445
 30
0.0
 11
13.65016306234761
 21
-21.83201338346707
 31
0.0
  0
LINE
  5
2A0
330
70
100
AcDbEntity
  8
Livello 1
370
     9
100
AcDbLine
 10
13.65016306234761
 20
-21.83201338346707
 30
0.0
 11
13.65016306234761
 21
-21.87317800495906
 31
0.0
  0
LINE
  5
2A1
330
70
100
AcDbEntity
  8
Livello 1
370
     9
100
AcDbLine
 10
13.65016306234761
 20
-21.87317800495906
 30
0.0
 11
13.6089984408553
 21
-21.91434262645168
 31
0.0
  0
LINE
  5
2A2
330
70
100
AcDbEntity
  8
Livello 1
370
     9
100
AcDbLine
 10
13.6089984408553
 20
-21.91434262645168
 30
0.0
 11
13.6089984408553
 21
-21.95550724794431
 31
0.0
  0
LINE
  5
2A3
330
70
100
AcDbEntity
  8
Livello 1
370
     9
100
AcDbLine
 10
13.6089984408553
 20
-21.95550724794431
 30
0.0
 11
13.567833819363
 21
-21.95550724794431
 31
0.0
  0
LINE
  5
2A4
330
70
100
AcDbEntity
  8
Livello 1
370
     9
100
AcDbLine
 10
13.03267280170133
 20
-19.73253393431304
 30
0.0
 11
13.07383742319396
 21
-19.6090400698358
 31
0.0
  0
LINE
  5
2A5
330
70
100
AcDbEntity
  8
Livello 1
370
     9
100
AcDbLine
 10
13.07383742319396
 20
-19.6090400698358
 30
0.0
 11
13.07383742319396
 21
-19.40321696237459
 31
0.0
  0
LINE
  5
2A6
330
70
100
AcDbEntity
  8
Livello 1
370
     9
100
AcDbLine
 10
13.07383742319396
 20
-19.40321696237459
 30
0.0
 11
13.07383742319396
 21
-19.36205234088197
 31
0.0
  0
LINE
  5
2A7
330
70
100
AcDbEntity
  8
Livello 1
370
     9
100
AcDbLine
 10
13.07383742319396
 20
-20.14418014923673
 30
0.0
 11
13.07383742319396
 21
-20.14418014923673
 31
0.0
  0
LINE
  5
2A8
330
70
100
AcDbEntity
  8
Livello 1
370
     9
100
AcDbLine
 10
13.07383742319396
 20
-20.14418014923673
 30
0.0
 11
13.07383742319396
 21
-20.10301552774411
 31
0.0
  0
LINE
  5
2A9
330
70
100
AcDbEntity
  8
Livello 1
370
     9
100
AcDbLine
 10
13.27967099978601
 20
-19.89719242028226
 30
0.0
 11
13.27967099978601
 21
-19.89719242028226
 31
0.0
  0
LINE
  5
2AA
330
70
100
AcDbEntity
  8
Livello 1
370
     9
100
AcDbLine
 10
13.27967099978601
 20
-19.89719242028226
 30
0.0
 11
13.27967099978601
 21
-19.85602779879027
 31
0.0
  0
LINE
  5
2AB
330
70
100
AcDbEntity
  8
Livello 1
370
     9
100
AcDbLine
 10
13.27967099978601
 20
-19.85602779879027
 30
0.0
 11
13.32083562127832
 21
-19.81486317729765
 31
0.0
  0
LINE
  5
2AC
330
70
100
AcDbEntity
  8
Livello 1
370
     9
100
AcDbLine
 10
13.32083562127832
 20
-19.81486317729765
 30
0.0
 11
13.32083562127832
 21
-19.77369855580566
 31
0.0
  0
LINE
  5
2AD
330
70
100
AcDbEntity
  8
Livello 1
370
     9
100
AcDbLine
 10
13.32083562127832
 20
-19.77369855580566
 30
0.0
 11
13.27967099978601
 21
-19.77369855580566
 31
0.0
  0
LINE
  5
2AE
330
70
100
AcDbEntity
  8
Livello 1
370
     9
100
AcDbLine
 10
13.27967099978601
 20
-19.77369855580566
 30
0.0
 11
13.27967099978601
 21
-19.73253393431304
 31
0.0
  0
LINE
  5
2AF
330
70
100
AcDbEntity
  8
Livello 1
370
     9
100
AcDbLine
 10
13.19733128767088
 20
-20.14418014923673
 30
0.0
 11
13.19733128767088
 21
-20.14418014923673
 31
0.0
  0
LINE
  5
2B0
330
70
100
AcDbEntity
  8
Livello 1
370
     9
100
AcDbLine
 10
13.19733128767088
 20
-20.14418014923673
 30
0.0
 11
13.19733128767088
 21
-20.10301552774411
 31
0.0
  0
LINE
  5
2B1
330
70
100
AcDbEntity
  8
Livello 1
370
     9
100
AcDbLine
 10
13.19733128767088
 20
-20.10301552774411
 30
0.0
 11
13.19733128767088
 21
-20.06185090625212
 31
0.0
  0
LINE
  5
2B2
330
70
100
AcDbEntity
  8
Livello 1
370
     9
100
AcDbLine
 10
13.19733128767088
 20
-19.73253393431304
 30
0.0
 11
13.19733128767088
 21
-19.69136931282105
 31
0.0
  0
LINE
  5
2B3
330
70
100
AcDbEntity
  8
Livello 1
370
     9
100
AcDbLine
 10
13.19733128767088
 20
-19.69136931282105
 30
0.0
 11
13.19733128767088
 21
-19.65020469132843
 31
0.0
  0
LINE
  5
2B4
330
70
100
AcDbEntity
  8
Livello 1
370
     9
100
AcDbLine
 10
13.23850637829371
 20
-19.56787544834382
 30
0.0
 11
13.23850637829371
 21
-19.52671082685119
 31
0.0
  0
LINE
  5
2B5
330
70
100
AcDbEntity
  8
Livello 1
370
     9
100
AcDbLine
 10
13.23850637829371
 20
-19.52671082685119
 30
0.0
 11
13.23850637829371
 21
-19.48554620535921
 31
0.0
  0
LINE
  5
2B6
330
70
100
AcDbEntity
  8
Livello 1
370
     9
100
AcDbLine
 10
13.23850637829371
 20
-19.48554620535921
 30
0.0
 11
13.23850637829371
 21
-19.44438158386658
 31
0.0
  0
LINE
  5
2B7
330
70
100
AcDbEntity
  8
Livello 1
370
     9
100
AcDbLine
 10
13.23850637829371
 20
-19.44438158386658
 30
0.0
 11
13.23850637829371
 21
-19.40321696237459
 31
0.0
  0
LINE
  5
2B8
330
70
100
AcDbEntity
  8
Livello 1
370
     9
100
AcDbLine
 10
13.23850637829371
 20
-19.40321696237459
 30
0.0
 11
13.27967099978601
 21
-19.40321696237459
 31
0.0
  0
LINE
  5
2B9
330
70
100
AcDbEntity
  8
Livello 1
370
     9
100
AcDbLine
 10
13.32083562127832
 20
-19.56787544834382
 30
0.0
 11
13.32083562127832
 21
-19.52671082685119
 31
0.0
  0
LINE
  5
2BA
330
70
100
AcDbEntity
  8
Livello 1
370
     9
100
AcDbLine
 10
13.32083562127832
 20
-19.52671082685119
 30
0.0
 11
13.32083562127832
 21
-19.48554620535921
 31
0.0
  0
LINE
  5
2BB
330
70
100
AcDbEntity
  8
Livello 1
370
     9
100
AcDbLine
 10
13.32083562127832
 20
-19.48554620535921
 30
0.0
 11
13.32083562127832
 21
-19.44438158386658
 31
0.0
  0
LINE
  5
2BC
330
70
100
AcDbEntity
  8
Livello 1
370
     9
100
AcDbLine
 10
13.32083562127832
 20
-19.44438158386658
 30
0.0
 11
13.27967099978601
 21
-19.44438158386658
 31
0.0
  0
LINE
  5
2BD
330
70
100
AcDbEntity
  8
Livello 1
370
     9
100
AcDbLine
 10
13.32083562127832
 20
-19.89719242028226
 30
0.0
 11
13.32083562127832
 21
-19.89719242028226
 31
0.0
  0
LINE
  5
2BE
330
70
100
AcDbEntity
  8
Livello 1
370
     9
100
AcDbLine
 10
13.32083562127832
 20
-19.89719242028226
 30
0.0
 11
13.32083562127832
 21
-19.85602779879027
 31
0.0
  0
LINE
  5
2BF
330
70
100
AcDbEntity
  8
Livello 1
370
     9
100
AcDbLine
 10
13.32083562127832
 20
-19.85602779879027
 30
0.0
 11
13.36200024277062
 21
-19.85602779879027
 31
0.0
  0
LINE
  5
2C0
330
70
100
AcDbEntity
  8
Livello 1
370
     9
100
AcDbLine
 10
13.36200024277062
 20
-19.85602779879027
 30
0.0
 11
13.36200024277062
 21
-19.81486317729765
 31
0.0
  0
LINE
  5
2C1
330
70
100
AcDbEntity
  8
Livello 1
370
     9
100
AcDbLine
 10
13.36200024277062
 20
-19.81486317729765
 30
0.0
 11
13.36200024277062
 21
-19.77369855580566
 31
0.0
  0
LINE
  5
2C2
330
70
100
AcDbEntity
  8
Livello 1
370
     9
100
AcDbLine
 10
13.36200024277062
 20
-19.77369855580566
 30
0.0
 11
13.32083562127832
 21
-19.77369855580566
 31
0.0
  0
LINE
  5
2C3
330
70
100
AcDbEntity
  8
Livello 1
370
     9
100
AcDbLine
 10
13.32083562127832
 20
-19.77369855580566
 30
0.0
 11
13.32083562127832
 21
-19.73253393431304
 31
0.0
  0
LINE
  5
2C4
330
70
100
AcDbEntity
  8
Livello 1
370
     9
100
AcDbLine
 10
13.27967099978601
 20
-19.44438158386658
 30
0.0
 11
13.27967099978601
 21
-19.40321696237459
 31
0.0
  0
LINE
  5
2C5
330
70
100
AcDbEntity
  8
Livello 1
370
     9
100
AcDbLine
 10
13.27967099978601
 20
-19.40321696237459
 30
0.0
 11
13.32083562127832
 21
-19.40321696237459
 31
0.0
  0
LINE
  5
2C6
330
70
100
AcDbEntity
  8
Livello 1
370
     9
100
AcDbLine
 10
13.23850637829371
 20
-19.73253393431304
 30
0.0
 11
13.23850637829371
 21
-19.69136931282105
 31
0.0
  0
LINE
  5
2C7
330
70
100
AcDbEntity
  8
Livello 1
370
     9
100
AcDbLine
 10
13.23850637829371
 20
-19.69136931282105
 30
0.0
 11
13.23850637829371
 21
-19.65020469132843
 31
0.0
  0
LINE
  5
2C8
330
70
100
AcDbEntity
  8
Livello 1
370
     9
100
AcDbLine
 10
13.23850637829371
 20
-20.14418014923673
 30
0.0
 11
13.23850637829371
 21
-20.14418014923673
 31
0.0
  0
LINE
  5
2C9
330
70
100
AcDbEntity
  8
Livello 1
370
     9
100
AcDbLine
 10
13.23850637829371
 20
-20.14418014923673
 30
0.0
 11
13.23850637829371
 21
-20.10301552774411
 31
0.0
  0
LINE
  5
2CA
330
70
100
AcDbEntity
  8
Livello 1
370
     9
100
AcDbLine
 10
13.23850637829371
 20
-20.10301552774411
 30
0.0
 11
13.23850637829371
 21
-20.06185090625212
 31
0.0
  0
LINE
  5
2D2
330
70
100
AcDbEntity
  8
0
100
AcDbLine
 10
12.25051358595531
 20
-27.55246026275607
 30
0.0
 11
82.60369931987808
 21
-27.55246026275606
 31
0.0
  0
LINE
  5
2D3
330
70
100
AcDbEntity
  8
0
100
AcDbLine
 10
5.232901998169458
 20
-14.95722845859059
 30
0.0
 11
5.232901998169459
 21
-22.57301844685132
 31
0.0
  0
MTEXT
  5
2D5
330
70
100
AcDbEntity
  8
0
100
AcDbMText
 10
43.65489704015738
 20
-29.87717349767823
 30
0.0
 40
2.0
 41
194.683498742431
 46
0.0
 71
     1
 72
     5
  1
220
 73
     1
 44
1.0
1001
ACAD
1000
ACAD_MTEXT_COLUMN_INFO_BEGIN
1070
    75
1070
     2
1070
    79
1070
     0
1070
    76
1070
     1
1070
    78
1070
     0
1070
    48
1040
194.683498742431
1070
    49
1040
10.0
1070
    50
1070
     1
1040
0.0
1000
ACAD_MTEXT_COLUMN_INFO_END
  0
LINE
  5
2D6
330
70
100
AcDbEntity
  8
0
100
AcDbLine
 10
89.36707996098936
 20
-27.55246026275606
 30
0.0
 11
93.2522299380119
 21
-24.16840826934401
 31
0.0
  0
MTEXT
  5
2DF
330
70
100
AcDbEntity
  8
0
100
AcDbMText
 10
93.01310354427755
 20
-25.76947746097201
 30
0.0
 40
2.0
 41
194.683498742431
 46
0.0
 71
     1
 72
     5
  1
220
 73
     1
 44
1.0
1001
ACAD
1000
ACAD_MTEXT_COLUMN_INFO_BEGIN
1070
    75
1070
     2
1070
    79
1070
     0
1070
    76
1070
     1
1070
    78
1070
     0
1070
    48
1040
194.683498742431
1070
    49
1040
10.0
1070
    50
1070
     1
1040
0.0
1000
ACAD_MTEXT_COLUMN_INFO_END
  0
MTEXT
  5
2E7
330
70
100
AcDbEntity
  8
0
100
AcDbMText
 10
1.960606648525107
 20
-17.91332294036397
 30
0.0
 40
2.0
 41
194.683498742431
 46
0.0
 71
     1
 72
     5
  1
18
 73
     1
 44
1.0
1001
ACAD
1000
ACAD_MTEXT_COLUMN_INFO_BEGIN
1070
    75
1070
     2
1070
    79
1070
     0
1070
    76
1070
     1
1070
    78
1070
     0
1070
    48
1040
194.683498742431
1070
    49
1040
10.0
1070
    50
1070
     1
1040
0.0
1000
ACAD_MTEXT_COLUMN_INFO_END
  0
ENDSEC
  0
SECTION
  2
OBJECTS
  0
DICTIONARY
  5
C
330
0
100
AcDbDictionary
281
     1
  3
ACAD_CIP_PREVIOUS_PRODUCT_INFO
350
1F9
  3
ACAD_COLOR
350
63
  3
ACAD_DETAILVIEWSTYLE
350
6A
  3
ACAD_GROUP
350
D
  3
ACAD_LAYOUT
350
62
  3
ACAD_MATERIAL
350
10
  3
ACAD_MLEADERSTYLE
350
66
  3
ACAD_MLINESTYLE
350
5F
  3
ACAD_PLOTSETTINGS
350
61
  3
ACAD_PLOTSTYLENAME
350
E
  3
ACAD_SCALELIST
350
42
  3
ACAD_SECTIONVIEWSTYLE
350
68
  3
ACAD_TABLESTYLE
350
64
  3
ACAD_VISUALSTYLE
350
29
  3
ACDB_RECOMPOSE_DATA
350
2F8
  3
AcDbVariableDictionary
350
1EF
  0
DICTIONARY
  5
1FA
330
70
100
AcDbDictionary
280
     1
281
     1
  3
ACAD_SORTENTS
360
1FB
  0
XRECORD
  5
1F9
102
{ACAD_REACTORS
330
C
102
}
330
C
100
AcDbXrecord
280
     1
300
ACD
300
2022
300

  0
DICTIONARY
  5
63
102
{ACAD_REACTORS
330
C
102
}
330
C
100
AcDbDictionary
281
     1
  0
DICTIONARY
  5
6A
102
{ACAD_REACTORS
330
C
102
}
330
C
100
AcDbDictionary
281
     1
  3
Imperial24
350
6B
  0
DICTIONARY
  5
D
102
{ACAD_REACTORS
330
C
102
}
330
C
100
AcDbDictionary
281
     1
  0
DICTIONARY
  5
62
102
{ACAD_REACTORS
330
C
102
}
330
C
100
AcDbDictionary
281
     1
  3
Layout1
350
6F
  3
Layout2
350
77
  3
Model
350
73
  0
DICTIONARY
  5
10
102
{ACAD_REACTORS
330
C
102
}
330
C
100
AcDbDictionary
281
     1
  3
ByBlock
350
19
  3
ByLayer
350
11
  3
Global
350
21
  0
DICTIONARY
  5
66
102
{ACAD_REACTORS
330
C
102
}
330
C
100
AcDbDictionary
281
     1
  3
Standard
350
67
  0
DICTIONARY
  5
5F
102
{ACAD_REACTORS
330
C
102
}
330
C
100
AcDbDictionary
281
     1
  3
Standard
350
60
  0
DICTIONARY
  5
61
102
{ACAD_REACTORS
330
C
102
}
330
C
100
AcDbDictionary
281
     1
  0
ACDBDICTIONARYWDFLT
  5
E
102
{ACAD_REACTORS
330
C
102
}
330
C
100
AcDbDictionary
281
     1
  3
Normal
350
F
100
AcDbDictionaryWithDefault
340
F
  0
DICTIONARY
  5
42
102
{ACAD_REACTORS
330
C
102
}
330
C
100
AcDbDictionary
281
     1
  3
A0
350
43
  3
A1
350
44
  3
A2
350
45
  3
A3
350
46
  3
A4
350
47
  3
A5
350
48
  3
A6
350
49
  3
A7
350
4A
  3
A8
350
4B
  3
A9
350
4C
  3
B0
350
4D
  3
B1
350
4E
  3
B2
350
4F
  3
B3
350
50
  3
B4
350
51
  3
B5
350
52
  3
B6
350
53
  0
DICTIONARY
  5
68
102
{ACAD_REACTORS
330
C
102
}
330
C
100
AcDbDictionary
281
     1
  3
Imperial24
350
69
  0
DICTIONARY
  5
64
102
{ACAD_REACTORS
330
C
102
}
330
C
100
AcDbDictionary
281
     1
  3
Standard
350
65
  0
DICTIONARY
  5
29
102
{ACAD_REACTORS
330
C
102
}
330
C
100
AcDbDictionary
281
     1
  3
2dWireframe
350
2F
  3
Basic
350
2E
  3
Brighten
350
35
  3
ColorChange
350
39
  3
Conceptual
350
32
  3
Dim
350
34
  3
EdgeColorOff
350
41
  3
Facepattern
350
38
  3
Flat
350
2A
  3
FlatWithEdges
350
2B
  3
Gouraud
350
2C
  3
GouraudWithEdges
350
2D
  3
Hidden
350
31
  3
JitterOff
350
3F
  3
Linepattern
350
37
  3
OverhangOff
350
40
  3
Realistic
350
33
  3
Shaded
350
3E
  3
Shaded with edges
350
3D
  3
Shades of Gray
350
3A
  3
Sketchy
350
3B
  3
Thicken
350
36
  3
Wireframe
350
30
  3
X-Ray
350
3C
  0
XRECORD
  5
2F8
102
{ACAD_REACTORS
330
C
102
}
330
C
100
AcDbXrecord
280
     1
 90
        1
330
65
330
2D5
330
2DF
330
2E7
  0
DICTIONARY
  5
1EF
102
{ACAD_REACTORS
330
C
102
}
330
C
100
AcDbDictionary
281
     1
  3
CANNOSCALE
350
1F4
  3
CMLEADERSTYLE
350
1F1
  3
CTABLESTYLE
350
1F0
  3
CVIEWDETAILSTYLE
350
1F2
  3
CVIEWSECTIONSTYLE
350
1F3
  0
SORTENTSTABLE
  5
1FB
102
{ACAD_REACTORS
330
1FA
102
}
330
1FA
100
AcDbSortentsTable
330
70
331
84
  5
86
331
85
  5
87
331
86
  5
88
331
87
  5
89
331
88
  5
8A
331
89
  5
8B
331
8A
  5
8C
331
8B
  5
8D
331
8C
  5
8E
331
8D
  5
8F
331
8E
  5
90
331
8F
  5
91
331
90
  5
92
331
91
  5
93
331
92
  5
94
331
93
  5
95
331
94
  5
96
331
95
  5
97
331
96
  5
98
331
97
  5
99
331
98
  5
9A
331
99
  5
9B
331
9A
  5
9C
331
9B
  5
9D
331
9C
  5
9E
331
9D
  5
9F
331
9E
  5
A0
331
9F
  5
A1
331
A0
  5
A2
331
A1
  5
A3
331
A2
  5
A4
331
A3
  5
A5
331
A4
  5
A6
331
A5
  5
A7
331
A6
  5
A8
331
A7
  5
A9
331
A8
  5
AA
331
A9
  5
AB
331
AA
  5
AC
331
AB
  5
AD
331
AC
  5
AE
331
AD
  5
AF
331
AE
  5
B0
331
AF
  5
B2
331
B0
  5
B3
331
B2
  5
B8
331
B3
  5
B9
331
B5
  5
BC
331
B6
  5
BD
331
B7
  5
BE
331
B8
  5
BF
331
B9
  5
C1
331
BA
  5
C2
331
BB
  5
C3
331
BC
  5
C4
331
BD
  5
C5
331
BE
  5
C6
331
BF
  5
C7
331
C1
  5
CB
331
C2
  5
CC
331
C3
  5
CD
331
C4
  5
CE
331
C5
  5
CF
331
C6
  5
D0
331
C7
  5
D1
331
C8
  5
D2
331
C9
  5
D3
331
CA
  5
D4
331
CB
  5
D5
331
CC
  5
D6
331
CD
  5
D7
331
CE
  5
D8
331
CF
  5
D9
331
D0
  5
DA
331
D1
  5
DB
331
D2
  5
DC
331
D3
  5
DD
331
D4
  5
DE
331
D5
  5
DF
331
D6
  5
E0
331
D7
  5
E1
331
D8
  5
E2
331
D9
  5
E4
331
DA
  5
E5
331
DB
  5
E6
331
DC
  5
E7
331
DD
  5
E8
331
DE
  5
E9
331
DF
  5
EA
331
E0
  5
EB
331
E1
  5
EC
331
E2
  5
EF
331
E4
  5
F5
331
E5
  5
F6
331
E6
  5
F7
331
E7
  5
F8
331
E8
  5
F9
331
E9
  5
FA
331
EA
  5
FB
331
EB
  5
FC
331
EC
  5
FD
331
EF
  5
102
331
F3
  5
10A
331
F4
  5
10B
331
F5
  5
10C
331
F6
  5
10D
331
F7
  5
10E
331
F8
  5
10F
331
F9
  5
113
331
FA
  5
114
331
FB
  5
115
331
FC
  5
116
331
FD
  5
117
331
FE
  5
118
331
FF
  5
119
331
100
  5
11A
331
101
  5
11B
331
102
  5
11C
331
103
  5
11D
331
104
  5
11E
331
106
  5
121
331
107
  5
122
331
108
  5
123
331
109
  5
124
331
10A
  5
125
331
10B
  5
126
331
10C
  5
127
331
10D
  5
128
331
10E
  5
129
331
10F
  5
12D
331
113
  5
13E
331
114
  5
143
331
115
  5
144
331
116
  5
14A
331
117
  5
14C
331
118
  5
14D
331
119
  5
14E
331
11A
  5
14F
331
11B
  5
150
331
11C
  5
151
331
11D
  5
152
331
11E
  5
153
331
11F
  5
154
331
120
  5
155
331
121
  5
156
331
122
  5
157
331
123
  5
158
331
124
  5
159
331
125
  5
15A
331
126
  5
15B
331
127
  5
15C
331
128
  5
15E
331
129
  5
161
331
12D
  5
169
331
12E
  5
16A
331
12F
  5
16B
331
130
  5
16C
331
134
  5
17B
331
135
  5
17C
331
136
  5
17D
331
137
  5
17E
331
138
  5
17F
331
139
  5
180
331
13A
  5
181
331
13B
  5
182
331
13C
  5
183
331
13E
  5
188
331
143
  5
197
331
144
  5
198
331
14A
  5
202
331
14C
  5
205
331
14D
  5
206
331
14E
  5
207
331
14F
  5
208
331
150
  5
209
331
151
  5
20A
331
152
  5
20B
331
153
  5
20C
331
154
  5
20D
331
155
  5
20E
331
156
  5
20F
331
157
  5
210
331
158
  5
211
331
159
  5
212
331
15A
  5
213
331
15B
  5
214
331
15C
  5
215
331
15E
  5
21D
331
161
  5
223
331
162
  5
224
331
163
  5
225
331
164
  5
226
331
165
  5
227
331
167
  5
22B
331
168
  5
22C
331
169
  5
22D
331
16A
  5
22E
331
16B
  5
22F
331
16C
  5
230
331
16D
  5
231
331
16E
  5
232
331
16F
  5
233
331
170
  5
234
331
171
  5
235
331
172
  5
236
331
173
  5
237
331
174
  5
238
331
175
  5
239
331
177
  5
23C
331
178
  5
23D
331
179
  5
23E
331
17A
  5
23F
331
17B
  5
240
331
17C
  5
241
331
17D
  5
242
331
17E
  5
243
331
17F
  5
244
331
180
  5
245
331
181
  5
246
331
182
  5
247
331
183
  5
248
331
184
  5
249
331
185
  5
24A
331
188
  5
257
331
189
  5
258
331
18A
  5
259
331
18B
  5
25A
331
18C
  5
25B
331
18D
  5
25C
331
18F
  5
25F
331
190
  5
260
331
191
  5
261
331
193
  5
264
331
194
  5
265
331
195
  5
266
331
196
  5
267
331
197
  5
268
331
198
  5
269
331
199
  5
26A
331
1A1
  5
286
331
1A2
  5
287
331
1AA
  5
2A2
331
1AC
  5
2A5
331
1AE
  5
2AC
331
1B1
  5
2B2
331
1B5
  5
2C3
331
1FC
  5
84
331
1FD
  5
85
331
1FE
  5
B5
331
1FF
  5
B6
331
200
  5
B7
331
201
  5
BA
331
202
  5
BB
331
203
  5
C8
331
204
  5
C9
331
205
  5
CA
331
206
  5
F3
331
207
  5
F4
331
208
  5
FE
331
209
  5
FF
331
20A
  5
100
331
20B
  5
101
331
20C
  5
103
331
20D
  5
104
331
20E
  5
106
331
20F
  5
107
331
210
  5
108
331
211
  5
109
331
212
  5
11F
331
213
  5
120
331
214
  5
12E
331
215
  5
12F
331
216
  5
130
331
217
  5
134
331
218
  5
135
331
219
  5
136
331
21A
  5
137
331
21B
  5
138
331
21C
  5
139
331
21D
  5
13A
331
21E
  5
13B
331
21F
  5
13C
331
220
  5
162
331
221
  5
163
331
222
  5
164
331
223
  5
165
331
224
  5
167
331
225
  5
168
331
226
  5
16D
331
227
  5
16E
331
228
  5
16F
331
229
  5
170
331
22A
  5
171
331
22B
  5
172
331
22C
  5
173
331
22D
  5
174
331
22E
  5
175
331
22F
  5
177
331
230
  5
178
331
231
  5
179
331
232
  5
17A
331
233
  5
184
331
234
  5
185
331
235
  5
189
331
236
  5
18A
331
237
  5
18B
331
238
  5
18C
331
239
  5
18D
331
23A
  5
18F
331
23B
  5
190
331
23C
  5
191
331
23D
  5
193
331
23E
  5
194
331
23F
  5
195
331
240
  5
196
331
241
  5
199
331
242
  5
1A1
331
243
  5
1A2
331
244
  5
1AA
331
245
  5
1AC
331
246
  5
1AE
331
247
  5
1B1
331
248
  5
1B5
331
249
  5
1FC
331
24A
  5
1FD
331
24B
  5
1FE
331
24C
  5
1FF
331
24D
  5
200
331
24E
  5
201
331
24F
  5
203
331
250
  5
204
331
251
  5
216
331
252
  5
217
331
253
  5
218
331
254
  5
219
331
255
  5
21A
331
256
  5
21B
331
257
  5
21C
331
258
  5
21E
331
259
  5
21F
331
25A
  5
220
331
25B
  5
221
331
25C
  5
222
331
25D
  5
228
331
25E
  5
229
331
25F
  5
22A
331
260
  5
23A
331
261
  5
23B
331
262
  5
24B
331
263
  5
24C
331
264
  5
24D
331
265
  5
24E
331
266
  5
24F
331
267
  5
250
331
268
  5
251
331
269
  5
252
331
26A
  5
253
331
26B
  5
254
331
26C
  5
255
331
26D
  5
256
331
26E
  5
25D
331
26F
  5
25E
331
270
  5
262
331
271
  5
263
331
272
  5
26B
331
273
  5
26C
331
274
  5
26D
331
275
  5
26E
331
276
  5
26F
331
277
  5
270
331
278
  5
271
331
279
  5
272
331
27A
  5
273
331
27B
  5
274
331
27C
  5
275
331
27D
  5
276
331
27E
  5
277
331
27F
  5
278
331
280
  5
279
331
281
  5
27A
331
282
  5
27B
331
283
  5
27C
331
284
  5
27D
331
285
  5
27E
331
286
  5
27F
331
287
  5
280
331
288
  5
281
331
289
  5
282
331
28A
  5
283
331
28B
  5
284
331
28C
  5
285
331
28D
  5
288
331
28E
  5
289
331
28F
  5
28A
331
290
  5
28B
331
291
  5
28C
331
292
  5
28D
331
293
  5
28E
331
294
  5
28F
331
295
  5
290
331
296
  5
291
331
297
  5
292
331
298
  5
293
331
299
  5
294
331
29A
  5
295
331
29B
  5
296
331
29C
  5
297
331
29D
  5
298
331
29E
  5
299
331
29F
  5
29A
331
2A0
  5
29B
331
2A1
  5
29C
331
2A2
  5
29D
331
2A3
  5
29E
331
2A4
  5
29F
331
2A5
  5
2A0
331
2A6
  5
2A1
331
2A7
  5
2A3
331
2A8
  5
2A4
331
2A9
  5
2A6
331
2AA
  5
2A7
331
2AB
  5
2A8
331
2AC
  5
2A9
331
2AD
  5
2AA
331
2AE
  5
2AB
331
2AF
  5
2AD
331
2B0
  5
2AE
331
2B1
  5
2AF
331
2B2
  5
2B0
331
2B3
  5
2B1
331
2B4
  5
2B3
331
2B5
  5
2B4
331
2B6
  5
2B5
331
2B7
  5
2B6
331
2B8
  5
2B7
331
2B9
  5
2B8
331
2BA
  5
2B9
331
2BB
  5
2BA
331
2BC
  5
2BB
331
2BD
  5
2BC
331
2BE
  5
2BD
331
2BF
  5
2BE
331
2C0
  5
2BF
331
2C1
  5
2C0
331
2C2
  5
2C1
331
2C3
  5
2C2
  0
ACDBDETAILVIEWSTYLE
  5
6B
102
{ACAD_XDICTIONARY
360
2FB
102
}
102
{ACAD_REACTORS
330
6A
102
}
330
6A
100
AcDbModelDocViewStyle
 70
     0
  3
Imperial24
290
     0
100
AcDbDetailViewStyle
 70
     0
 71
     0
 90
        3
 71
     1
340
55
 62
   256
 40
0.24
340
0
 62
   256
 40
0.24
300

 40
0.36
280
     3
 71
     2
340
5D
 90
       25
 62
   256
 71
     3
340
55
 62
   256
 40
0.24
 90
        1
 40
0.75
 90
        1
300
%<\AcVar ViewType \f "%tc1">% %<\AcVar ViewDetailId>%\PSCALE %<\AcVar ViewScale \f "%sn">%
 71
     4
340
5D
 90
       25
 62
   256
340
5D
 90
       25
 62
   256
280
     0
  0
LAYOUT
  5
6F
102
{ACAD_REACTORS
330
62
102
}
330
62
100
AcDbPlotSettings
  1

  2

  4

  6

 40
0.0
 41
0.0
 42
0.0
 43
0.0
 44
0.0
 45
0.0
 46
0.0
 47
0.0
 48
0.0
 49
0.0
140
0.0
141
0.0
142
1.0
143
1.0
 70
   688
 72
     0
 73
     0
 74
     5
  7

 75
    16
147
1.0
 76
     0
 77
     2
 78
   300
148
0.0
149
0.0
100
AcDbLayout
  1
Layout1
 70
     1
 71
     1
 10
0.0
 20
0.0
 11
12.0
 21
9.0
 12
0.0
 22
0.0
 32
0.0
 14
1.000000000000000E+20
 24
1.000000000000000E+20
 34
1.000000000000000E+20
 15
-1.000000000000000E+20
 25
-1.000000000000000E+20
 35
-1.000000000000000E+20
146
0.0
 13
0.0
 23
0.0
 33
0.0
 16
1.0
 26
0.0
 36
0.0
 17
0.0
 27
1.0
 37
0.0
 76
     0
330
6C
  0
LAYOUT
  5
77
102
{ACAD_REACTORS
330
62
102
}
330
62
100
AcDbPlotSettings
  1

  2

  4

  6

 40
0.0
 41
0.0
 42
0.0
 43
0.0
 44
0.0
 45
0.0
 46
0.0
 47
0.0
 48
0.0
 49
0.0
140
0.0
141
0.0
142
1.0
143
1.0
 70
   688
 72
     0
 73
     0
 74
     5
  7

 75
    16
147
1.0
 76
     0
 77
     2
 78
   300
148
0.0
149
0.0
100
AcDbLayout
  1
Layout2
 70
     1
 71
     2
 10
0.0
 20
0.0
 11
12.0
 21
9.0
 12
0.0
 22
0.0
 32
0.0
 14
0.0
 24
0.0
 34
0.0
 15
0.0
 25
0.0
 35
0.0
146
0.0
 13
0.0
 23
0.0
 33
0.0
 16
1.0
 26
0.0
 36
0.0
 17
0.0
 27
1.0
 37
0.0
 76
     0
330
74
  0
LAYOUT
  5
73
102
{ACAD_REACTORS
330
62
102
}
330
62
100
AcDbPlotSettings
  1

  2

  4

  6

 40
0.0
 41
0.0
 42
0.0
 43
0.0
 44
0.0
 45
0.0
 46
0.0
 47
0.0
 48
0.0
 49
0.0
140
0.0
141
0.0
142
1.0
143
1.0
 70
  1712
 72
     0
 73
     0
 74
     0
  7

 75
     0
147
1.0
 76
     0
 77
     2
 78
   300
148
0.0
149
0.0
100
AcDbLayout
  1
Model
 70
     1
 71
     0
 10
0.0
 20
0.0
 11
12.0
 21
9.0
 12
0.0
 22
0.0
 32
0.0
 14
0.0
 24
0.0
 34
0.0
 15
0.0
 25
0.0
 35
0.0
146
0.0
 13
0.0
 23
0.0
 33
0.0
 16
1.0
 26
0.0
 36
0.0
 17
0.0
 27
1.0
 37
0.0
 76
     0
330
70
331
57
  0
MATERIAL
  5
19
102
{ACAD_XDICTIONARY
360
1A
102
}
102
{ACAD_REACTORS
330
10
102
}
330
10
100
AcDbMaterial
  1
ByBlock
 72
     0
 43
0.0208333333333333
 43
0.0
 43
0.0
 43
0.0
 43
0.0
 43
0.0208333333333333
 43
0.0
 43
0.0
 43
0.0
 43
0.0
 43
1.0
 43
0.0
 43
0.0
 43
0.0
 43
0.0
 43
1.0
 77
     0
 47
0.0208333333333333
 47
0.0
 47
0.0
 47
0.0
 47
0.0
 47
0.0208333333333333
 47
0.0
 47
0.0
 47
0.0
 47
0.0
 47
1.0
 47
0.0
 47
0.0
 47
0.0
 47
0.0
 47
1.0
171
     0
 49
0.0208333333333333
 49
0.0
 49
0.0
 49
0.0
 49
0.0
 49
0.0208333333333333
 49
0.0
 49
0.0
 49
0.0
 49
0.0
 49
1.0
 49
0.0
 49
0.0
 49
0.0
 49
0.0
 49
1.0
175
     0
142
0.0208333333333333
142
0.0
142
0.0
142
0.0
142
0.0
142
0.0208333333333333
142
0.0
142
0.0
142
0.0
142
0.0
142
1.0
142
0.0
142
0.0
142
0.0
142
0.0
142
1.0
179
     0
144
0.0208333333333333
144
0.0
144
0.0
144
0.0
144
0.0
144
0.0208333333333333
144
0.0
144
0.0
144
0.0
144
0.0
144
1.0
144
0.0
144
0.0
144
0.0
144
0.0
144
1.0
147
0.0208333333333333
147
0.0
147
0.0
147
0.0
147
0.0
147
0.0208333333333333
147
0.0
147
0.0
147
0.0
147
0.0
147
1.0
147
0.0
147
0.0
147
0.0
147
0.0
147
1.0
  0
MATERIAL
  5
11
102
{ACAD_XDICTIONARY
360
12
102
}
102
{ACAD_REACTORS
330
10
102
}
330
10
100
AcDbMaterial
  1
ByLayer
 72
     0
 43
0.0208333333333333
 43
0.0
 43
0.0
 43
0.0
 43
0.0
 43
0.0208333333333333
 43
0.0
 43
0.0
 43
0.0
 43
0.0
 43
1.0
 43
0.0
 43
0.0
 43
0.0
 43
0.0
 43
1.0
 77
     0
 47
0.0208333333333333
 47
0.0
 47
0.0
 47
0.0
 47
0.0
 47
0.0208333333333333
 47
0.0
 47
0.0
 47
0.0
 47
0.0
 47
1.0
 47
0.0
 47
0.0
 47
0.0
 47
0.0
 47
1.0
171
     0
 49
0.0208333333333333
 49
0.0
 49
0.0
 49
0.0
 49
0.0
 49
0.0208333333333333
 49
0.0
 49
0.0
 49
0.0
 49
0.0
 49
1.0
 49
0.0
 49
0.0
 49
0.0
 49
0.0
 49
1.0
175
     0
142
0.0208333333333333
142
0.0
142
0.0
142
0.0
142
0.0
142
0.0208333333333333
142
0.0
142
0.0
142
0.0
142
0.0
142
1.0
142
0.0
142
0.0
142
0.0
142
0.0
142
1.0
179
     0
144
0.0208333333333333
144
0.0
144
0.0
144
0.0
144
0.0
144
0.0208333333333333
144
0.0
144
0.0
144
0.0
144
0.0
144
1.0
144
0.0
144
0.0
144
0.0
144
0.0
144
1.0
147
0.0208333333333333
147
0.0
147
0.0
147
0.0
147
0.0
147
0.0208333333333333
147
0.0
147
0.0
147
0.0
147
0.0
147
1.0
147
0.0
147
0.0
147
0.0
147
0.0
147
1.0
  0
MATERIAL
  5
21
102
{ACAD_XDICTIONARY
360
22
102
}
102
{ACAD_REACTORS
330
10
102
}
330
10
100
AcDbMaterial
  1
Global
 72
     0
 43
0.0208333333333333
 43
0.0
 43
0.0
 43
0.0
 43
0.0
 43
0.0208333333333333
 43
0.0
 43
0.0
 43
0.0
 43
0.0
 43
1.0
 43
0.0
 43
0.0
 43
0.0
 43
0.0
 43
1.0
 77
     0
 47
0.0208333333333333
 47
0.0
 47
0.0
 47
0.0
 47
0.0
 47
0.0208333333333333
 47
0.0
 47
0.0
 47
0.0
 47
0.0
 47
1.0
 47
0.0
 47
0.0
 47
0.0
 47
0.0
 47
1.0
171
     0
 49
0.0208333333333333
 49
0.0
 49
0.0
 49
0.0
 49
0.0
 49
0.0208333333333333
 49
0.0
 49
0.0
 49
0.0
 49
0.0
 49
1.0
 49
0.0
 49
0.0
 49
0.0
 49
0.0
 49
1.0
175
     0
142
0.0208333333333333
142
0.0
142
0.0
142
0.0
142
0.0
142
0.0208333333333333
142
0.0
142
0.0
142
0.0
142
0.0
142
1.0
142
0.0
142
0.0
142
0.0
142
0.0
142
1.0
179
     0
144
0.0208333333333333
144
0.0
144
0.0
144
0.0
144
0.0
144
0.0208333333333333
144
0.0
144
0.0
144
0.0
144
0.0
144
1.0
144
0.0
144
0.0
144
0.0
144
0.0
144
1.0
147
0.0208333333333333
147
0.0
147
0.0
147
0.0
147
0.0
147
0.0208333333333333
147
0.0
147
0.0
147
0.0
147
0.0
147
1.0
147
0.0
147
0.0
147
0.0
147
0.0
147
1.0
  0
MLEADERSTYLE
  5
67
102
{ACAD_REACTORS
330
66
102
}
330
66
100
AcDbMLeaderStyle
179
     2
170
     2
171
     1
172
     0
 90
        2
 40
0.0
 41
0.0
173
     1
 91
-1056964608
340
5B
 92
       -2
290
     1
 42
0.09
291
     1
 43
0.36
  3
Standard
 44
0.18
300

342
55
174
     1
178
     6
175
     1
176
     0
 93
-1056964608
 45
0.18
292
     0
297
     0
 46
0.18
 94
-1056964608
 47
1.0
 49
1.0
140
1.0
293
     1
141
0.0
294
     1
177
     0
142
1.0
295
     0
296
     0
143
0.125
271
     0
272
     9
273
     9
298
     1
  0
MLINESTYLE
  5
60
102
{ACAD_REACTORS
330
5F
102
}
330
5F
100
AcDbMlineStyle
  2
STANDARD
 70
     0
  3

 62
   256
 51
90.0
 52
90.0
 71
     2
 49
0.5
 62
   256
  6
BYLAYER
 49
-0.5
 62
   256
  6
BYLAYER
  0
ACDBPLACEHOLDER
  5
F
102
{ACAD_REACTORS
330
E
102
}
330
E
  0
SCALE
  5
43
102
{ACAD_REACTORS
330
42
102
}
330
42
100
AcDbScale
 70
     0
300
1:1
140
1.0
141
1.0
290
     1
  0
SCALE
  5
44
102
{ACAD_REACTORS
330
42
102
}
330
42
100
AcDbScale
 70
     0
300
1/128" = 1'-0"
140
0.0078125
141
12.0
290
     0
  0
SCALE
  5
45
102
{ACAD_REACTORS
330
42
102
}
330
42
100
AcDbScale
 70
     0
300
1/64" = 1'-0"
140
0.015625
141
12.0
290
     0
  0
SCALE
  5
46
102
{ACAD_REACTORS
330
42
102
}
330
42
100
AcDbScale
 70
     0
300
1/32" = 1'-0"
140
0.03125
141
12.0
290
     0
  0
SCALE
  5
47
102
{ACAD_REACTORS
330
42
102
}
330
42
100
AcDbScale
 70
     0
300
1/16" = 1'-0"
140
0.0625
141
12.0
290
     0
  0
SCALE
  5
48
102
{ACAD_REACTORS
330
42
102
}
330
42
100
AcDbScale
 70
     0
300
3/32" = 1'-0"
140
0.09375
141
12.0
290
     0
  0
SCALE
  5
49
102
{ACAD_REACTORS
330
42
102
}
330
42
100
AcDbScale
 70
     0
300
1/8" = 1'-0"
140
0.125
141
12.0
290
     0
  0
SCALE
  5
4A
102
{ACAD_REACTORS
330
42
102
}
330
42
100
AcDbScale
 70
     0
300
3/16" = 1'-0"
140
0.1875
141
12.0
290
     0
  0
SCALE
  5
4B
102
{ACAD_REACTORS
330
42
102
}
330
42
100
AcDbScale
 70
     0
300
1/4" = 1'-0"
140
0.25
141
12.0
290
     0
  0
SCALE
  5
4C
102
{ACAD_REACTORS
330
42
102
}
330
42
100
AcDbScale
 70
     0
300
3/8" = 1'-0"
140
0.375
141
12.0
290
     0
  0
SCALE
  5
4D
102
{ACAD_REACTORS
330
42
102
}
330
42
100
AcDbScale
 70
     0
300
1/2" = 1'-0"
140
0.5
141
12.0
290
     0
  0
SCALE
  5
4E
102
{ACAD_REACTORS
330
42
102
}
330
42
100
AcDbScale
 70
     0
300
3/4" = 1'-0"
140
0.75
141
12.0
290
     0
  0
SCALE
  5
4F
102
{ACAD_REACTORS
330
42
102
}
330
42
100
AcDbScale
 70
     0
300
1" = 1'-0"
140
1.0
141
12.0
290
     0
  0
SCALE
  5
50
102
{ACAD_REACTORS
330
42
102
}
330
42
100
AcDbScale
 70
     0
300
1-1/2" = 1'-0"
140
1.5
141
12.0
290
     0
  0
SCALE
  5
51
102
{ACAD_REACTORS
330
42
102
}
330
42
100
AcDbScale
 70
     0
300
3" = 1'-0"
140
3.0
141
12.0
290
     0
  0
SCALE
  5
52
102
{ACAD_REACTORS
330
42
102
}
330
42
100
AcDbScale
 70
     0
300
6" = 1'-0"
140
6.0
141
12.0
290
     0
  0
SCALE
  5
53
102
{ACAD_REACTORS
330
42
102
}
330
42
100
AcDbScale
 70
     0
300
1'-0" = 1'-0"
140
12.0
141
12.0
290
     0
  0
ACDBSECTIONVIEWSTYLE
  5
69
102
{ACAD_XDICTIONARY
360
2F9
102
}
102
{ACAD_REACTORS
330
68
102
}
330
68
100
AcDbModelDocViewStyle
 70
     0
  3
Imperial24
290
     0
100
AcDbSectionViewStyle
 70
     0
 71
     0
 90
       78
 71
     1
340
55
 62
   256
 40
0.24
340
0
340
0
 62
   256
 40
0.24
300
I, O, Q, S, X, Z
 40
0.48
 90
        3
 40
0.18
 90
        1
 71
     2
340
5D
 90
       25
 62
   256
340
5D
 90
       50
 62
   256
 40
0.24
 40
0.0
 40
0.24
 71
     3
340
55
 62
   256
 40
0.24
 90
        1
 40
0.75
 90
        1
300
%<\AcVar ViewType \f "%tc1">% %<\AcVar ViewSectionStartId>%-%<\AcVar ViewSectionEndId>%\PSCALE %<\AcVar ViewScale \f "%sn">%
 71
     4
 62
   256
 62
   257
300
ANSI31
 40
1.0
 90
        0
290
     0
290
     0
 90
        6
 40
0.0
 40
1.570796326794896
 40
0.2617993877991494
 40
1.308996938995747
 40
-0.2617993877991494
 40
1.832595714594046
  0
TABLESTYLE
  5
65
102
{ACAD_XDICTIONARY
360
2F6
102
}
102
{ACAD_REACTORS
330
64
102
}
330
64
100
AcDbTableStyle
280
     0
  3
Standard
 70
     0
 71
     0
 40
0.06
 41
0.06
280
     0
281
     0
  7
Standard
140
0.18
170
     2
 62
     0
 63
     7
283
     0
 90
      512
 91
        0
  1

274
    -2
284
     1
 64
     0
275
    -2
285
     1
 65
     0
276
    -2
286
     1
 66
     0
277
    -2
287
     1
 67
     0
278
    -2
288
     1
 68
     0
279
    -2
289
     1
 69
     0
  7
Standard
140
0.25
170
     5
 62
     0
 63
     7
283
     0
 90
      512
 91
        0
  1

274
    -2
284
     1
 64
     0
275
    -2
285
     1
 65
     0
276
    -2
286
     1
 66
     0
277
    -2
287
     1
 67
     0
278
    -2
288
     1
 68
     0
279
    -2
289
     1
 69
     0
  7
Standard
140
0.18
170
     5
 62
     0
 63
     7
283
     0
 90
      512
 91
        0
  1

274
    -2
284
     1
 64
     0
275
    -2
285
     1
 65
     0
276
    -2
286
     1
 66
     0
277
    -2
287
     1
 67
     0
278
    -2
288
     1
 68
     0
279
    -2
289
     1
 69
     0
  0
VISUALSTYLE
  5
2F
102
{ACAD_REACTORS
330
29
102
}
330
29
100
AcDbVisualStyle
  2
2dWireframe
 70
     4
177
     3
291
     0
 70
    58
 90
        0
176
     1
 90
        2
176
     1
 90
        0
176
     1
 90
        0
176
     1
 40
0.6
176
     1
 40
30.0
176
     1
 62
     7
420
 16777215
176
     1
 90
        1
176
     1
 90
        4
176
     1
 62
     7
176
     1
 62
   257
176
     1
 90
        1
176
     1
 90
        1
176
     1
 40
1.0
176
     1
 90
        0
176
     1
 62
   257
176
     1
 40
1.0
176
     1
 90
        1
176
     1
 90
        6
176
     1
 90
        2
176
     1
 62
     7
176
     1
 90
        5
176
     1
 90
        0
176
     1
 90
        0
176
     1
290
     0
176
     1
 90
        1
176
     1
 40
0.0
176
     1
 90
        0
176
     1
290
     1
176
     1
290
     1
176
     1
290
     0
176
     1
290
     0
176
     1
290
     0
176
     1
290
     0
176
     1
290
     0
176
     1
290
     0
176
     1
290
     0
176
     1
 90
       50
176
     1
 40
0.0
176
     1
 40
1.0
176
     1
 90
        0
176
     1
 62
    18
420
        0
176
     1
 90
       50
176
     1
 90
        3
176
     1
 62
     5
420
      255
176
     1
290
     0
176
     1
 90
       50
176
     1
 90
       50
176
     1
 90
       50
176
     1
290
     0
176
     1
 90
       50
176
     1
 62
   256
176
     0
 40
1.0
176
     0
 90
        2
176
     1
  1
strokes_ogs.tif
176
     1
290
     0
176
     1
 40
1.0
176
     1
 40
1.0
176
     1
1001
ACAD
1000
AcDbSavedByObjectVersion
1070
     0
  0
VISUALSTYLE
  5
2E
102
{ACAD_REACTORS
330
29
102
}
330
29
100
AcDbVisualStyle
  2
Basic
 70
     7
177
     3
291
     1
 70
    58
 90
        1
176
     1
 90
        0
176
     1
 90
        1
176
     1
 90
        0
176
     1
 40
0.6
176
     1
 40
30.0
176
     1
 62
     7
420
 16777215
176
     1
 90
        0
176
     1
 90
        4
176
     1
 62
     7
176
     1
 62
   257
176
     1
 90
        1
176
     1
 90
        1
176
     1
 40
1.0
176
     1
 90
        8
176
     1
 62
     7
176
     1
 40
1.0
176
     1
 90
        1
176
     1
 90
        6
176
     1
 90
        2
176
     1
 62
     7
176
     1
 90
        5
176
     1
 90
        0
176
     1
 90
        0
176
     1
290
     0
176
     1
 90
        1
176
     1
 40
0.0
176
     1
 90
        0
176
     1
290
     0
176
     1
290
     1
176
     1
290
     1
176
     1
290
     0
176
     1
290
     0
176
     1
290
     0
176
     1
290
     0
176
     1
290
     0
176
     1
290
     0
176
     1
 90
       50
176
     1
 40
0.0
176
     1
 40
1.0
176
     1
 90
        0
176
     1
 62
    18
420
        0
176
     1
 90
       50
176
     1
 90
        3
176
     1
 62
     5
420
      255
176
     1
290
     0
176
     1
 90
       50
176
     1
 90
       50
176
     1
 90
       50
176
     1
290
     0
176
     1
 90
       50
176
     1
 62
   256
176
     0
 40
1.0
176
     0
 90
        2
176
     1
  1
strokes_ogs.tif
176
     1
290
     0
176
     1
 40
1.0
176
     1
 40
1.0
176
     1
1001
ACAD
1000
AcDbSavedByObjectVersion
1070
     0
  0
VISUALSTYLE
  5
35
102
{ACAD_REACTORS
330
29
102
}
330
29
100
AcDbVisualStyle
  2
Brighten
 70
    12
177
     3
291
     1
 70
    58
 90
        2
176
     1
 90
        2
176
     1
 90
        0
176
     1
 90
        0
176
     1
 40
0.6
176
     1
 40
30.0
176
     1
 62
     7
420
 16777215
176
     1
 90
        1
176
     1
 90
        4
176
     1
 62
     7
176
     1
 62
   257
176
     1
 90
        1
176
     1
 90
        1
176
     1
 40
1.0
176
     1
 90
        8
176
     1
 62
     7
176
     1
 40
1.0
176
     1
 90
        1
176
     1
 90
        6
176
     1
 90
        2
176
     1
 62
     7
176
     1
 90
        5
176
     1
 90
        0
176
     1
 90
        0
176
     1
290
     0
176
     1
 90
        1
176
     1
 40
50.0
176
     1
 90
        0
176
     1
290
     0
176
     1
290
     1
176
     1
290
     1
176
     1
290
     0
176
     1
290
     0
176
     1
290
     0
176
     1
290
     0
176
     1
290
     0
176
     1
290
     0
176
     1
 90
       50
176
     1
 40
0.0
176
     1
 40
1.0
176
     1
 90
        0
176
     1
 62
    18
420
        0
176
     1
 90
       50
176
     1
 90
        3
176
     1
 62
     5
420
      255
176
     1
290
     0
176
     1
 90
       50
176
     1
 90
       50
176
     1
 90
       50
176
     1
290
     0
176
     1
 90
       50
176
     1
 62
   256
176
     0
 40
1.0
176
     0
 90
        2
176
     1
  1
strokes_ogs.tif
176
     1
290
     0
176
     1
 40
1.0
176
     1
 40
1.0
176
     1
1001
ACAD
1000
AcDbSavedByObjectVersion
1070
     0
  0
VISUALSTYLE
  5
39
102
{ACAD_REACTORS
330
29
102
}
330
29
100
AcDbVisualStyle
  2
ColorChange
 70
    16
177
     3
291
     1
 70
    58
 90
        2
176
     1
 90
        2
176
     1
 90
        3
176
     1
 90
        0
176
     1
 40
0.6
176
     1
 40
30.0
176
     1
 62
     8
420
  8421504
176
     1
 90
        1
176
     1
 90
        4
176
     1
 62
     7
176
     1
 62
   257
176
     1
 90
        1
176
     1
 90
        1
176
     1
 40
1.0
176
     1
 90
        8
176
     1
 62
     8
420
  8421504
176
     1
 40
1.0
176
     1
 90
        1
176
     1
 90
        6
176
     1
 90
        2
176
     1
 62
     7
176
     1
 90
        5
176
     1
 90
        0
176
     1
 90
        0
176
     1
290
     0
176
     1
 90
        1
176
     1
 40
0.0
176
     1
 90
        0
176
     1
290
     0
176
     1
290
     1
176
     1
290
     1
176
     1
290
     0
176
     1
290
     0
176
     1
290
     0
176
     1
290
     0
176
     1
290
     0
176
     1
290
     0
176
     1
 90
       50
176
     1
 40
0.0
176
     1
 40
1.0
176
     1
 90
        0
176
     1
 62
    18
420
        0
176
     1
 90
       50
176
     1
 90
        3
176
     1
 62
     5
420
      255
176
     1
290
     0
176
     1
 90
       50
176
     1
 90
       50
176
     1
 90
       50
176
     1
290
     0
176
     1
 90
       50
176
     1
 62
   256
176
     0
 40
1.0
176
     0
 90
        2
176
     1
  1
strokes_ogs.tif
176
     1
290
     0
176
     1
 40
1.0
176
     1
 40
1.0
176
     1
1001
ACAD
1000
AcDbSavedByObjectVersion
1070
     0
  0
VISUALSTYLE
  5
32
102
{ACAD_REACTORS
330
29
102
}
330
29
100
AcDbVisualStyle
  2
Conceptual
 70
     9
177
     3
291
     0
 70
    58
 90
        3
176
     1
 90
        2
176
     1
 90
        0
176
     1
 90
        0
176
     1
 40
0.6
176
     1
 40
30.0
176
     1
 62
     7
420
 16777215
176
     1
 90
        2
176
     1
 90
        2
176
     1
 62
     7
176
     1
 62
   257
176
     1
 90
        1
176
     1
 90
        1
176
     1
 40
179.0
176
     1
 90
        8
176
     1
 62
     7
176
     1
 40
1.0
176
     1
 90
        1
176
     1
 90
        6
176
     1
 90
        2
176
     1
 62
     7
176
     1
 90
        3
176
     1
 90
        0
176
     1
 90
        0
176
     1
290
     0
176
     1
 90
        1
176
     1
 40
0.0
176
     1
 90
        0
176
     1
290
     0
176
     1
290
     1
176
     1
290
     1
176
     1
290
     0
176
     1
290
     0
176
     1
290
     0
176
     1
290
     0
176
     1
290
     0
176
     1
290
     0
176
     1
 90
       50
176
     1
 40
0.0
176
     1
 40
1.0
176
     1
 90
        0
176
     1
 62
    18
420
        0
176
     1
 90
       50
176
     1
 90
        3
176
     1
 62
     5
420
      255
176
     1
290
     0
176
     1
 90
       50
176
     1
 90
       50
176
     1
 90
       50
176
     1
290
     0
176
     1
 90
       50
176
     1
 62
   256
176
     0
 40
1.0
176
     0
 90
        2
176
     1
  1
strokes_ogs.tif
176
     1
290
     0
176
     1
 40
1.0
176
     1
 40
1.0
176
     1
1001
ACAD
1000
AcDbSavedByObjectVersion
1070
     0
  0
VISUALSTYLE
  5
34
102
{ACAD_REACTORS
330
29
102
}
330
29
100
AcDbVisualStyle
  2
Dim
 70
    11
177
     3
291
     1
 70
    58
 90
        2
176
     1
 90
        2
176
     1
 90
        0
176
     1
 90
        0
176
     1
 40
0.6
176
     1
 40
30.0
176
     1
 62
     7
420
 16777215
176
     1
 90
        1
176
     1
 90
        4
176
     1
 62
     7
176
     1
 62
   257
176
     1
 90
        1
176
     1
 90
        1
176
     1
 40
1.0
176
     1
 90
        8
176
     1
 62
     7
176
     1
 40
1.0
176
     1
 90
        1
176
     1
 90
        6
176
     1
 90
        2
176
     1
 62
     7
176
     1
 90
        5
176
     1
 90
        0
176
     1
 90
        0
176
     1
290
     0
176
     1
 90
        1
176
     1
 40
-50.0
176
     1
 90
        0
176
     1
290
     0
176
     1
290
     1
176
     1
290
     1
176
     1
290
     0
176
     1
290
     0
176
     1
290
     0
176
     1
290
     0
176
     1
290
     0
176
     1
290
     0
176
     1
 90
       50
176
     1
 40
0.0
176
     1
 40
1.0
176
     1
 90
        0
176
     1
 62
    18
420
        0
176
     1
 90
       50
176
     1
 90
        3
176
     1
 62
     5
420
      255
176
     1
290
     0
176
     1
 90
       50
176
     1
 90
       50
176
     1
 90
       50
176
     1
290
     0
176
     1
 90
       50
176
     1
 62
   256
176
     0
 40
1.0
176
     0
 90
        2
176
     1
  1
strokes_ogs.tif
176
     1
290
     0
176
     1
 40
1.0
176
     1
 40
1.0
176
     1
1001
ACAD
1000
AcDbSavedByObjectVersion
1070
     0
  0
VISUALSTYLE
  5
41
102
{ACAD_REACTORS
330
29
102
}
330
29
100
AcDbVisualStyle
  2
EdgeColorOff
 70
    22
177
     3
291
     1
 70
    58
 90
        2
176
     0
 90
        2
176
     0
 90
        0
176
     0
 90
        0
176
     0
 40
0.6
176
     0
 40
30.0
176
     0
 62
     7
420
 16777215
176
     0
 90
        1
176
     0
 90
        4
176
     0
 62
     7
176
     0
 62
   257
176
     0
 90
        1
176
     0
 90
        1
176
     0
 40
1.0
176
     0
 90
        8
176
     2
 62
     7
176
     0
 40
1.0
176
     0
 90
        1
176
     0
 90
        6
176
     0
 90
        2
176
     0
 62
     7
176
     0
 90
        5
176
     0
 90
        0
176
     0
 90
        0
176
     0
290
     0
176
     0
 90
        1
176
     0
 40
0.0
176
     0
 90
        0
176
     0
290
     0
176
     0
290
     1
176
     0
290
     1
176
     0
290
     0
176
     0
290
     0
176
     0
290
     0
176
     0
290
     0
176
     0
290
     0
176
     0
290
     0
176
     0
 90
       50
176
     0
 40
0.0
176
     0
 40
1.0
176
     0
 90
        0
176
     0
 62
    18
420
        0
176
     0
 90
       50
176
     0
 90
        3
176
     0
 62
     5
420
      255
176
     0
290
     0
176
     0
 90
       50
176
     0
 90
       50
176
     0
 90
       50
176
     0
290
     0
176
     0
 90
       50
176
     0
 62
   256
176
     0
 40
1.0
176
     0
 90
        2
176
     0
  1
strokes_ogs.tif
176
     0
290
     0
176
     0
 40
1.0
176
     0
 40
1.0
176
     0
1001
ACAD
1000
AcDbSavedByObjectVersion
1070
     0
  0
VISUALSTYLE
  5
38
102
{ACAD_REACTORS
330
29
102
}
330
29
100
AcDbVisualStyle
  2
Facepattern
 70
    15
177
     3
291
     1
 70
    58
 90
        2
176
     1
 90
        2
176
     1
 90
        0
176
     1
 90
        0
176
     1
 40
0.6
176
     1
 40
30.0
176
     1
 62
     7
420
 16777215
176
     1
 90
        1
176
     1
 90
        4
176
     1
 62
     7
176
     1
 62
   257
176
     1
 90
        1
176
     1
 90
        1
176
     1
 40
1.0
176
     1
 90
        8
176
     1
 62
     7
176
     1
 40
1.0
176
     1
 90
        1
176
     1
 90
        6
176
     1
 90
        2
176
     1
 62
     7
176
     1
 90
        5
176
     1
 90
        0
176
     1
 90
        0
176
     1
290
     0
176
     1
 90
        1
176
     1
 40
0.0
176
     1
 90
        0
176
     1
290
     0
176
     1
290
     1
176
     1
290
     1
176
     1
290
     0
176
     1
290
     0
176
     1
290
     0
176
     1
290
     0
176
     1
290
     0
176
     1
290
     0
176
     1
 90
       50
176
     1
 40
0.0
176
     1
 40
1.0
176
     1
 90
        0
176
     1
 62
    18
420
        0
176
     1
 90
       50
176
     1
 90
        3
176
     1
 62
     5
420
      255
176
     1
290
     0
176
     1
 90
       50
176
     1
 90
       50
176
     1
 90
       50
176
     1
290
     0
176
     1
 90
       50
176
     1
 62
   256
176
     0
 40
1.0
176
     0
 90
        2
176
     1
  1
strokes_ogs.tif
176
     1
290
     0
176
     1
 40
1.0
176
     1
 40
1.0
176
     1
1001
ACAD
1000
AcDbSavedByObjectVersion
1070
     0
  0
VISUALSTYLE
  5
2A
102
{ACAD_REACTORS
330
29
102
}
330
29
100
AcDbVisualStyle
  2
Flat
 70
     0
177
     3
291
     1
 70
    58
 90
        2
176
     1
 90
        1
176
     1
 90
        1
176
     1
 90
        2
176
     1
 40
0.6
176
     1
 40
30.0
176
     1
 62
     7
420
 16777215
176
     1
 90
        0
176
     1
 90
        0
176
     1
 62
     7
176
     1
 62
   257
176
     1
 90
        1
176
     1
 90
        1
176
     1
 40
1.0
176
     1
 90
        8
176
     1
 62
     7
176
     1
 40
1.0
176
     1
 90
        1
176
     1
 90
        6
176
     1
 90
        2
176
     1
 62
     7
176
     1
 90
        5
176
     1
 90
        0
176
     1
 90
        0
176
     1
290
     0
176
     1
 90
       13
176
     1
 40
0.0
176
     1
 90
        0
176
     1
290
     0
176
     1
290
     1
176
     1
290
     1
176
     1
290
     0
176
     1
290
     0
176
     1
290
     0
176
     1
290
     0
176
     1
290
     0
176
     1
290
     0
176
     1
 90
       50
176
     1
 40
0.0
176
     1
 40
1.0
176
     1
 90
        0
176
     1
 62
    18
420
        0
176
     1
 90
       50
176
     1
 90
        3
176
     1
 62
     5
420
      255
176
     1
290
     0
176
     1
 90
       50
176
     1
 90
       50
176
     1
 90
       50
176
     1
290
     0
176
     1
 90
       50
176
     1
 62
   256
176
     0
 40
1.0
176
     0
 90
        2
176
     1
  1
strokes_ogs.tif
176
     1
290
     0
176
     1
 40
1.0
176
     1
 40
1.0
176
     1
1001
ACAD
1000
AcDbSavedByObjectVersion
1070
     0
  0
VISUALSTYLE
  5
2B
102
{ACAD_REACTORS
330
29
102
}
330
29
100
AcDbVisualStyle
  2
FlatWithEdges
 70
     1
177
     3
291
     1
 70
    58
 90
        2
176
     1
 90
        1
176
     1
 90
        1
176
     1
 90
        2
176
     1
 40
0.6
176
     1
 40
30.0
176
     1
 62
     7
420
 16777215
176
     1
 90
        1
176
     1
 90
        0
176
     1
 62
     7
176
     1
 62
   257
176
     1
 90
        1
176
     1
 90
        1
176
     1
 40
1.0
176
     1
 90
        0
176
     1
 62
   257
176
     1
 40
1.0
176
     1
 90
        1
176
     1
 90
        6
176
     1
 90
        2
176
     1
 62
     7
176
     1
 90
        5
176
     1
 90
        0
176
     1
 90
        0
176
     1
290
     0
176
     1
 90
       13
176
     1
 40
0.0
176
     1
 90
        0
176
     1
290
     0
176
     1
290
     1
176
     1
290
     1
176
     1
290
     0
176
     1
290
     0
176
     1
290
     0
176
     1
290
     0
176
     1
290
     0
176
     1
290
     0
176
     1
 90
       50
176
     1
 40
0.0
176
     1
 40
1.0
176
     1
 90
        0
176
     1
 62
    18
420
        0
176
     1
 90
       50
176
     1
 90
        3
176
     1
 62
     5
420
      255
176
     1
290
     0
176
     1
 90
       50
176
     1
 90
       50
176
     1
 90
       50
176
     1
290
     0
176
     1
 90
       50
176
     1
 62
   256
176
     0
 40
1.0
176
     0
 90
        2
176
     1
  1
strokes_ogs.tif
176
     1
290
     0
176
     1
 40
1.0
176
     1
 40
1.0
176
     1
1001
ACAD
1000
AcDbSavedByObjectVersion
1070
     0
  0
VISUALSTYLE
  5
2C
102
{ACAD_REACTORS
330
29
102
}
330
29
100
AcDbVisualStyle
  2
Gouraud
 70
     2
177
     3
291
     1
 70
    58
 90
        2
176
     1
 90
        2
176
     1
 90
        1
176
     1
 90
        2
176
     1
 40
0.6
176
     1
 40
30.0
176
     1
 62
     7
420
 16777215
176
     1
 90
        0
176
     1
 90
        0
176
     1
 62
     7
176
     1
 62
   257
176
     1
 90
        1
176
     1
 90
        1
176
     1
 40
1.0
176
     1
 90
        0
176
     1
 62
     7
176
     1
 40
1.0
176
     1
 90
        1
176
     1
 90
        6
176
     1
 90
        2
176
     1
 62
     7
176
     1
 90
        5
176
     1
 90
        0
176
     1
 90
        0
176
     1
290
     0
176
     1
 90
       13
176
     1
 40
0.0
176
     1
 90
        0
176
     1
290
     0
176
     1
290
     1
176
     1
290
     1
176
     1
290
     0
176
     1
290
     0
176
     1
290
     0
176
     1
290
     0
176
     1
290
     0
176
     1
290
     0
176
     1
 90
       50
176
     1
 40
0.0
176
     1
 40
1.0
176
     1
 90
        0
176
     1
 62
    18
420
        0
176
     1
 90
       50
176
     1
 90
        3
176
     1
 62
     5
420
      255
176
     1
290
     0
176
     1
 90
       50
176
     1
 90
       50
176
     1
 90
       50
176
     1
290
     0
176
     1
 90
       50
176
     1
 62
   256
176
     0
 40
1.0
176
     0
 90
        2
176
     1
  1
strokes_ogs.tif
176
     1
290
     0
176
     1
 40
1.0
176
     1
 40
1.0
176
     1
1001
ACAD
1000
AcDbSavedByObjectVersion
1070
     0
  0
VISUALSTYLE
  5
2D
102
{ACAD_REACTORS
330
29
102
}
330
29
100
AcDbVisualStyle
  2
GouraudWithEdges
 70
     3
177
     3
291
     1
 70
    58
 90
        2
176
     1
 90
        2
176
     1
 90
        1
176
     1
 90
        2
176
     1
 40
0.6
176
     1
 40
30.0
176
     1
 62
     7
420
 16777215
176
     1
 90
        1
176
     1
 90
        0
176
     1
 62
     7
176
     1
 62
   257
176
     1
 90
        1
176
     1
 90
        1
176
     1
 40
1.0
176
     1
 90
        0
176
     1
 62
   257
176
     1
 40
1.0
176
     1
 90
        1
176
     1
 90
        6
176
     1
 90
        2
176
     1
 62
     7
176
     1
 90
        5
176
     1
 90
        0
176
     1
 90
        0
176
     1
290
     0
176
     1
 90
       13
176
     1
 40
0.0
176
     1
 90
        0
176
     1
290
     0
176
     1
290
     1
176
     1
290
     1
176
     1
290
     0
176
     1
290
     0
176
     1
290
     0
176
     1
290
     0
176
     1
290
     0
176
     1
290
     0
176
     1
 90
       50
176
     1
 40
0.0
176
     1
 40
1.0
176
     1
 90
        0
176
     1
 62
    18
420
        0
176
     1
 90
       50
176
     1
 90
        3
176
     1
 62
     5
420
      255
176
     1
290
     0
176
     1
 90
       50
176
     1
 90
       50
176
     1
 90
       50
176
     1
290
     0
176
     1
 90
       50
176
     1
 62
   256
176
     0
 40
1.0
176
     0
 90
        2
176
     1
  1
strokes_ogs.tif
176
     1
290
     0
176
     1
 40
1.0
176
     1
 40
1.0
176
     1
1001
ACAD
1000
AcDbSavedByObjectVersion
1070
     0
  0
VISUALSTYLE
  5
31
102
{ACAD_REACTORS
330
29
102
}
330
29
100
AcDbVisualStyle
  2
Hidden
 70
     6
177
     3
291
     0
 70
    58
 90
        1
176
     1
 90
        2
176
     1
 90
        2
176
     1
 90
        0
176
     1
 40
0.6
176
     1
 40
30.0
176
     1
 62
     7
420
 16777215
176
     1
 90
        2
176
     1
 90
        2
176
     1
 62
     7
176
     1
 62
   257
176
     1
 90
        2
176
     1
 90
        1
176
     1
 40
40.0
176
     1
 90
        0
176
     1
 62
   257
176
     1
 40
1.0
176
     1
 90
        1
176
     1
 90
        6
176
     1
 90
        2
176
     1
 62
     7
176
     1
 90
        3
176
     1
 90
        0
176
     1
 90
        0
176
     1
290
     0
176
     1
 90
        1
176
     1
 40
0.0
176
     1
 90
        0
176
     1
290
     0
176
     1
290
     1
176
     1
290
     1
176
     1
290
     0
176
     1
290
     0
176
     1
290
     0
176
     1
290
     0
176
     1
290
     0
176
     1
290
     0
176
     1
 90
       50
176
     1
 40
0.0
176
     1
 40
1.0
176
     1
 90
        0
176
     1
 62
    18
420
        0
176
     1
 90
       50
176
     1
 90
        3
176
     1
 62
     5
420
      255
176
     1
290
     0
176
     1
 90
       50
176
     1
 90
       50
176
     1
 90
       50
176
     1
290
     0
176
     1
 90
       50
176
     1
 62
   256
176
     0
 40
1.0
176
     0
 90
        2
176
     1
  1
strokes_ogs.tif
176
     1
290
     0
176
     1
 40
1.0
176
     1
 40
1.0
176
     1
1001
ACAD
1000
AcDbSavedByObjectVersion
1070
     0
  0
VISUALSTYLE
  5
3F
102
{ACAD_REACTORS
330
29
102
}
330
29
100
AcDbVisualStyle
  2
JitterOff
 70
    20
177
     3
291
     1
 70
    58
 90
        2
176
     0
 90
        2
176
     0
 90
        0
176
     0
 90
        0
176
     0
 40
0.6
176
     0
 40
30.0
176
     0
 62
     7
420
 16777215
176
     0
 90
        1
176
     0
 90
        4
176
     0
 62
     7
176
     0
 62
   257
176
     0
 90
        1
176
     0
 90
        1
176
     0
 40
1.0
176
     0
 90
       10
176
     2
 62
     7
176
     0
 40
1.0
176
     0
 90
        1
176
     0
 90
        6
176
     0
 90
        2
176
     0
 62
     7
176
     0
 90
        5
176
     0
 90
        0
176
     0
 90
        0
176
     0
290
     0
176
     0
 90
        1
176
     0
 40
0.0
176
     0
 90
        0
176
     0
290
     0
176
     0
290
     1
176
     0
290
     1
176
     0
290
     0
176
     0
290
     0
176
     0
290
     0
176
     0
290
     0
176
     0
290
     0
176
     0
290
     0
176
     0
 90
       50
176
     0
 40
0.0
176
     0
 40
1.0
176
     0
 90
        0
176
     0
 62
    18
420
        0
176
     0
 90
       50
176
     0
 90
        3
176
     0
 62
     5
420
      255
176
     0
290
     0
176
     0
 90
       50
176
     0
 90
       50
176
     0
 90
       50
176
     0
290
     0
176
     0
 90
       50
176
     0
 62
   256
176
     0
 40
1.0
176
     0
 90
        2
176
     0
  1
strokes_ogs.tif
176
     0
290
     0
176
     0
 40
1.0
176
     0
 40
1.0
176
     0
1001
ACAD
1000
AcDbSavedByObjectVersion
1070
     0
  0
VISUALSTYLE
  5
37
102
{ACAD_REACTORS
330
29
102
}
330
29
100
AcDbVisualStyle
  2
Linepattern
 70
    14
177
     3
291
     1
 70
    58
 90
        2
176
     1
 90
        2
176
     1
 90
        0
176
     1
 90
        0
176
     1
 40
0.6
176
     1
 40
30.0
176
     1
 62
     7
420
 16777215
176
     1
 90
        1
176
     1
 90
        4
176
     1
 62
     7
176
     1
 62
   257
176
     1
 90
        7
176
     1
 90
        7
176
     1
 40
1.0
176
     1
 90
        8
176
     1
 62
     7
176
     1
 40
1.0
176
     1
 90
        1
176
     1
 90
        6
176
     1
 90
        2
176
     1
 62
     7
176
     1
 90
        5
176
     1
 90
        0
176
     1
 90
        0
176
     1
290
     0
176
     1
 90
        1
176
     1
 40
0.0
176
     1
 90
        0
176
     1
290
     0
176
     1
290
     1
176
     1
290
     1
176
     1
290
     0
176
     1
290
     0
176
     1
290
     0
176
     1
290
     0
176
     1
290
     0
176
     1
290
     0
176
     1
 90
       50
176
     1
 40
0.0
176
     1
 40
1.0
176
     1
 90
        0
176
     1
 62
    18
420
        0
176
     1
 90
       50
176
     1
 90
        3
176
     1
 62
     5
420
      255
176
     1
290
     0
176
     1
 90
       50
176
     1
 90
       50
176
     1
 90
       50
176
     1
290
     0
176
     1
 90
       50
176
     1
 62
   256
176
     0
 40
1.0
176
     0
 90
        2
176
     1
  1
strokes_ogs.tif
176
     1
290
     0
176
     1
 40
1.0
176
     1
 40
1.0
176
     1
1001
ACAD
1000
AcDbSavedByObjectVersion
1070
     0
  0
VISUALSTYLE
  5
40
102
{ACAD_REACTORS
330
29
102
}
330
29
100
AcDbVisualStyle
  2
OverhangOff
 70
    21
177
     3
291
     1
 70
    58
 90
        2
176
     0
 90
        2
176
     0
 90
        0
176
     0
 90
        0
176
     0
 40
0.6
176
     0
 40
30.0
176
     0
 62
     7
420
 16777215
176
     0
 90
        1
176
     0
 90
        4
176
     0
 62
     7
176
     0
 62
   257
176
     0
 90
        1
176
     0
 90
        1
176
     0
 40
1.0
176
     0
 90
        9
176
     2
 62
     7
176
     0
 40
1.0
176
     0
 90
        1
176
     0
 90
        6
176
     0
 90
        2
176
     0
 62
     7
176
     0
 90
        5
176
     0
 90
        0
176
     0
 90
        0
176
     0
290
     0
176
     0
 90
        1
176
     0
 40
0.0
176
     0
 90
        0
176
     0
290
     0
176
     0
290
     1
176
     0
290
     1
176
     0
290
     0
176
     0
290
     0
176
     0
290
     0
176
     0
290
     0
176
     0
290
     0
176
     0
290
     0
176
     0
 90
       50
176
     0
 40
0.0
176
     0
 40
1.0
176
     0
 90
        0
176
     0
 62
    18
420
        0
176
     0
 90
       50
176
     0
 90
        3
176
     0
 62
     5
420
      255
176
     0
290
     0
176
     0
 90
       50
176
     0
 90
       50
176
     0
 90
       50
176
     0
290
     0
176
     0
 90
       50
176
     0
 62
   256
176
     0
 40
1.0
176
     0
 90
        2
176
     0
  1
strokes_ogs.tif
176
     0
290
     0
176
     0
 40
1.0
176
     0
 40
1.0
176
     0
1001
ACAD
1000
AcDbSavedByObjectVersion
1070
     0
  0
VISUALSTYLE
  5
33
102
{ACAD_REACTORS
330
29
102
}
330
29
100
AcDbVisualStyle
  2
Realistic
 70
     8
177
     3
291
     0
 70
    58
 90
        2
176
     1
 90
        3
176
     1
 90
        0
176
     1
 90
        2
176
     1
 40
0.6
176
     1
 40
30.0
176
     1
 62
     7
420
 16777215
176
     1
 90
        0
176
     1
 90
        0
176
     1
 62
     7
176
     1
 62
   257
176
     1
 90
        1
176
     1
 90
        1
176
     1
 40
1.0
176
     1
 90
        8
176
     1
 62
   257
176
     1
 40
1.0
176
     1
 90
        1
176
     1
 90
        6
176
     1
 90
        2
176
     1
 62
     7
176
     1
 90
        3
176
     1
 90
        0
176
     1
 90
        0
176
     1
290
     0
176
     1
 90
       13
176
     1
 40
0.0
176
     1
 90
        0
176
     1
290
     0
176
     1
290
     1
176
     1
290
     1
176
     1
290
     0
176
     1
290
     0
176
     1
290
     0
176
     1
290
     0
176
     1
290
     0
176
     1
290
     0
176
     1
 90
       50
176
     1
 40
0.0
176
     1
 40
1.0
176
     1
 90
        0
176
     1
 62
    18
420
        0
176
     1
 90
       50
176
     1
 90
        3
176
     1
 62
     5
420
      255
176
     1
290
     0
176
     1
 90
       50
176
     1
 90
       50
176
     1
 90
       50
176
     1
290
     0
176
     1
 90
       50
176
     1
 62
   256
176
     0
 40
1.0
176
     0
 90
        2
176
     1
  1
strokes_ogs.tif
176
     1
290
     0
176
     1
 40
1.0
176
     1
 40
1.0
176
     1
1001
ACAD
1000
AcDbSavedByObjectVersion
1070
     0
  0
VISUALSTYLE
  5
3E
102
{ACAD_REACTORS
330
29
102
}
330
29
100
AcDbVisualStyle
  2
Shaded
 70
    27
177
     3
291
     0
 70
    58
 90
        2
176
     1
 90
        2
176
     1
 90
        1
176
     1
 90
        2
176
     1
 40
0.6
176
     1
 40
30.0
176
     1
 62
     7
420
 16777215
176
     1
 90
        0
176
     1
 90
        4
176
     1
 62
     7
176
     1
 62
   257
176
     1
 90
        1
176
     1
 90
        1
176
     1
 40
1.0
176
     1
 90
        8
176
     1
 62
   257
176
     1
 40
1.0
176
     1
 90
        1
176
     1
 90
        6
176
     1
 90
        2
176
     1
 62
     8
420
  7895160
176
     1
 90
        3
176
     1
 90
        0
176
     1
 90
        0
176
     1
290
     0
176
     1
 90
        5
176
     1
 40
0.0
176
     1
 90
        0
176
     1
290
     0
176
     1
290
     1
176
     1
290
     1
176
     1
290
     0
176
     1
290
     0
176
     1
290
     0
176
     1
290
     0
176
     1
290
     0
176
     1
290
     0
176
     1
 90
       50
176
     1
 40
0.0
176
     1
 40
1.0
176
     1
 90
        0
176
     1
 62
    18
420
        0
176
     1
 90
       50
176
     1
 90
        3
176
     1
 62
     5
420
      255
176
     1
290
     0
176
     1
 90
       50
176
     1
 90
       50
176
     1
 90
       50
176
     1
290
     0
176
     1
 90
       50
176
     1
 62
   256
176
     0
 40
1.0
176
     0
 90
        2
176
     1
  1
strokes_ogs.tif
176
     1
290
     0
176
     1
 40
1.0
176
     1
 40
1.0
176
     1
1001
ACAD
1000
AcDbSavedByObjectVersion
1070
     0
  0
VISUALSTYLE
  5
3D
102
{ACAD_REACTORS
330
29
102
}
330
29
100
AcDbVisualStyle
  2
Shaded with edges
 70
    26
177
     3
291
     0
 70
    58
 90
        2
176
     1
 90
        2
176
     1
 90
        1
176
     1
 90
        2
176
     1
 40
0.6
176
     1
 40
30.0
176
     1
 62
     7
420
 16777215
176
     1
 90
        1
176
     1
 90
        2
176
     1
 62
     7
176
     1
 62
   257
176
     1
 90
        2
176
     1
 90
        1
176
     1
 40
1.0
176
     1
 90
        8
176
     1
 62
   257
176
     1
 40
1.0
176
     1
 90
        1
176
     1
 90
        6
176
     1
 90
        2
176
     1
 62
     7
176
     1
 90
        3
176
     1
 90
        0
176
     1
 90
        0
176
     1
290
     0
176
     1
 90
        5
176
     1
 40
0.0
176
     1
 90
        0
176
     1
290
     0
176
     1
290
     1
176
     1
290
     1
176
     1
290
     0
176
     1
290
     0
176
     1
290
     0
176
     1
290
     0
176
     1
290
     0
176
     1
290
     0
176
     1
 90
       50
176
     1
 40
0.0
176
     1
 40
1.0
176
     1
 90
        0
176
     1
 62
    18
420
        0
176
     1
 90
       50
176
     1
 90
        3
176
     1
 62
     5
420
      255
176
     1
290
     0
176
     1
 90
       50
176
     1
 90
       50
176
     1
 90
       50
176
     1
290
     0
176
     1
 90
       50
176
     1
 62
   256
176
     0
 40
1.0
176
     0
 90
        2
176
     1
  1
strokes_ogs.tif
176
     1
290
     0
176
     1
 40
1.0
176
     1
 40
1.0
176
     1
1001
ACAD
1000
AcDbSavedByObjectVersion
1070
     0
  0
VISUALSTYLE
  5
3A
102
{ACAD_REACTORS
330
29
102
}
330
29
100
AcDbVisualStyle
  2
Shades of Gray
 70
    23
177
     3
291
     0
 70
    58
 90
        2
176
     1
 90
        2
176
     1
 90
        3
176
     1
 90
        0
176
     1
 40
0.6
176
     1
 40
30.0
176
     1
 62
     7
420
 16777215
176
     1
 90
        2
176
     1
 90
        2
176
     1
 62
     7
176
     1
 62
     7
176
     1
 90
        1
176
     1
 90
        1
176
     1
 40
40.0
176
     1
 90
        8
176
     1
 62
     7
176
     1
 40
1.0
176
     1
 90
        1
176
     1
 90
        6
176
     1
 90
        2
176
     1
 62
     7
176
     1
 90
        3
176
     1
 90
        0
176
     1
 90
        0
176
     1
290
     0
176
     1
 90
        1
176
     1
 40
0.0
176
     1
 90
        0
176
     1
290
     0
176
     1
290
     1
176
     1
290
     1
176
     1
290
     0
176
     1
290
     0
176
     1
290
     0
176
     1
290
     0
176
     1
290
     0
176
     1
290
     0
176
     1
 90
       50
176
     1
 40
0.0
176
     1
 40
1.0
176
     1
 90
        0
176
     1
 62
    18
420
        0
176
     1
 90
       50
176
     1
 90
        3
176
     1
 62
     5
420
      255
176
     1
290
     0
176
     1
 90
       50
176
     1
 90
       50
176
     1
 90
       50
176
     1
290
     0
176
     1
 90
       50
176
     1
 62
   256
176
     0
 40
1.0
176
     0
 90
        2
176
     1
  1
strokes_ogs.tif
176
     1
290
     0
176
     1
 40
1.0
176
     1
 40
1.0
176
     1
1001
ACAD
1000
AcDbSavedByObjectVersion
1070
     0
  0
VISUALSTYLE
  5
3B
102
{ACAD_REACTORS
330
29
102
}
330
29
100
AcDbVisualStyle
  2
Sketchy
 70
    24
177
     3
291
     0
 70
    58
 90
        1
176
     1
 90
        2
176
     1
 90
        2
176
     1
 90
        0
176
     1
 40
0.6
176
     1
 40
30.0
176
     1
 62
     7
420
 16777215
176
     1
 90
        2
176
     1
 90
        2
176
     1
 62
     7
176
     1
 62
     7
176
     1
 90
        1
176
     1
 90
        1
176
     1
 40
40.0
176
     1
 90
       11
176
     1
 62
     7
176
     1
 40
1.0
176
     1
 90
        1
176
     1
 90
        6
176
     1
 90
        2
176
     1
 62
     7
176
     1
 90
        6
176
     1
 90
        0
176
     1
 90
        0
176
     1
290
     0
176
     1
 90
        1
176
     1
 40
0.0
176
     1
 90
        0
176
     1
290
     0
176
     1
290
     1
176
     1
290
     1
176
     1
290
     0
176
     1
290
     0
176
     1
290
     0
176
     1
290
     0
176
     1
290
     0
176
     1
290
     0
176
     1
 90
       50
176
     1
 40
0.0
176
     1
 40
1.0
176
     1
 90
        0
176
     1
 62
    18
420
        0
176
     1
 90
       50
176
     1
 90
        3
176
     1
 62
     5
420
      255
176
     1
290
     0
176
     1
 90
       50
176
     1
 90
       50
176
     1
 90
       50
176
     1
290
     0
176
     1
 90
       50
176
     1
 62
   256
176
     0
 40
1.0
176
     0
 90
        2
176
     1
  1
strokes_ogs.tif
176
     1
290
     0
176
     1
 40
1.0
176
     1
 40
1.0
176
     1
1001
ACAD
1000
AcDbSavedByObjectVersion
1070
     0
  0
VISUALSTYLE
  5
36
102
{ACAD_REACTORS
330
29
102
}
330
29
100
AcDbVisualStyle
  2
Thicken
 70
    13
177
     3
291
     1
 70
    58
 90
        2
176
     1
 90
        2
176
     1
 90
        0
176
     1
 90
        0
176
     1
 40
0.6
176
     1
 40
30.0
176
     1
 62
     7
420
 16777215
176
     1
 90
        1
176
     1
 90
        4
176
     1
 62
     7
176
     1
 62
   257
176
     1
 90
        1
176
     1
 90
        1
176
     1
 40
1.0
176
     1
 90
       12
176
     1
 62
     7
176
     1
 40
1.0
176
     1
 90
        1
176
     1
 90
        6
176
     1
 90
        2
176
     1
 62
     7
176
     1
 90
        5
176
     1
 90
        0
176
     1
 90
        0
176
     1
290
     0
176
     1
 90
        1
176
     1
 40
0.0
176
     1
 90
        0
176
     1
290
     0
176
     1
290
     1
176
     1
290
     1
176
     1
290
     0
176
     1
290
     0
176
     1
290
     0
176
     1
290
     0
176
     1
290
     0
176
     1
290
     0
176
     1
 90
       50
176
     1
 40
0.0
176
     1
 40
1.0
176
     1
 90
        0
176
     1
 62
    18
420
        0
176
     1
 90
       50
176
     1
 90
        3
176
     1
 62
     5
420
      255
176
     1
290
     0
176
     1
 90
       50
176
     1
 90
       50
176
     1
 90
       50
176
     1
290
     0
176
     1
 90
       50
176
     1
 62
   256
176
     0
 40
1.0
176
     0
 90
        2
176
     1
  1
strokes_ogs.tif
176
     1
290
     0
176
     1
 40
1.0
176
     1
 40
1.0
176
     1
1001
ACAD
1000
AcDbSavedByObjectVersion
1070
     0
  0
VISUALSTYLE
  5
30
102
{ACAD_REACTORS
330
29
102
}
330
29
100
AcDbVisualStyle
  2
Wireframe
 70
     5
177
     3
291
     0
 70
    58
 90
        0
176
     1
 90
        2
176
     1
 90
        0
176
     1
 90
        0
176
     1
 40
0.6
176
     1
 40
30.0
176
     1
 62
     7
420
 16777215
176
     1
 90
        1
176
     1
 90
        4
176
     1
 62
     7
176
     1
 62
   257
176
     1
 90
        1
176
     1
 90
        1
176
     1
 40
1.0
176
     1
 90
        0
176
     1
 62
   257
176
     1
 40
1.0
176
     1
 90
        1
176
     1
 90
        6
176
     1
 90
        2
176
     1
 62
     7
176
     1
 90
        3
176
     1
 90
        0
176
     1
 90
        0
176
     1
290
     0
176
     1
 90
        1
176
     1
 40
0.0
176
     1
 90
        0
176
     1
290
     0
176
     1
290
     1
176
     1
290
     1
176
     1
290
     0
176
     1
290
     0
176
     1
290
     0
176
     1
290
     0
176
     1
290
     0
176
     1
290
     0
176
     1
 90
       50
176
     1
 40
0.0
176
     1
 40
1.0
176
     1
 90
        0
176
     1
 62
    18
420
        0
176
     1
 90
       50
176
     1
 90
        3
176
     1
 62
     5
420
      255
176
     1
290
     0
176
     1
 90
       50
176
     1
 90
       50
176
     1
 90
       50
176
     1
290
     0
176
     1
 90
       50
176
     1
 62
   256
176
     0
 40
1.0
176
     0
 90
        2
176
     1
  1
strokes_ogs.tif
176
     1
290
     0
176
     1
 40
1.0
176
     1
 40
1.0
176
     1
1001
ACAD
1000
AcDbSavedByObjectVersion
1070
     0
  0
VISUALSTYLE
  5
3C
102
{ACAD_REACTORS
330
29
102
}
330
29
100
AcDbVisualStyle
  2
X-Ray
 70
    25
177
     3
291
     0
 70
    58
 90
        2
176
     1
 90
        2
176
     1
 90
        1
176
     1
 90
        1
176
     1
 40
0.5
176
     1
 40
30.0
176
     1
 62
     7
420
 16777215
176
     1
 90
        1
176
     1
 90
        0
176
     1
 62
     7
176
     1
 62
   257
176
     1
 90
        1
176
     1
 90
        1
176
     1
 40
1.0
176
     1
 90
        8
176
     1
 62
     7
176
     1
 40
1.0
176
     1
 90
        1
176
     1
 90
        6
176
     1
 90
        2
176
     1
 62
     7
176
     1
 90
        3
176
     1
 90
        0
176
     1
 90
        0
176
     1
290
     0
176
     1
 90
       13
176
     1
 40
0.0
176
     1
 90
        0
176
     1
290
     0
176
     1
290
     1
176
     1
290
     1
176
     1
290
     0
176
     1
290
     0
176
     1
290
     0
176
     1
290
     0
176
     1
290
     0
176
     1
290
     0
176
     1
 90
       50
176
     1
 40
0.0
176
     1
 40
1.0
176
     1
 90
        0
176
     1
 62
    18
420
        0
176
     1
 90
       50
176
     1
 90
        3
176
     1
 62
     5
420
      255
176
     1
290
     0
176
     1
 90
       50
176
     1
 90
       50
176
     1
 90
       50
176
     1
290
     0
176
     1
 90
       50
176
     1
 62
   256
176
     0
 40
1.0
176
     0
 90
        2
176
     1
  1
strokes_ogs.tif
176
     1
290
     0
176
     1
 40
1.0
176
     1
 40
1.0
176
     1
1001
ACAD
1000
AcDbSavedByObjectVersion
1070
     0
  0
DICTIONARYVAR
  5
1F4
102
{ACAD_REACTORS
330
1EF
102
}
330
1EF
100
DictionaryVariables
280
     0
  1
1:1
  0
DICTIONARYVAR
  5
1F1
102
{ACAD_REACTORS
330
1EF
102
}
330
1EF
100
DictionaryVariables
280
     0
  1
STANDARD
  0
DICTIONARYVAR
  5
1F0
102
{ACAD_REACTORS
330
1EF
102
}
330
1EF
100
DictionaryVariables
280
     0
  1
STANDARD
  0
DICTIONARYVAR
  5
1F2
102
{ACAD_REACTORS
330
1EF
102
}
330
1EF
100
DictionaryVariables
280
     0
  1
Imperial24
  0
DICTIONARYVAR
  5
1F3
102
{ACAD_REACTORS
330
1EF
102
}
330
1EF
100
DictionaryVariables
280
     0
  1
Imperial24
  0
DICTIONARY
  5
2FB
330
6B
100
AcDbDictionary
280
     1
281
     1
  3
ACAD_XREC_ROUNDTRIP
360
2FC
  0
DICTIONARY
  5
1A
330
19
100
AcDbDictionary
280
     1
281
     1
  3
BUMPTILE
360
1C
  3
DIFFUSETILE
360
1B
  3
OPACITYTILE
360
1F
  3
REFLECTIONTILE
360
1E
  3
REFRACTIONTILE
360
20
  3
SPECULARTILE
360
1D
  0
DICTIONARY
  5
12
330
11
100
AcDbDictionary
280
     1
281
     1
  3
BUMPTILE
360
14
  3
DIFFUSETILE
360
13
  3
OPACITYTILE
360
17
  3
REFLECTIONTILE
360
16
  3
REFRACTIONTILE
360
18
  3
SPECULARTILE
360
15
  0
DICTIONARY
  5
22
330
21
100
AcDbDictionary
280
     1
281
     1
  3
BUMPTILE
360
24
  3
DIFFUSETILE
360
23
  3
OPACITYTILE
360
27
  3
REFLECTIONTILE
360
26
  3
REFRACTIONTILE
360
28
  3
SPECULARTILE
360
25
  0
DICTIONARY
  5
2F9
330
69
100
AcDbDictionary
280
     1
281
     1
  3
ACAD_XREC_ROUNDTRIP
360
2FA
  0
DICTIONARY
  5
2F6
330
65
100
AcDbDictionary
280
     1
281
     1
  3
ACAD_ROUNDTRIP_2008_TABLESTYLE_CELLSTYLEMAP
360
2F7
  0
XRECORD
  5
2FC
102
{ACAD_REACTORS
330
2FB
102
}
330
2FB
100
AcDbXrecord
280
     1
102
DISPLAYNAME
  1
Imperial24
102
FLAGS
 90
        0
  0
XRECORD
  5
1C
102
{ACAD_REACTORS
330
1A
102
}
330
1A
100
AcDbXrecord
280
     1
270
     1
271
     1
  0
XRECORD
  5
1B
102
{ACAD_REACTORS
330
1A
102
}
330
1A
100
AcDbXrecord
280
     1
270
     1
271
     1
  0
XRECORD
  5
1F
102
{ACAD_REACTORS
330
1A
102
}
330
1A
100
AcDbXrecord
280
     1
270
     1
271
     1
  0
XRECORD
  5
1E
102
{ACAD_REACTORS
330
1A
102
}
330
1A
100
AcDbXrecord
280
     1
270
     1
271
     1
  0
XRECORD
  5
20
102
{ACAD_REACTORS
330
1A
102
}
330
1A
100
AcDbXrecord
280
     1
270
     1
271
     1
  0
XRECORD
  5
1D
102
{ACAD_REACTORS
330
1A
102
}
330
1A
100
AcDbXrecord
280
     1
270
     1
271
     1
  0
XRECORD
  5
14
102
{ACAD_REACTORS
330
12
102
}
330
12
100
AcDbXrecord
280
     1
270
     1
271
     1
  0
XRECORD
  5
13
102
{ACAD_REACTORS
330
12
102
}
330
12
100
AcDbXrecord
280
     1
270
     1
271
     1
  0
XRECORD
  5
17
102
{ACAD_REACTORS
330
12
102
}
330
12
100
AcDbXrecord
280
     1
270
     1
271
     1
  0
XRECORD
  5
16
102
{ACAD_REACTORS
330
12
102
}
330
12
100
AcDbXrecord
280
     1
270
     1
271
     1
  0
XRECORD
  5
18
102
{ACAD_REACTORS
330
12
102
}
330
12
100
AcDbXrecord
280
     1
270
     1
271
     1
  0
XRECORD
  5
15
102
{ACAD_REACTORS
330
12
102
}
330
12
100
AcDbXrecord
280
     1
270
     1
271
     1
  0
XRECORD
  5
24
102
{ACAD_REACTORS
330
22
102
}
330
22
100
AcDbXrecord
280
     1
270
     1
271
     1
  0
XRECORD
  5
23
102
{ACAD_REACTORS
330
22
102
}
330
22
100
AcDbXrecord
280
     1
270
     1
271
     1
  0
XRECORD
  5
27
102
{ACAD_REACTORS
330
22
102
}
330
22
100
AcDbXrecord
280
     1
270
     1
271
     1
  0
XRECORD
  5
26
102
{ACAD_REACTORS
330
22
102
}
330
22
100
AcDbXrecord
280
     1
270
     1
271
     1
  0
XRECORD
  5
28
102
{ACAD_REACTORS
330
22
102
}
330
22
100
AcDbXrecord
280
     1
270
     1
271
     1
  0
XRECORD
  5
25
102
{ACAD_REACTORS
330
22
102
}
330
22
100
AcDbXrecord
280
     1
270
     1
271
     1
  0
XRECORD
  5
2FA
102
{ACAD_REACTORS
330
2F9
102
}
330
2F9
100
AcDbXrecord
280
     1
102
DISPLAYNAME
  1
Imperial24
102
FLAGS
 90
        0
  0
CELLSTYLEMAP
  5
2F7
102
{ACAD_REACTORS
330
2F6
102
}
330
2F6
100
AcDbCellStyleMap
 90
        3
300
CELLSTYLE
  1
TABLEFORMAT_BEGIN
 90
        5
170
     1
 91
        0
 92
    32768
 62
   257
 93
        1
300
CONTENTFORMAT
  1
CONTENTFORMAT_BEGIN
 90
        0
 91
        0
 92
      512
 93
        0
300

 40
0.0
140
1.0
 94
        5
 62
     0
340
55
144
0.25
309
CONTENTFORMAT_END
171
     0
 94
        0
309
TABLEFORMAT_END
  1
CELLSTYLE_BEGIN
 90
        1
 91
        1
300
_TITLE
309
CELLSTYLE_END
300
CELLSTYLE
  1
TABLEFORMAT_BEGIN
 90
        5
170
     1
 91
        0
 92
        0
 62
   257
 93
        1
300
CONTENTFORMAT
  1
CONTENTFORMAT_BEGIN
 90
        0
 91
        0
 92
      512
 93
        0
300

 40
0.0
140
1.0
 94
        5
 62
     0
340
55
144
0.18
309
CONTENTFORMAT_END
171
     0
 94
        0
309
TABLEFORMAT_END
  1
CELLSTYLE_BEGIN
 90
        2
 91
        1
300
_HEADER
309
CELLSTYLE_END
300
CELLSTYLE
  1
TABLEFORMAT_BEGIN
 90
        5
170
     1
 91
        0
 92
        0
 62
   257
 93
        1
300
CONTENTFORMAT
  1
CONTENTFORMAT_BEGIN
 90
        0
 91
        0
 92
      512
 93
        0
300

 40
0.0
140
1.0
 94
        2
 62
     0
340
55
144
0.18
309
CONTENTFORMAT_END
171
     0
 94
        0
309
TABLEFORMAT_END
  1
CELLSTYLE_BEGIN
 90
        3
 91
        2
300
_DATA
309
CELLSTYLE_END
  0
ENDSEC
  0
EOF
