  0
SECTION
  2
HEADER
  9
$ACADVER
  1
AC1027
  9
$ACADMAINTVER
 70
   125
  9
$DWGCODEPAGE
  3
ANSI_1252
  9
$LASTSAVEDBY
  1
ufficio.tecnico
  9
$REQUIREDVERSIONS
160
                 0
  9
$INSBASE
 10
0.0
 20
0.0
 30
0.0
  9
$EXTMIN
 10
27.10983904130602
 20
-95.38229792315108
 30
0.0
  9
$EXTMAX
 10
72.76656247378075
 20
3.194953154628386
 30
0.0
  9
$LIMMIN
 10
0.0
 20
0.0
  9
$LIMMAX
 10
12.0
 20
9.0
  9
$ORTHOMODE
 70
     0
  9
$REGENMODE
 70
     1
  9
$FILLMODE
 70
     1
  9
$QTEXTMODE
 70
     0
  9
$MIRRTEXT
 70
     0
  9
$LTSCALE
 40
1.0
  9
$ATTMODE
 70
     1
  9
$TEXTSIZE
 40
0.2
  9
$TRACEWID
 40
0.05
  9
$TEXTSTYLE
  7
Standard
  9
$CLAYER
  8
0
  9
$CELTYPE
  6
ByLayer
  9
$CECOLOR
 62
   256
  9
$CELTSCALE
 40
1.0
  9
$DISPSILH
 70
     0
  9
$DIMSCALE
 40
1.0
  9
$DIMASZ
 40
0.18
  9
$DIMEXO
 40
0.0625
  9
$DIMDLI
 40
0.38
  9
$DIMRND
 40
0.0
  9
$DIMDLE
 40
0.0
  9
$DIMEXE
 40
0.18
  9
$DIMTP
 40
0.0
  9
$DIMTM
 40
0.0
  9
$DIMTXT
 40
0.18
  9
$DIMCEN
 40
0.09
  9
$DIMTSZ
 40
0.0
  9
$DIMTOL
 70
     0
  9
$DIMLIM
 70
     0
  9
$DIMTIH
 70
     1
  9
$DIMTOH
 70
     1
  9
$DIMSE1
 70
     0
  9
$DIMSE2
 70
     0
  9
$DIMTAD
 70
     0
  9
$DIMZIN
 70
     0
  9
$DIMBLK
  1

  9
$DIMASO
 70
     1
  9
$DIMSHO
 70
     1
  9
$DIMPOST
  1

  9
$DIMAPOST
  1

  9
$DIMALT
 70
     0
  9
$DIMALTD
 70
     2
  9
$DIMALTF
 40
25.4
  9
$DIMLFAC
 40
1.0
  9
$DIMTOFL
 70
     0
  9
$DIMTVP
 40
0.0
  9
$DIMTIX
 70
     0
  9
$DIMSOXD
 70
     0
  9
$DIMSAH
 70
     0
  9
$DIMBLK1
  1

  9
$DIMBLK2
  1

  9
$DIMSTYLE
  2
Standard
  9
$DIMCLRD
 70
     0
  9
$DIMCLRE
 70
     0
  9
$DIMCLRT
 70
     0
  9
$DIMTFAC
 40
1.0
  9
$DIMGAP
 40
0.09
  9
$DIMJUST
 70
     0
  9
$DIMSD1
 70
     0
  9
$DIMSD2
 70
     0
  9
$DIMTOLJ
 70
     1
  9
$DIMTZIN
 70
     0
  9
$DIMALTZ
 70
     0
  9
$DIMALTTZ
 70
     0
  9
$DIMUPT
 70
     0
  9
$DIMDEC
 70
     4
  9
$DIMTDEC
 70
     4
  9
$DIMALTU
 70
     2
  9
$DIMALTTD
 70
     2
  9
$DIMTXSTY
  7
Standard
  9
$DIMAUNIT
 70
     0
  9
$DIMADEC
 70
     0
  9
$DIMALTRND
 40
0.0
  9
$DIMAZIN
 70
     0
  9
$DIMDSEP
 70
    46
  9
$DIMATFIT
 70
     3
  9
$DIMFRAC
 70
     0
  9
$DIMLDRBLK
  1

  9
$DIMLUNIT
 70
     2
  9
$DIMLWD
 70
    -2
  9
$DIMLWE
 70
    -2
  9
$DIMTMOVE
 70
     0
  9
$DIMFXL
 40
1.0
  9
$DIMFXLON
 70
     0
  9
$DIMJOGANG
 40
0.7853981633974483
  9
$DIMTFILL
 70
     0
  9
$DIMTFILLCLR
 70
     0
  9
$DIMARCSYM
 70
     0
  9
$DIMLTYPE
  6

  9
$DIMLTEX1
  6

  9
$DIMLTEX2
  6

  9
$DIMTXTDIRECTION
 70
     0
  9
$LUNITS
 70
     2
  9
$LUPREC
 70
     4
  9
$SKETCHINC
 40
0.1
  9
$FILLETRAD
 40
0.0
  9
$AUNITS
 70
     0
  9
$AUPREC
 70
     0
  9
$MENU
  1
.
  9
$ELEVATION
 40
0.0
  9
$PELEVATION
 40
0.0
  9
$THICKNESS
 40
0.0
  9
$LIMCHECK
 70
     0
  9
$CHAMFERA
 40
0.0
  9
$CHAMFERB
 40
0.0
  9
$CHAMFERC
 40
0.0
  9
$CHAMFERD
 40
0.0
  9
$SKPOLY
 70
     0
  9
$TDCREATE
 40
2459781.444259260
  9
$TDUCREATE
 40
2459781.360925926
  9
$TDUPDATE
 40
2459781.626770833
  9
$TDUUPDATE
 40
2459781.543437500
  9
$TDINDWG
 40
0.0105555556
  9
$TDUSRTIMER
 40
0.0105555556
  9
$USRTIMER
 70
     1
  9
$ANGBASE
 50
0.0
  9
$ANGDIR
 70
     0
  9
$PDMODE
 70
     0
  9
$PDSIZE
 40
0.0
  9
$PLINEWID
 40
0.0
  9
$SPLFRAME
 70
     0
  9
$SPLINETYPE
 70
     6
  9
$SPLINESEGS
 70
     8
  9
$HANDSEED
  5
1D4
  9
$SURFTAB1
 70
     6
  9
$SURFTAB2
 70
     6
  9
$SURFTYPE
 70
     6
  9
$SURFU
 70
     6
  9
$SURFV
 70
     6
  9
$UCSBASE
  2

  9
$UCSNAME
  2

  9
$UCSORG
 10
0.0
 20
0.0
 30
0.0
  9
$UCSXDIR
 10
1.0
 20
0.0
 30
0.0
  9
$UCSYDIR
 10
0.0
 20
1.0
 30
0.0
  9
$UCSORTHOREF
  2

  9
$UCSORTHOVIEW
 70
     0
  9
$UCSORGTOP
 10
0.0
 20
0.0
 30
0.0
  9
$UCSORGBOTTOM
 10
0.0
 20
0.0
 30
0.0
  9
$UCSORGLEFT
 10
0.0
 20
0.0
 30
0.0
  9
$UCSORGRIGHT
 10
0.0
 20
0.0
 30
0.0
  9
$UCSORGFRONT
 10
0.0
 20
0.0
 30
0.0
  9
$UCSORGBACK
 10
0.0
 20
0.0
 30
0.0
  9
$PUCSBASE
  2

  9
$PUCSNAME
  2

  9
$PUCSORG
 10
0.0
 20
0.0
 30
0.0
  9
$PUCSXDIR
 10
1.0
 20
0.0
 30
0.0
  9
$PUCSYDIR
 10
0.0
 20
1.0
 30
0.0
  9
$PUCSORTHOREF
  2

  9
$PUCSORTHOVIEW
 70
     0
  9
$PUCSORGTOP
 10
0.0
 20
0.0
 30
0.0
  9
$PUCSORGBOTTOM
 10
0.0
 20
0.0
 30
0.0
  9
$PUCSORGLEFT
 10
0.0
 20
0.0
 30
0.0
  9
$PUCSORGRIGHT
 10
0.0
 20
0.0
 30
0.0
  9
$PUCSORGFRONT
 10
0.0
 20
0.0
 30
0.0
  9
$PUCSORGBACK
 10
0.0
 20
0.0
 30
0.0
  9
$USERI1
 70
     0
  9
$USERI2
 70
     0
  9
$USERI3
 70
     0
  9
$USERI4
 70
     0
  9
$USERI5
 70
     0
  9
$USERR1
 40
0.0
  9
$USERR2
 40
0.0
  9
$USERR3
 40
0.0
  9
$USERR4
 40
0.0
  9
$USERR5
 40
0.0
  9
$WORLDVIEW
 70
     1
  9
$SHADEDGE
 70
     3
  9
$SHADEDIF
 70
    70
  9
$TILEMODE
 70
     1
  9
$MAXACTVP
 70
    64
  9
$PINSBASE
 10
0.0
 20
0.0
 30
0.0
  9
$PLIMCHECK
 70
     0
  9
$PEXTMIN
 10
1.000000000000000E+20
 20
1.000000000000000E+20
 30
1.000000000000000E+20
  9
$PEXTMAX
 10
-1.000000000000000E+20
 20
-1.000000000000000E+20
 30
-1.000000000000000E+20
  9
$PLIMMIN
 10
0.0
 20
0.0
  9
$PLIMMAX
 10
12.0
 20
9.0
  9
$UNITMODE
 70
     0
  9
$VISRETAIN
 70
     1
  9
$PLINEGEN
 70
     0
  9
$PSLTSCALE
 70
     1
  9
$TREEDEPTH
 70
  3020
  9
$CMLSTYLE
  2
Standard
  9
$CMLJUST
 70
     0
  9
$CMLSCALE
 40
1.0
  9
$PROXYGRAPHICS
 70
     1
  9
$MEASUREMENT
 70
     0
  9
$CELWEIGHT
370
    -1
  9
$ENDCAPS
280
     0
  9
$JOINSTYLE
280
     0
  9
$LWDISPLAY
290
     1
  9
$INSUNITS
 70
     4
  9
$HYPERLINKBASE
  1

  9
$STYLESHEET
  1

  9
$XEDIT
290
     1
  9
$CEPSNTYPE
380
     0
  9
$PSTYLEMODE
290
     1
  9
$FINGERPRINTGUID
  2
{4CCCEB4C-606E-6649-BE1C-733A21411AA3}
  9
$VERSIONGUID
  2
{11EE4CA3-D18B-C14A-BF1B-4473CF42E860}
  9
$EXTNAMES
290
     1
  9
$PSVPSCALE
 40
0.0
  9
$OLESTARTUP
290
     0
  9
$SORTENTS
280
   127
  9
$INDEXCTL
280
     0
  9
$HIDETEXT
280
     1
  9
$XCLIPFRAME
280
     2
  9
$HALOGAP
280
     0
  9
$OBSCOLOR
 70
   257
  9
$OBSLTYPE
280
     0
  9
$INTERSECTIONDISPLAY
280
     0
  9
$INTERSECTIONCOLOR
 70
   257
  9
$DIMASSOC
280
     2
  9
$PROJECTNAME
  1

  9
$CAMERADISPLAY
290
     0
  9
$LENSLENGTH
 40
50.0
  9
$CAMERAHEIGHT
 40
0.0
  9
$STEPSPERSEC
 40
2.0
  9
$STEPSIZE
 40
6.0
  9
$3DDWFPREC
 40
2.0
  9
$PSOLWIDTH
 40
0.25
  9
$PSOLHEIGHT
 40
4.0
  9
$LOFTANG1
 40
1.570796326794896
  9
$LOFTANG2
 40
1.570796326794896
  9
$LOFTMAG1
 40
0.0
  9
$LOFTMAG2
 40
0.0
  9
$LOFTPARAM
 70
     7
  9
$LOFTNORMALS
280
     1
  9
$LATITUDE
 40
37.795
  9
$LONGITUDE
 40
-122.394
  9
$NORTHDIRECTION
 40
0.0
  9
$TIMEZONE
 70
 -8000
  9
$LIGHTGLYPHDISPLAY
280
     1
  9
$TILEMODELIGHTSYNCH
280
     1
  9
$CMATERIAL
347
11
  9
$SOLIDHIST
280
     0
  9
$SHOWHIST
280
     1
  9
$DWFFRAME
280
     2
  9
$DGNFRAME
280
     0
  9
$REALWORLDSCALE
290
     1
  9
$INTERFERECOLOR
 62
     1
  9
$INTERFEREOBJVS
345
33
  9
$INTERFEREVPVS
346
30
  9
$CSHADOW
280
     0
  9
$SHADOWPLANELOCATION
 40
0.0
  0
ENDSEC
  0
SECTION
  2
CLASSES
  0
CLASS
  1
ACDBDICTIONARYWDFLT
  2
AcDbDictionaryWithDefault
  3
ObjectDBX Classes
 90
        0
 91
        1
280
     0
281
     0
  0
CLASS
  1
MATERIAL
  2
AcDbMaterial
  3
ObjectDBX Classes
 90
     1153
 91
        3
280
     0
281
     0
  0
CLASS
  1
VISUALSTYLE
  2
AcDbVisualStyle
  3
ObjectDBX Classes
 90
     4095
 91
       24
280
     0
281
     0
  0
CLASS
  1
SCALE
  2
AcDbScale
  3
ObjectDBX Classes
 90
     1153
 91
       17
280
     0
281
     0
  0
CLASS
  1
TABLESTYLE
  2
AcDbTableStyle
  3
ObjectDBX Classes
 90
     4095
 91
        1
280
     0
281
     0
  0
CLASS
  1
MLEADERSTYLE
  2
AcDbMLeaderStyle
  3
ACDB_MLEADERSTYLE_CLASS
 90
     4095
 91
        1
280
     0
281
     0
  0
CLASS
  1
ACDBSECTIONVIEWSTYLE
  2
AcDbSectionViewStyle
  3
ObjectDBX Classes
 90
     1025
 91
        1
280
     0
281
     0
  0
CLASS
  1
ACDBDETAILVIEWSTYLE
  2
AcDbDetailViewStyle
  3
ObjectDBX Classes
 90
     1025
 91
        1
280
     0
281
     0
  0
CLASS
  1
DICTIONARYVAR
  2
AcDbDictionaryVar
  3
ObjectDBX Classes
 90
        0
 91
        6
280
     0
281
     0
  0
CLASS
  1
SORTENTSTABLE
  2
AcDbSortentsTable
  3
ObjectDBX Classes
 90
        0
 91
        3
280
     0
281
     0
  0
CLASS
  1
CELLSTYLEMAP
  2
AcDbCellStyleMap
  3
ObjectDBX Classes
 90
     1152
 91
        8
280
     0
281
     0
  0
ENDSEC
  0
SECTION
  2
TABLES
  0
TABLE
  2
VPORT
  5
8
330
0
100
AcDbSymbolTable
 70
     1
1001
ACAD
1000
DbSaveVer
1071
      249
  0
VPORT
  5
57
330
8
100
AcDbSymbolTableRecord
100
AcDbViewportTableRecord
  2
*Active
 70
     0
 10
0.0
 20
0.0
 11
1.0
 21
1.0
 12
52.96178974772391
 22
-36.2535151300059
 13
0.0
 23
0.0
 14
1.0
 24
1.0
 15
0.0
 25
0.0
 16
0.0
 26
0.0
 36
1.0
 17
49.99999998749409
 27
-49.99999998749409
 37
0.0
 40
108.8274826524833
 41
1.88556566970091
 42
50.0
 43
0.0
 44
0.0
 50
0.0
 51
0.0
 71
     0
 72
   100
 73
     1
 74
     1
 75
     0
 76
     0
 77
     0
 78
     0
281
     0
 65
     1
110
0.0
120
0.0
130
0.0
111
1.0
121
0.0
131
0.0
112
0.0
122
1.0
132
0.0
 79
     0
146
0.0
348
2F
 60
     3
 61
     5
292
     1
282
     1
141
0.0
142
0.0
 63
   250
421
  3355443
1001
ACAD_NAV_VCDISPLAY
1070
     3
  0
ENDTAB
  0
TABLE
  2
LTYPE
  5
5
330
0
100
AcDbSymbolTable
 70
     2
  0
LTYPE
  5
5B
330
5
100
AcDbSymbolTableRecord
100
AcDbLinetypeTableRecord
  2
ByBlock
 70
     0
  3

 72
    65
 73
     0
 40
0.0
  0
LTYPE
  5
5C
330
5
100
AcDbSymbolTableRecord
100
AcDbLinetypeTableRecord
  2
ByLayer
 70
     0
  3

 72
    65
 73
     0
 40
0.0
  0
LTYPE
  5
5D
330
5
100
AcDbSymbolTableRecord
100
AcDbLinetypeTableRecord
  2
Continuous
 70
     0
  3
Solid line
 72
    65
 73
     0
 40
0.0
  0
ENDTAB
  0
TABLE
  2
LAYER
  5
2
102
{ACAD_XDICTIONARY
360
11B
102
}
330
0
100
AcDbSymbolTable
 70
     3
  0
LAYER
  5
54
330
2
100
AcDbSymbolTableRecord
100
AcDbLayerTableRecord
  2
0
 70
     0
 62
     7
  6
Continuous
370
    -3
390
F
347
21
348
0
  0
LAYER
  5
78
330
2
100
AcDbSymbolTableRecord
100
AcDbLayerTableRecord
  2
Livello 1
 70
     0
 62
     7
  6
Continuous
370
     0
390
F
347
21
348
0
  0
LAYER
  5
84
330
2
100
AcDbSymbolTableRecord
100
AcDbLayerTableRecord
  2
Livello 2
 70
     0
 62
     7
  6
Continuous
370
     0
390
F
347
21
348
0
  0
ENDTAB
  0
TABLE
  2
STYLE
  5
3
330
0
100
AcDbSymbolTable
 70
     2
  0
STYLE
  5
55
330
3
100
AcDbSymbolTableRecord
100
AcDbTextStyleTableRecord
  2
Standard
 70
     0
 40
0.0
 41
1.0
 50
0.0
 71
     0
 42
0.2
  3
txt
  4

  0
STYLE
  5
5A
330
3
100
AcDbSymbolTableRecord
100
AcDbTextStyleTableRecord
  2
Annotative
 70
     0
 40
0.0
 41
1.0
 50
0.0
 71
     0
 42
0.2
  3
txt
  4

1001
AcadAnnotative
1000
AnnotativeData
1002
{
1070
     1
1070
     1
1002
}
  0
ENDTAB
  0
TABLE
  2
VIEW
  5
6
330
0
100
AcDbSymbolTable
 70
     0
  0
ENDTAB
  0
TABLE
  2
UCS
  5
7
330
0
100
AcDbSymbolTable
 70
     0
  0
ENDTAB
  0
TABLE
  2
APPID
  5
9
330
0
100
AcDbSymbolTable
 70
     5
  0
APPID
  5
56
330
9
100
AcDbSymbolTableRecord
100
AcDbRegAppTableRecord
  2
ACAD
 70
     0
  0
APPID
  5
5E
330
9
100
AcDbSymbolTableRecord
100
AcDbRegAppTableRecord
  2
AcadAnnotative
 70
     0
  0
APPID
  5
121
330
9
100
AcDbSymbolTableRecord
100
AcDbRegAppTableRecord
  2
ACAD_NAV_VCDISPLAY
 70
     0
  0
APPID
  5
15D
330
9
100
AcDbSymbolTableRecord
100
AcDbRegAppTableRecord
  2
ACAD_MLEADERVER
 70
     0
  0
APPID
  5
16B
330
9
100
AcDbSymbolTableRecord
100
AcDbRegAppTableRecord
  2
ACAD_EXEMPT_FROM_CAD_STANDARDS
 70
     0
  0
ENDTAB
  0
TABLE
  2
DIMSTYLE
  5
A
330
0
100
AcDbSymbolTable
 70
     2
100
AcDbDimStyleTable
 71
     0
  0
DIMSTYLE
105
58
330
A
100
AcDbSymbolTableRecord
100
AcDbDimStyleTableRecord
  2
Standard
 70
     0
340
55
  0
DIMSTYLE
105
59
330
A
100
AcDbSymbolTableRecord
100
AcDbDimStyleTableRecord
  2
Annotative
 70
     0
340
55
1001
AcadAnnotative
1000
AnnotativeData
1002
{
1070
     1
1070
     1
1002
}
  0
ENDTAB
  0
TABLE
  2
BLOCK_RECORD
  5
1
330
0
100
AcDbSymbolTable
 70
    10
  0
BLOCK_RECORD
  5
70
102
{ACAD_XDICTIONARY
360
105
102
}
330
1
100
AcDbSymbolTableRecord
100
AcDbBlockTableRecord
  2
*Model_Space
340
73
 70
     0
280
     1
281
     0
  0
BLOCK_RECORD
  5
6C
330
1
100
AcDbSymbolTableRecord
100
AcDbBlockTableRecord
  2
*Paper_Space
340
6F
 70
     0
280
     1
281
     0
  0
BLOCK_RECORD
  5
74
330
1
100
AcDbSymbolTableRecord
100
AcDbBlockTableRecord
  2
*Paper_Space0
340
77
 70
     0
280
     1
281
     0
  0
BLOCK_RECORD
  5
7A
330
1
100
AcDbSymbolTableRecord
100
AcDbBlockTableRecord
  2
Block_0
340
0
 70
     0
280
     1
281
     0
  0
BLOCK_RECORD
  5
85
330
1
100
AcDbSymbolTableRecord
100
AcDbBlockTableRecord
  2
Block_1
340
0
 70
     0
280
     1
281
     0
  0
BLOCK_RECORD
  5
89
330
1
100
AcDbSymbolTableRecord
100
AcDbBlockTableRecord
  2
Block_2
340
0
102
{BLKREFS
331
8A
102
}
 70
     0
280
     1
281
     0
  0
BLOCK_RECORD
  5
9A
330
1
100
AcDbSymbolTableRecord
100
AcDbBlockTableRecord
  2
Block_3
340
0
 70
     0
280
     1
281
     0
  0
BLOCK_RECORD
  5
9E
330
1
100
AcDbSymbolTableRecord
100
AcDbBlockTableRecord
  2
Block_4
340
0
102
{BLKREFS
331
9F
102
}
 70
     0
280
     1
281
     0
  0
BLOCK_RECORD
  5
B0
330
1
100
AcDbSymbolTableRecord
100
AcDbBlockTableRecord
  2
Block_5
340
0
 70
     0
280
     1
281
     0
  0
BLOCK_RECORD
  5
B4
330
1
100
AcDbSymbolTableRecord
100
AcDbBlockTableRecord
  2
Block_6
340
0
102
{BLKREFS
331
B5
102
}
 70
     0
280
     1
281
     0
  0
ENDTAB
  0
ENDSEC
  0
SECTION
  2
BLOCKS
  0
BLOCK
  5
71
330
70
100
AcDbEntity
  8
0
100
AcDbBlockBegin
  2
*Model_Space
 70
     0
 10
0.0
 20
0.0
 30
0.0
  3
*Model_Space
  1

  0
ENDBLK
  5
72
330
70
100
AcDbEntity
  8
0
100
AcDbBlockEnd
  0
BLOCK
  5
6D
330
6C
100
AcDbEntity
 67
     1
  8
0
100
AcDbBlockBegin
  2
*Paper_Space
 70
     0
 10
0.0
 20
0.0
 30
0.0
  3
*Paper_Space
  1

  0
ENDBLK
  5
6E
330
6C
100
AcDbEntity
 67
     1
  8
0
100
AcDbBlockEnd
  0
BLOCK
  5
75
330
74
100
AcDbEntity
 67
     1
  8
0
100
AcDbBlockBegin
  2
*Paper_Space0
 70
     0
 10
0.0
 20
0.0
 30
0.0
  3
*Paper_Space0
  1

  0
ENDBLK
  5
76
330
74
100
AcDbEntity
 67
     1
  8
0
100
AcDbBlockEnd
  0
BLOCK
  5
7C
330
7A
100
AcDbEntity
  8
0
100
AcDbBlockBegin
  2
Block_0
 70
     0
 10
0.0
 20
0.0
 30
0.0
  3
Block_0
  1

  0
CIRCLE
  5
7E
330
7A
100
AcDbEntity
  8
Livello 1
 62
   250
420
  1907995
370
     9
100
AcDbCircle
 10
52.05992062279228
 20
-65.81012543275878
 30
0.0
 40
17.72017408789398
  0
SPLINE
  5
7F
330
7A
100
AcDbEntity
  8
Livello 1
 62
   250
420
  1907995
370
     9
100
AcDbSpline
210
0.0
220
0.0
230
1.0
 70
     9
 71
     3
 72
    17
 73
    13
 74
     0
 42
0.000000001
 43
0.0000000001
 40
0.0
 40
0.0
 40
0.0
 40
0.0
 40
1.0
 40
1.0
 40
1.0
 40
2.0
 40
2.0
 40
2.0
 40
3.0
 40
3.0
 40
3.0
 40
4.0
 40
4.0
 40
4.0
 40
4.0
 10
52.05987140625587
 20
-48.3544989570954
 30
0.0
 10
42.4347913847906
 20
-48.3544989570954
 30
0.0
 10
34.604261601592
 20
-56.18502874029402
 30
0.0
 10
34.604261601592
 20
-65.81028101653354
 30
0.0
 10
34.604261601592
 20
-75.43518878322455
 30
0.0
 10
42.4347913847906
 20
-83.26554631164889
 30
0.0
 10
52.05987140625587
 20
-83.26554631164889
 30
0.0
 10
61.68477917294686
 20
-83.26554631164889
 30
0.0
 10
69.51548121091974
 20
-75.43518878322455
 30
0.0
 10
69.51548121091974
 20
-65.81028101653354
 30
0.0
 10
69.51548121091974
 20
-56.18502874029402
 30
0.0
 10
61.68477917294686
 20
-48.3544989570954
 30
0.0
 10
52.05987140625587
 20
-48.3544989570954
 30
0.0
  0
SPLINE
  5
80
330
7A
100
AcDbEntity
  8
Livello 1
 62
   250
420
  1907995
370
     9
100
AcDbSpline
210
0.0
220
0.0
230
1.0
 70
     9
 71
     3
 72
    17
 73
    13
 74
     0
 42
0.000000001
 43
0.0000000001
 40
0.0
 40
0.0
 40
0.0
 40
0.0
 40
1.0
 40
1.0
 40
1.0
 40
2.0
 40
2.0
 40
2.0
 40
3.0
 40
3.0
 40
3.0
 40
4.0
 40
4.0
 40
4.0
 40
4.0
 10
52.05987140625587
 20
-83.79471297818327
 30
0.0
 10
42.14299179718994
 20
-83.79471297818327
 30
0.0
 10
34.07509493505762
 20
-75.72698837082519
 30
0.0
 10
34.07509493505762
 20
-65.81028101653354
 30
0.0
 10
34.07509493505762
 20
-55.89322915269336
 30
0.0
 10
42.14299179718994
 20
-47.82533229056102
 30
0.0
 10
52.05987140625587
 20
-47.82533229056102
 30
0.0
 10
61.97657876054752
 20
-47.82533229056102
 30
0.0
 10
70.04464787745412
 20
-55.89322915269336
 30
0.0
 10
70.04464787745412
 20
-65.81028101653354
 30
0.0
 10
70.04464787745412
 20
-75.72698837082519
 30
0.0
 10
61.97657876054752
 20
-83.79471297818327
 30
0.0
 10
52.05987140625587
 20
-83.79471297818327
 30
0.0
  0
ENDBLK
  5
7D
330
7A
100
AcDbEntity
  8
0
100
AcDbBlockEnd
  0
BLOCK
  5
87
330
85
100
AcDbEntity
  8
0
100
AcDbBlockBegin
  2
Block_1
 70
     0
 10
0.0
 20
0.0
 30
0.0
  3
Block_1
  1

  0
INSERT
  5
8A
330
85
100
AcDbEntity
  8
Livello 2
100
AcDbBlockReference
  2
Block_2
 10
0.0
 20
0.0
 30
0.0
  0
ENDBLK
  5
88
330
85
100
AcDbEntity
  8
0
100
AcDbBlockEnd
  0
BLOCK
  5
8B
330
89
100
AcDbEntity
  8
0
100
AcDbBlockBegin
  2
Block_2
 70
     0
 10
0.0
 20
0.0
 30
0.0
  3
Block_2
  1

  0
SPLINE
  5
8D
330
89
100
AcDbEntity
  8
Livello 2
100
AcDbSpline
210
0.0
220
0.0
230
1.0
 70
    11
 71
     3
 72
    26
 73
    22
 74
     0
 42
0.000000001
 43
0.0000000001
 40
0.0
 40
0.0
 40
0.0
 40
0.0
 40
1.0
 40
1.0
 40
1.0
 40
2.0
 40
2.0
 40
2.0
 40
3.0
 40
3.0
 40
3.0
 40
4.0
 40
4.0
 40
4.0
 40
5.0
 40
5.0
 40
5.0
 40
6.0
 40
6.0
 40
6.0
 40
7.0
 40
7.0
 40
7.0
 40
7.0
 10
45.38379312016447
 20
-89.70167369719264
 30
0.0
 10
45.38379312016447
 20
-89.70167369719264
 30
0.0
 10
45.38379312016447
 20
-88.78355575037357
 30
0.0
 10
45.38379312016447
 20
-88.78355575037357
 30
0.0
 10
45.38379312016447
 20
-88.63955075909011
 30
0.0
 10
45.38809948952103
 20
-88.4958902773552
 30
0.0
 10
45.39653997345989
 20
-88.35188528607174
 30
0.0
 10
45.39653997345989
 20
-88.35188528607174
 30
0.0
 10
45.38379312016447
 20
-88.35188528607174
 30
0.0
 10
45.38379312016447
 20
-88.35188528607174
 30
0.0
 10
45.29921602600158
 20
-88.51277124523292
 30
0.0
 10
45.23151989971642
 20
-88.63128252992551
 30
0.0
 10
45.1553832894924
 20
-88.75806204378271
 30
0.0
 10
45.1553832894924
 20
-88.75806204378271
 30
0.0
 10
44.48272839599737
 20
-89.69306095847953
 30
0.0
 10
44.48272839599737
 20
-89.69306095847953
 30
0.0
 10
44.48272839599737
 20
-89.69306095847953
 30
0.0
 10
44.48272839599737
 20
-89.70167369719264
 30
0.0
 10
44.48272839599737
 20
-89.70167369719264
 30
0.0
 10
44.48272839599737
 20
-89.70167369719264
 30
0.0
 10
45.38379312016447
 20
-89.70167369719264
 30
0.0
 10
45.38379312016447
 20
-89.70167369719264
 30
0.0
  0
SPLINE
  5
8E
330
89
100
AcDbEntity
  8
Livello 2
100
AcDbSpline
210
0.0
220
0.0
230
1.0
 70
    11
 71
     3
 72
    38
 73
    34
 74
     0
 42
0.000000001
 43
0.0000000001
 40
0.0
 40
0.0
 40
0.0
 40
0.0
 40
1.0
 40
1.0
 40
1.0
 40
2.0
 40
2.0
 40
2.0
 40
3.0
 40
3.0
 40
3.0
 40
4.0
 40
4.0
 40
4.0
 40
5.0
 40
5.0
 40
5.0
 40
6.0
 40
6.0
 40
6.0
 40
7.0
 40
7.0
 40
7.0
 40
8.0
 40
8.0
 40
8.0
 40
9.0
 40
9.0
 40
9.0
 40
10.0
 40
10.0
 40
10.0
 40
11.0
 40
11.0
 40
11.0
 40
11.0
 10
45.38379312016447
 20
-90.74243704328662
 30
0.0
 10
45.38379312016447
 20
-90.74243704328662
 30
0.0
 10
45.38379312016447
 20
-89.99347328479329
 30
0.0
 10
45.38379312016447
 20
-89.99347328479329
 30
0.0
 10
45.38379312016447
 20
-89.99347328479329
 30
0.0
 10
44.1060072046853
 20
-89.99347328479329
 30
0.0
 10
44.1060072046853
 20
-89.99347328479329
 30
0.0
 10
44.1060072046853
 20
-89.99347328479329
 30
0.0
 10
44.1060072046853
 20
-89.7481824862435
 30
0.0
 10
44.1060072046853
 20
-89.7481824862435
 30
0.0
 10
44.1060072046853
 20
-89.7481824862435
 30
0.0
 10
45.33315021653129
 20
-87.99221731741168
 30
0.0
 10
45.33315021653129
 20
-87.99221731741168
 30
0.0
 10
45.33315021653129
 20
-87.99221731741168
 30
0.0
 10
45.73502060488569
 20
-87.99221731741168
 30
0.0
 10
45.73502060488569
 20
-87.99221731741168
 30
0.0
 10
45.73502060488569
 20
-87.99221731741168
 30
0.0
 10
45.73502060488569
 20
-89.70167369719264
 30
0.0
 10
45.73502060488569
 20
-89.70167369719264
 30
0.0
 10
45.73502060488569
 20
-89.70167369719264
 30
0.0
 10
46.12001002536236
 20
-89.70167369719264
 30
0.0
 10
46.12001002536236
 20
-89.70167369719264
 30
0.0
 10
46.12001002536236
 20
-89.70167369719264
 30
0.0
 10
46.12001002536236
 20
-89.99347328479329
 30
0.0
 10
46.12001002536236
 20
-89.99347328479329
 30
0.0
 10
46.12001002536236
 20
-89.99347328479329
 30
0.0
 10
45.73502060488569
 20
-89.99347328479329
 30
0.0
 10
45.73502060488569
 20
-89.99347328479329
 30
0.0
 10
45.73502060488569
 20
-89.99347328479329
 30
0.0
 10
45.73502060488569
 20
-90.74243704328662
 30
0.0
 10
45.73502060488569
 20
-90.74243704328662
 30
0.0
 10
45.73502060488569
 20
-90.74243704328662
 30
0.0
 10
45.38379312016447
 20
-90.74243704328662
 30
0.0
 10
45.38379312016447
 20
-90.74243704328662
 30
0.0
  0
HATCH
  5
8F
330
89
100
AcDbEntity
  8
Livello 2
 62
   250
420
  1907995
440
 33554687
100
AcDbHatch
 10
0.0
 20
0.0
 30
0.0
210
0.0
220
0.0
230
1.0
  2
SOLID
 70
     1
 71
     1
 91
        2
 92
        1
 93
        1
 72
     4
 94
        3
 73
     0
 74
     0
 95
       26
 96
       22
 40
0.0
 40
0.0
 40
0.0
 40
0.0
 40
1.0
 40
1.0
 40
1.0
 40
2.0
 40
2.0
 40
2.0
 40
3.0
 40
3.0
 40
3.0
 40
4.0
 40
4.0
 40
4.0
 40
5.0
 40
5.0
 40
5.0
 40
6.0
 40
6.0
 40
6.0
 40
7.0
 40
7.0
 40
7.0
 40
7.0
 10
45.38379312016447
 20
-89.70167369719264
 10
45.38379312016447
 20
-89.70167369719264
 10
45.38379312016447
 20
-88.78355575037357
 10
45.38379312016447
 20
-88.78355575037357
 10
45.38379312016447
 20
-88.63955075909011
 10
45.38809948952103
 20
-88.4958902773552
 10
45.39653997345989
 20
-88.35188528607174
 10
45.39653997345989
 20
-88.35188528607174
 10
45.38379312016447
 20
-88.35188528607174
 10
45.38379312016447
 20
-88.35188528607174
 10
45.29921602600158
 20
-88.51277124523292
 10
45.23151989971642
 20
-88.63128252992551
 10
45.1553832894924
 20
-88.75806204378271
 10
45.1553832894924
 20
-88.75806204378271
 10
44.48272839599737
 20
-89.69306095847953
 10
44.48272839599737
 20
-89.69306095847953
 10
44.48272839599737
 20
-89.69306095847953
 10
44.48272839599737
 20
-89.70167369719264
 10
44.48272839599737
 20
-89.70167369719264
 10
44.48272839599737
 20
-89.70167369719264
 10
45.38379312016447
 20
-89.70167369719264
 10
45.38379312016447
 20
-89.70167369719264
 97
        0
 97
        1
330
8D
 92
        1
 93
        1
 72
     4
 94
        3
 73
     0
 74
     0
 95
       38
 96
       34
 40
0.0
 40
0.0
 40
0.0
 40
0.0
 40
1.0
 40
1.0
 40
1.0
 40
2.0
 40
2.0
 40
2.0
 40
3.0
 40
3.0
 40
3.0
 40
4.0
 40
4.0
 40
4.0
 40
5.0
 40
5.0
 40
5.0
 40
6.0
 40
6.0
 40
6.0
 40
7.0
 40
7.0
 40
7.0
 40
8.0
 40
8.0
 40
8.0
 40
9.0
 40
9.0
 40
9.0
 40
10.0
 40
10.0
 40
10.0
 40
11.0
 40
11.0
 40
11.0
 40
11.0
 10
45.38379312016447
 20
-90.74243704328662
 10
45.38379312016447
 20
-90.74243704328662
 10
45.38379312016447
 20
-89.99347328479329
 10
45.38379312016447
 20
-89.99347328479329
 10
45.38379312016447
 20
-89.99347328479329
 10
44.1060072046853
 20
-89.99347328479329
 10
44.1060072046853
 20
-89.99347328479329
 10
44.1060072046853
 20
-89.99347328479329
 10
44.1060072046853
 20
-89.7481824862435
 10
44.1060072046853
 20
-89.7481824862435
 10
44.1060072046853
 20
-89.7481824862435
 10
45.33315021653129
 20
-87.99221731741168
 10
45.33315021653129
 20
-87.99221731741168
 10
45.33315021653129
 20
-87.99221731741168
 10
45.73502060488569
 20
-87.99221731741168
 10
45.73502060488569
 20
-87.99221731741168
 10
45.73502060488569
 20
-87.99221731741168
 10
45.73502060488569
 20
-89.70167369719264
 10
45.73502060488569
 20
-89.70167369719264
 10
45.73502060488569
 20
-89.70167369719264
 10
46.12001002536236
 20
-89.70167369719264
 10
46.12001002536236
 20
-89.70167369719264
 10
46.12001002536236
 20
-89.70167369719264
 10
46.12001002536236
 20
-89.99347328479329
 10
46.12001002536236
 20
-89.99347328479329
 10
46.12001002536236
 20
-89.99347328479329
 10
45.73502060488569
 20
-89.99347328479329
 10
45.73502060488569
 20
-89.99347328479329
 10
45.73502060488569
 20
-89.99347328479329
 10
45.73502060488569
 20
-90.74243704328662
 10
45.73502060488569
 20
-90.74243704328662
 10
45.73502060488569
 20
-90.74243704328662
 10
45.38379312016447
 20
-90.74243704328662
 10
45.38379312016447
 20
-90.74243704328662
 97
        0
 97
        1
330
8E
 75
     2
 76
     1
 98
        1
 10
0.0
 20
0.0
450
        0
451
        0
460
0.0
461
0.0
452
        0
462
0.0
453
        0
470

  0
SPLINE
  5
90
330
89
100
AcDbEntity
  8
Livello 2
100
AcDbSpline
210
0.0
220
0.0
230
1.0
 70
    11
 71
     3
 72
    50
 73
    46
 74
     0
 42
0.000000001
 43
0.0000000001
 40
0.0
 40
0.0
 40
0.0
 40
0.0
 40
1.0
 40
1.0
 40
1.0
 40
2.0
 40
2.0
 40
2.0
 40
3.0
 40
3.0
 40
3.0
 40
4.0
 40
4.0
 40
4.0
 40
5.0
 40
5.0
 40
5.0
 40
6.0
 40
6.0
 40
6.0
 40
7.0
 40
7.0
 40
7.0
 40
8.0
 40
8.0
 40
8.0
 40
9.0
 40
9.0
 40
9.0
 40
10.0
 40
10.0
 40
10.0
 40
11.0
 40
11.0
 40
11.0
 40
12.0
 40
12.0
 40
12.0
 40
13.0
 40
13.0
 40
13.0
 40
14.0
 40
14.0
 40
14.0
 40
15.0
 40
15.0
 40
15.0
 40
15.0
 10
48.0463351659398
 20
-88.30537649702089
 30
0.0
 10
48.0463351659398
 20
-88.30537649702089
 30
0.0
 10
46.9969590811327
 20
-88.30537649702089
 30
0.0
 10
46.9969590811327
 20
-88.30537649702089
 30
0.0
 10
46.9969590811327
 20
-88.30537649702089
 30
0.0
 10
46.89119464973553
 20
-89.01196558104564
 30
0.0
 10
46.89119464973553
 20
-89.01196558104564
 30
0.0
 10
46.95458440666413
 20
-89.0033528423325
 30
0.0
 10
47.01384004901043
 20
-88.9950846131679
 30
0.0
 10
47.1154703658253
 20
-88.9950846131679
 30
0.0
 10
47.32699922861963
 20
-88.9950846131679
 30
0.0
 10
47.53852809141398
 20
-89.04159340221877
 30
0.0
 10
47.70768227973975
 20
-89.14322371903365
 30
0.0
 10
47.92368976666491
 20
-89.26586911830854
 30
0.0
 10
48.10111218415528
 20
-89.50289168769371
 30
0.0
 10
48.10111218415528
 20
-89.84981280305838
 30
0.0
 10
48.10111218415528
 20
-90.38690318920883
 30
0.0
 10
47.67392034398429
 20
-90.78894583233749
 30
0.0
 10
47.07740206071329
 20
-90.78894583233749
 30
0.0
 10
46.77698973439951
 20
-90.78894583233749
 30
0.0
 10
46.52308619713659
 20
-90.70419648340033
 30
0.0
 10
46.39200031392284
 20
-90.61979164401172
 30
0.0
 10
46.39200031392284
 20
-90.61979164401172
 30
0.0
 10
46.48501789202458
 20
-90.33626028557566
 30
0.0
 10
46.48501789202458
 20
-90.33626028557566
 30
0.0
 10
46.5992228073606
 20
-90.40378415708657
 30
0.0
 10
46.82349852345037
 20
-90.48853350602369
 30
0.0
 10
47.07309569135673
 20
-90.48853350602369
 30
0.0
 10
47.42415092130368
 20
-90.48853350602369
 30
0.0
 10
47.72456324761747
 20
-90.26012367535164
 30
0.0
 10
47.72456324761747
 20
-89.89184296797843
 30
0.0
 10
47.72042913303518
 20
-89.53665362344917
 30
0.0
 10
47.48340656364998
 20
-89.28275008618625
 30
0.0
 10
46.9335693242041
 20
-89.28275008618625
 30
0.0
 10
46.77698973439951
 20
-89.28275008618625
 30
0.0
 10
46.65417208035035
 20
-89.29963105406399
 30
0.0
 10
46.55271401830974
 20
-89.3123779073594
 30
0.0
 10
46.55271401830974
 20
-89.3123779073594
 30
0.0
 10
46.73048094534863
 20
-87.99221731741168
 30
0.0
 10
46.73048094534863
 20
-87.99221731741168
 30
0.0
 10
46.73048094534863
 20
-87.99221731741168
 30
0.0
 10
48.0463351659398
 20
-87.99221731741168
 30
0.0
 10
48.0463351659398
 20
-87.99221731741168
 30
0.0
 10
48.0463351659398
 20
-87.99221731741168
 30
0.0
 10
48.0463351659398
 20
-88.30537649702089
 30
0.0
 10
48.0463351659398
 20
-88.30537649702089
 30
0.0
  0
HATCH
  5
91
330
89
100
AcDbEntity
  8
Livello 2
 62
   250
420
  1907995
440
 33554687
100
AcDbHatch
 10
0.0
 20
0.0
 30
0.0
210
0.0
220
0.0
230
1.0
  2
SOLID
 70
     1
 71
     1
 91
        1
 92
        1
 93
        1
 72
     4
 94
        3
 73
     0
 74
     0
 95
       50
 96
       46
 40
0.0
 40
0.0
 40
0.0
 40
0.0
 40
1.0
 40
1.0
 40
1.0
 40
2.0
 40
2.0
 40
2.0
 40
3.0
 40
3.0
 40
3.0
 40
4.0
 40
4.0
 40
4.0
 40
5.0
 40
5.0
 40
5.0
 40
6.0
 40
6.0
 40
6.0
 40
7.0
 40
7.0
 40
7.0
 40
8.0
 40
8.0
 40
8.0
 40
9.0
 40
9.0
 40
9.0
 40
10.0
 40
10.0
 40
10.0
 40
11.0
 40
11.0
 40
11.0
 40
12.0
 40
12.0
 40
12.0
 40
13.0
 40
13.0
 40
13.0
 40
14.0
 40
14.0
 40
14.0
 40
15.0
 40
15.0
 40
15.0
 40
15.0
 10
48.0463351659398
 20
-88.30537649702089
 10
48.0463351659398
 20
-88.30537649702089
 10
46.9969590811327
 20
-88.30537649702089
 10
46.9969590811327
 20
-88.30537649702089
 10
46.9969590811327
 20
-88.30537649702089
 10
46.89119464973553
 20
-89.01196558104564
 10
46.89119464973553
 20
-89.01196558104564
 10
46.95458440666413
 20
-89.0033528423325
 10
47.01384004901043
 20
-88.9950846131679
 10
47.1154703658253
 20
-88.9950846131679
 10
47.32699922861963
 20
-88.9950846131679
 10
47.53852809141398
 20
-89.04159340221877
 10
47.70768227973975
 20
-89.14322371903365
 10
47.92368976666491
 20
-89.26586911830854
 10
48.10111218415528
 20
-89.50289168769371
 10
48.10111218415528
 20
-89.84981280305838
 10
48.10111218415528
 20
-90.38690318920883
 10
47.67392034398429
 20
-90.78894583233749
 10
47.07740206071329
 20
-90.78894583233749
 10
46.77698973439951
 20
-90.78894583233749
 10
46.52308619713659
 20
-90.70419648340033
 10
46.39200031392284
 20
-90.61979164401172
 10
46.39200031392284
 20
-90.61979164401172
 10
46.48501789202458
 20
-90.33626028557566
 10
46.48501789202458
 20
-90.33626028557566
 10
46.5992228073606
 20
-90.40378415708657
 10
46.82349852345037
 20
-90.48853350602369
 10
47.07309569135673
 20
-90.48853350602369
 10
47.42415092130368
 20
-90.48853350602369
 10
47.72456324761747
 20
-90.26012367535164
 10
47.72456324761747
 20
-89.89184296797843
 10
47.72042913303518
 20
-89.53665362344917
 10
47.48340656364998
 20
-89.28275008618625
 10
46.9335693242041
 20
-89.28275008618625
 10
46.77698973439951
 20
-89.28275008618625
 10
46.65417208035035
 20
-89.29963105406399
 10
46.55271401830974
 20
-89.3123779073594
 10
46.55271401830974
 20
-89.3123779073594
 10
46.73048094534863
 20
-87.99221731741168
 10
46.73048094534863
 20
-87.99221731741168
 10
46.73048094534863
 20
-87.99221731741168
 10
48.0463351659398
 20
-87.99221731741168
 10
48.0463351659398
 20
-87.99221731741168
 10
48.0463351659398
 20
-87.99221731741168
 10
48.0463351659398
 20
-88.30537649702089
 10
48.0463351659398
 20
-88.30537649702089
 97
        0
 97
        1
330
90
 75
     2
 76
     1
 98
        1
 10
0.0
 20
0.0
450
        0
451
        0
460
0.0
461
0.0
452
        0
462
0.0
453
        0
470

  0
SPLINE
  5
92
330
89
100
AcDbEntity
  8
Livello 2
100
AcDbSpline
210
0.0
220
0.0
230
1.0
 70
     9
 71
     3
 72
    17
 73
    13
 74
     0
 42
0.000000001
 43
0.0000000001
 40
0.0
 40
0.0
 40
0.0
 40
0.0
 40
1.0
 40
1.0
 40
1.0
 40
2.0
 40
2.0
 40
2.0
 40
3.0
 40
3.0
 40
3.0
 40
4.0
 40
4.0
 40
4.0
 40
4.0
 10
48.91070962318899
 20
-89.3799017788703
 30
0.0
 10
48.91070962318899
 20
-90.09510360160817
 30
0.0
 10
49.13085122469645
 20
-90.50128035931912
 30
0.0
 10
49.46915960134798
 20
-90.50128035931912
 30
0.0
 10
49.8498426524681
 20
-90.50128035931912
 30
0.0
 10
50.03174369408928
 20
-90.0568630417219
 30
0.0
 10
50.03174369408928
 20
-89.35475258182798
 30
0.0
 10
50.03174369408928
 20
-88.67779131897639
 30
0.0
 10
49.85845539118122
 20
-88.23337400137916
 30
0.0
 10
49.47329371593029
 20
-88.23337400137916
 30
0.0
 10
49.14773219257418
 20
-88.23337400137916
 30
0.0
 10
48.91070962318899
 20
-88.63128252992551
 30
0.0
 10
48.91070962318899
 20
-89.3799017788703
 30
0.0
  0
SPLINE
  5
93
330
89
100
AcDbEntity
  8
Livello 2
100
AcDbSpline
210
0.0
220
0.0
230
1.0
 70
     9
 71
     3
 72
    17
 73
    13
 74
     0
 42
0.000000001
 43
0.0000000001
 40
0.0
 40
0.0
 40
0.0
 40
0.0
 40
1.0
 40
1.0
 40
1.0
 40
2.0
 40
2.0
 40
2.0
 40
3.0
 40
3.0
 40
3.0
 40
4.0
 40
4.0
 40
4.0
 40
4.0
 10
50.40415851604479
 20
-89.33787161395025
 30
0.0
 10
50.40415851604479
 20
-90.27287052864705
 30
0.0
 10
50.05723740068013
 20
-90.78894583233749
 30
0.0
 10
49.44814451888796
 20
-90.78894583233749
 30
0.0
 10
48.91070962318899
 20
-90.78894583233749
 30
0.0
 10
48.54690753994661
 20
-90.28561738194248
 30
0.0
 10
48.53829480123348
 20
-89.37576766428801
 30
0.0
 10
48.53829480123348
 20
-88.45351560288662
 30
0.0
 10
48.93620332977985
 20
-87.94570852836079
 30
0.0
 10
49.49465330793884
 20
-87.94570852836079
 30
0.0
 10
50.07411836855786
 20
-87.94570852836079
 30
0.0
 10
50.40415851604479
 20
-88.46178383205122
 30
0.0
 10
50.40415851604479
 20
-89.33787161395025
 30
0.0
  0
HATCH
  5
94
330
89
100
AcDbEntity
  8
Livello 2
 62
   250
420
  1907995
440
 33554687
100
AcDbHatch
 10
0.0
 20
0.0
 30
0.0
210
0.0
220
0.0
230
1.0
  2
SOLID
 70
     1
 71
     1
 91
        2
 92
        1
 93
        1
 72
     4
 94
        3
 73
     0
 74
     0
 95
       17
 96
       13
 40
0.0
 40
0.0
 40
0.0
 40
0.0
 40
1.0
 40
1.0
 40
1.0
 40
2.0
 40
2.0
 40
2.0
 40
3.0
 40
3.0
 40
3.0
 40
4.0
 40
4.0
 40
4.0
 40
4.0
 10
48.91070962318899
 20
-89.3799017788703
 10
48.91070962318899
 20
-90.09510360160817
 10
49.13085122469645
 20
-90.50128035931912
 10
49.46915960134798
 20
-90.50128035931912
 10
49.8498426524681
 20
-90.50128035931912
 10
50.03174369408928
 20
-90.0568630417219
 10
50.03174369408928
 20
-89.35475258182798
 10
50.03174369408928
 20
-88.67779131897639
 10
49.85845539118122
 20
-88.23337400137916
 10
49.47329371593029
 20
-88.23337400137916
 10
49.14773219257418
 20
-88.23337400137916
 10
48.91070962318899
 20
-88.63128252992551
 10
48.91070962318899
 20
-89.3799017788703
 97
        0
 97
        1
330
92
 92
        1
 93
        1
 72
     4
 94
        3
 73
     0
 74
     0
 95
       17
 96
       13
 40
0.0
 40
0.0
 40
0.0
 40
0.0
 40
1.0
 40
1.0
 40
1.0
 40
2.0
 40
2.0
 40
2.0
 40
3.0
 40
3.0
 40
3.0
 40
4.0
 40
4.0
 40
4.0
 40
4.0
 10
50.40415851604479
 20
-89.33787161395025
 10
50.40415851604479
 20
-90.27287052864705
 10
50.05723740068013
 20
-90.78894583233749
 10
49.44814451888796
 20
-90.78894583233749
 10
48.91070962318899
 20
-90.78894583233749
 10
48.54690753994661
 20
-90.28561738194248
 10
48.53829480123348
 20
-89.37576766428801
 10
48.53829480123348
 20
-88.45351560288662
 10
48.93620332977985
 20
-87.94570852836079
 10
49.49465330793884
 20
-87.94570852836079
 10
50.07411836855786
 20
-87.94570852836079
 10
50.40415851604479
 20
-88.46178383205122
 10
50.40415851604479
 20
-89.33787161395025
 97
        0
 97
        1
330
93
 75
     2
 76
     1
 98
        1
 10
0.0
 20
0.0
450
        0
451
        0
460
0.0
461
0.0
452
        0
462
0.0
453
        0
470

  0
SPLINE
  5
95
330
89
100
AcDbEntity
  8
Livello 2
100
AcDbSpline
210
0.0
220
0.0
230
1.0
 70
     9
 71
     3
 72
    80
 73
    76
 74
     0
 42
0.000000001
 43
0.0000000001
 40
0.0
 40
0.0
 40
0.0
 40
0.0
 40
1.0
 40
1.0
 40
1.0
 40
2.0
 40
2.0
 40
2.0
 40
3.0
 40
3.0
 40
3.0
 40
4.0
 40
4.0
 40
4.0
 40
5.0
 40
5.0
 40
5.0
 40
6.0
 40
6.0
 40
6.0
 40
7.0
 40
7.0
 40
7.0
 40
8.0
 40
8.0
 40
8.0
 40
9.0
 40
9.0
 40
9.0
 40
10.0
 40
10.0
 40
10.0
 40
11.0
 40
11.0
 40
11.0
 40
12.0
 40
12.0
 40
12.0
 40
13.0
 40
13.0
 40
13.0
 40
14.0
 40
14.0
 40
14.0
 40
15.0
 40
15.0
 40
15.0
 40
16.0
 40
16.0
 40
16.0
 40
17.0
 40
17.0
 40
17.0
 40
18.0
 40
18.0
 40
18.0
 40
19.0
 40
19.0
 40
19.0
 40
20.0
 40
20.0
 40
20.0
 40
21.0
 40
21.0
 40
21.0
 40
22.0
 40
22.0
 40
22.0
 40
23.0
 40
23.0
 40
23.0
 40
24.0
 40
24.0
 40
24.0
 40
25.0
 40
25.0
 40
25.0
 40
25.0
 10
50.86649033016533
 20
-89.24898815043082
 30
0.0
 10
50.86649033016533
 20
-89.03745928763646
 30
0.0
 10
50.8620117060345
 20
-88.86382647517988
 30
0.0
 10
50.84926485273907
 20
-88.69467228685412
 30
0.0
 10
50.84926485273907
 20
-88.69467228685412
 30
0.0
 10
51.17517088564371
 20
-88.69467228685412
 30
0.0
 10
51.17517088564371
 20
-88.69467228685412
 30
0.0
 10
51.17517088564371
 20
-88.69467228685412
 30
0.0
 10
51.19205185352143
 20
-89.02471243434105
 30
0.0
 10
51.19205185352143
 20
-89.02471243434105
 30
0.0
 10
51.19205185352143
 20
-89.02471243434105
 30
0.0
 10
51.20479870681686
 20
-89.02471243434105
 30
0.0
 10
51.20479870681686
 20
-89.02471243434105
 30
0.0
 10
51.31917587692715
 20
-88.83006453942442
 30
0.0
 10
51.50934514771294
 20
-88.64816349780324
 30
0.0
 10
51.847998033913
 20
-88.64816349780324
 30
0.0
 10
52.12705076821824
 20
-88.64816349780324
 30
0.0
 10
52.33857963101257
 20
-88.81731768612899
 30
0.0
 10
52.42746309453202
 20
-89.05847437009649
 30
0.0
 10
52.42746309453202
 20
-89.05847437009649
 30
0.0
 10
52.43607583324514
 20
-89.05847437009649
 30
0.0
 10
52.43607583324514
 20
-89.05847437009649
 30
0.0
 10
52.49946559017375
 20
-88.9440971999862
 30
0.0
 10
52.57973631498007
 20
-88.85555824601528
 30
0.0
 10
52.66448566391721
 20
-88.79182397953817
 30
0.0
 10
52.7871310631921
 20
-88.69880640143641
 30
0.0
 10
52.92252331576243
 20
-88.64816349780324
 30
0.0
 10
53.11717121067903
 20
-88.64816349780324
 30
0.0
 10
53.38795571581968
 20
-88.64816349780324
 30
0.0
 10
53.78999835894834
 20
-88.82593042484213
 30
0.0
 10
53.78999835894834
 20
-89.53665362344917
 30
0.0
 10
53.78999835894834
 20
-89.53665362344917
 30
0.0
 10
53.78999835894834
 20
-90.74243704328662
 30
0.0
 10
53.78999835894834
 20
-90.74243704328662
 30
0.0
 10
53.78999835894834
 20
-90.74243704328662
 30
0.0
 10
53.42619627570595
 20
-90.74243704328662
 30
0.0
 10
53.42619627570595
 20
-90.74243704328662
 30
0.0
 10
53.42619627570595
 20
-90.74243704328662
 30
0.0
 10
53.42619627570595
 20
-89.58316241250004
 30
0.0
 10
53.42619627570595
 20
-89.58316241250004
 30
0.0
 10
53.42619627570595
 20
-89.18973250808452
 30
0.0
 10
53.28219128442251
 20
-88.95270993869933
 30
0.0
 10
52.98177895810873
 20
-88.95270993869933
 30
0.0
 10
52.77025009531438
 20
-88.95270993869933
 30
0.0
 10
52.60523002157092
 20
-89.10911727372967
 30
0.0
 10
52.54184026464232
 20
-89.29136282489938
 30
0.0
 10
52.52495929676459
 20
-89.34200572853255
 30
0.0
 10
52.51221244346917
 20
-89.40952960004345
 30
0.0
 10
52.51221244346917
 20
-89.47739798110289
 30
0.0
 10
52.51221244346917
 20
-89.47739798110289
 30
0.0
 10
52.51221244346917
 20
-90.74243704328662
 30
0.0
 10
52.51221244346917
 20
-90.74243704328662
 30
0.0
 10
52.51221244346917
 20
-90.74243704328662
 30
0.0
 10
52.14841036022679
 20
-90.74243704328662
 30
0.0
 10
52.14841036022679
 20
-90.74243704328662
 30
0.0
 10
52.14841036022679
 20
-90.74243704328662
 30
0.0
 10
52.14841036022679
 20
-89.51529403144062
 30
0.0
 10
52.14841036022679
 20
-89.51529403144062
 30
0.0
 10
52.14841036022679
 20
-89.18973250808452
 30
0.0
 10
52.00440536894334
 20
-88.95270993869933
 30
0.0
 10
51.72087401050728
 20
-88.95270993869933
 30
0.0
 10
51.48833006525292
 20
-88.95270993869933
 30
0.0
 10
51.31917587692715
 20
-89.13874509490282
 30
0.0
 10
51.25992023458085
 20
-89.32512476065483
 30
0.0
 10
51.23856064257231
 20
-89.3799017788703
 30
0.0
 10
51.23029241340771
 20
-89.44363604534743
 30
0.0
 10
51.23029241340771
 20
-89.50702580227602
 30
0.0
 10
51.23029241340771
 20
-89.50702580227602
 30
0.0
 10
51.23029241340771
 20
-90.74243704328662
 30
0.0
 10
51.23029241340771
 20
-90.74243704328662
 30
0.0
 10
51.23029241340771
 20
-90.74243704328662
 30
0.0
 10
50.86649033016533
 20
-90.74243704328662
 30
0.0
 10
50.86649033016533
 20
-90.74243704328662
 30
0.0
 10
50.86649033016533
 20
-90.74243704328662
 30
0.0
 10
50.86649033016533
 20
-89.24898815043082
 30
0.0
 10
50.86649033016533
 20
-89.24898815043082
 30
0.0
  0
HATCH
  5
96
330
89
100
AcDbEntity
  8
Livello 2
 62
   250
420
  1907995
440
 33554687
100
AcDbHatch
 10
0.0
 20
0.0
 30
0.0
210
0.0
220
0.0
230
1.0
  2
SOLID
 70
     1
 71
     1
 91
        1
 92
        1
 93
        1
 72
     4
 94
        3
 73
     0
 74
     0
 95
       80
 96
       76
 40
0.0
 40
0.0
 40
0.0
 40
0.0
 40
1.0
 40
1.0
 40
1.0
 40
2.0
 40
2.0
 40
2.0
 40
3.0
 40
3.0
 40
3.0
 40
4.0
 40
4.0
 40
4.0
 40
5.0
 40
5.0
 40
5.0
 40
6.0
 40
6.0
 40
6.0
 40
7.0
 40
7.0
 40
7.0
 40
8.0
 40
8.0
 40
8.0
 40
9.0
 40
9.0
 40
9.0
 40
10.0
 40
10.0
 40
10.0
 40
11.0
 40
11.0
 40
11.0
 40
12.0
 40
12.0
 40
12.0
 40
13.0
 40
13.0
 40
13.0
 40
14.0
 40
14.0
 40
14.0
 40
15.0
 40
15.0
 40
15.0
 40
16.0
 40
16.0
 40
16.0
 40
17.0
 40
17.0
 40
17.0
 40
18.0
 40
18.0
 40
18.0
 40
19.0
 40
19.0
 40
19.0
 40
20.0
 40
20.0
 40
20.0
 40
21.0
 40
21.0
 40
21.0
 40
22.0
 40
22.0
 40
22.0
 40
23.0
 40
23.0
 40
23.0
 40
24.0
 40
24.0
 40
24.0
 40
25.0
 40
25.0
 40
25.0
 40
25.0
 10
50.86649033016533
 20
-89.24898815043082
 10
50.86649033016533
 20
-89.03745928763646
 10
50.8620117060345
 20
-88.86382647517988
 10
50.84926485273907
 20
-88.69467228685412
 10
50.84926485273907
 20
-88.69467228685412
 10
51.17517088564371
 20
-88.69467228685412
 10
51.17517088564371
 20
-88.69467228685412
 10
51.17517088564371
 20
-88.69467228685412
 10
51.19205185352143
 20
-89.02471243434105
 10
51.19205185352143
 20
-89.02471243434105
 10
51.19205185352143
 20
-89.02471243434105
 10
51.20479870681686
 20
-89.02471243434105
 10
51.20479870681686
 20
-89.02471243434105
 10
51.31917587692715
 20
-88.83006453942442
 10
51.50934514771294
 20
-88.64816349780324
 10
51.847998033913
 20
-88.64816349780324
 10
52.12705076821824
 20
-88.64816349780324
 10
52.33857963101257
 20
-88.81731768612899
 10
52.42746309453202
 20
-89.05847437009649
 10
52.42746309453202
 20
-89.05847437009649
 10
52.43607583324514
 20
-89.05847437009649
 10
52.43607583324514
 20
-89.05847437009649
 10
52.49946559017375
 20
-88.9440971999862
 10
52.57973631498007
 20
-88.85555824601528
 10
52.66448566391721
 20
-88.79182397953817
 10
52.7871310631921
 20
-88.69880640143641
 10
52.92252331576243
 20
-88.64816349780324
 10
53.11717121067903
 20
-88.64816349780324
 10
53.38795571581968
 20
-88.64816349780324
 10
53.78999835894834
 20
-88.82593042484213
 10
53.78999835894834
 20
-89.53665362344917
 10
53.78999835894834
 20
-89.53665362344917
 10
53.78999835894834
 20
-90.74243704328662
 10
53.78999835894834
 20
-90.74243704328662
 10
53.78999835894834
 20
-90.74243704328662
 10
53.42619627570595
 20
-90.74243704328662
 10
53.42619627570595
 20
-90.74243704328662
 10
53.42619627570595
 20
-90.74243704328662
 10
53.42619627570595
 20
-89.58316241250004
 10
53.42619627570595
 20
-89.58316241250004
 10
53.42619627570595
 20
-89.18973250808452
 10
53.28219128442251
 20
-88.95270993869933
 10
52.98177895810873
 20
-88.95270993869933
 10
52.77025009531438
 20
-88.95270993869933
 10
52.60523002157092
 20
-89.10911727372967
 10
52.54184026464232
 20
-89.29136282489938
 10
52.52495929676459
 20
-89.34200572853255
 10
52.51221244346917
 20
-89.40952960004345
 10
52.51221244346917
 20
-89.47739798110289
 10
52.51221244346917
 20
-89.47739798110289
 10
52.51221244346917
 20
-90.74243704328662
 10
52.51221244346917
 20
-90.74243704328662
 10
52.51221244346917
 20
-90.74243704328662
 10
52.14841036022679
 20
-90.74243704328662
 10
52.14841036022679
 20
-90.74243704328662
 10
52.14841036022679
 20
-90.74243704328662
 10
52.14841036022679
 20
-89.51529403144062
 10
52.14841036022679
 20
-89.51529403144062
 10
52.14841036022679
 20
-89.18973250808452
 10
52.00440536894334
 20
-88.95270993869933
 10
51.72087401050728
 20
-88.95270993869933
 10
51.48833006525292
 20
-88.95270993869933
 10
51.31917587692715
 20
-89.13874509490282
 10
51.25992023458085
 20
-89.32512476065483
 10
51.23856064257231
 20
-89.3799017788703
 10
51.23029241340771
 20
-89.44363604534743
 10
51.23029241340771
 20
-89.50702580227602
 10
51.23029241340771
 20
-89.50702580227602
 10
51.23029241340771
 20
-90.74243704328662
 10
51.23029241340771
 20
-90.74243704328662
 10
51.23029241340771
 20
-90.74243704328662
 10
50.86649033016533
 20
-90.74243704328662
 10
50.86649033016533
 20
-90.74243704328662
 10
50.86649033016533
 20
-90.74243704328662
 10
50.86649033016533
 20
-89.24898815043082
 10
50.86649033016533
 20
-89.24898815043082
 97
        0
 97
        1
330
95
 75
     2
 76
     1
 98
        1
 10
0.0
 20
0.0
450
        0
451
        0
460
0.0
461
0.0
452
        0
462
0.0
453
        0
470

  0
SPLINE
  5
97
330
89
100
AcDbEntity
  8
Livello 2
100
AcDbSpline
210
0.0
220
0.0
230
1.0
 70
     9
 71
     3
 72
    80
 73
    76
 74
     0
 42
0.000000001
 43
0.0000000001
 40
0.0
 40
0.0
 40
0.0
 40
0.0
 40
1.0
 40
1.0
 40
1.0
 40
2.0
 40
2.0
 40
2.0
 40
3.0
 40
3.0
 40
3.0
 40
4.0
 40
4.0
 40
4.0
 40
5.0
 40
5.0
 40
5.0
 40
6.0
 40
6.0
 40
6.0
 40
7.0
 40
7.0
 40
7.0
 40
8.0
 40
8.0
 40
8.0
 40
9.0
 40
9.0
 40
9.0
 40
10.0
 40
10.0
 40
10.0
 40
11.0
 40
11.0
 40
11.0
 40
12.0
 40
12.0
 40
12.0
 40
13.0
 40
13.0
 40
13.0
 40
14.0
 40
14.0
 40
14.0
 40
15.0
 40
15.0
 40
15.0
 40
16.0
 40
16.0
 40
16.0
 40
17.0
 40
17.0
 40
17.0
 40
18.0
 40
18.0
 40
18.0
 40
19.0
 40
19.0
 40
19.0
 40
20.0
 40
20.0
 40
20.0
 40
21.0
 40
21.0
 40
21.0
 40
22.0
 40
22.0
 40
22.0
 40
23.0
 40
23.0
 40
23.0
 40
24.0
 40
24.0
 40
24.0
 40
25.0
 40
25.0
 40
25.0
 40
25.0
 10
54.39702418344936
 20
-89.24898815043082
 30
0.0
 10
54.39702418344936
 20
-89.03745928763646
 30
0.0
 10
54.39254555931853
 20
-88.86382647517988
 30
0.0
 10
54.37979870602311
 20
-88.69467228685412
 30
0.0
 10
54.37979870602311
 20
-88.69467228685412
 30
0.0
 10
54.70570473892774
 20
-88.69467228685412
 30
0.0
 10
54.70570473892774
 20
-88.69467228685412
 30
0.0
 10
54.70570473892774
 20
-88.69467228685412
 30
0.0
 10
54.72258570680547
 20
-89.02471243434105
 30
0.0
 10
54.72258570680547
 20
-89.02471243434105
 30
0.0
 10
54.72258570680547
 20
-89.02471243434105
 30
0.0
 10
54.73533256010089
 20
-89.02471243434105
 30
0.0
 10
54.73533256010089
 20
-89.02471243434105
 30
0.0
 10
54.84970973021119
 20
-88.83006453942442
 30
0.0
 10
55.03987900099698
 20
-88.64816349780324
 30
0.0
 10
55.37853188719704
 20
-88.64816349780324
 30
0.0
 10
55.65758462150228
 20
-88.64816349780324
 30
0.0
 10
55.86911348429661
 20
-88.81731768612899
 30
0.0
 10
55.95799694781605
 20
-89.05847437009649
 30
0.0
 10
55.95799694781605
 20
-89.05847437009649
 30
0.0
 10
55.96660968652918
 20
-89.05847437009649
 30
0.0
 10
55.96660968652918
 20
-89.05847437009649
 30
0.0
 10
56.02999944345778
 20
-88.9440971999862
 30
0.0
 10
56.1102701682641
 20
-88.85555824601528
 30
0.0
 10
56.19501951720124
 20
-88.79182397953817
 30
0.0
 10
56.31766491647614
 20
-88.69880640143641
 30
0.0
 10
56.45305716904646
 20
-88.64816349780324
 30
0.0
 10
56.64770506396307
 20
-88.64816349780324
 30
0.0
 10
56.91848956910371
 20
-88.64816349780324
 30
0.0
 10
57.32053221223237
 20
-88.82593042484213
 30
0.0
 10
57.32053221223237
 20
-89.53665362344917
 30
0.0
 10
57.32053221223237
 20
-89.53665362344917
 30
0.0
 10
57.32053221223237
 20
-90.74243704328662
 30
0.0
 10
57.32053221223237
 20
-90.74243704328662
 30
0.0
 10
57.32053221223237
 20
-90.74243704328662
 30
0.0
 10
56.95673012898999
 20
-90.74243704328662
 30
0.0
 10
56.95673012898999
 20
-90.74243704328662
 30
0.0
 10
56.95673012898999
 20
-90.74243704328662
 30
0.0
 10
56.95673012898999
 20
-89.58316241250004
 30
0.0
 10
56.95673012898999
 20
-89.58316241250004
 30
0.0
 10
56.95673012898999
 20
-89.18973250808452
 30
0.0
 10
56.81272513770654
 20
-88.95270993869933
 30
0.0
 10
56.51231281139276
 20
-88.95270993869933
 30
0.0
 10
56.30078394859841
 20
-88.95270993869933
 30
0.0
 10
56.13576387485495
 20
-89.10911727372967
 30
0.0
 10
56.07237411792635
 20
-89.29136282489938
 30
0.0
 10
56.05549315004862
 20
-89.34200572853255
 30
0.0
 10
56.0427462967532
 20
-89.40952960004345
 30
0.0
 10
56.0427462967532
 20
-89.47739798110289
 30
0.0
 10
56.0427462967532
 20
-89.47739798110289
 30
0.0
 10
56.0427462967532
 20
-90.74243704328662
 30
0.0
 10
56.0427462967532
 20
-90.74243704328662
 30
0.0
 10
56.0427462967532
 20
-90.74243704328662
 30
0.0
 10
55.67894421351082
 20
-90.74243704328662
 30
0.0
 10
55.67894421351082
 20
-90.74243704328662
 30
0.0
 10
55.67894421351082
 20
-90.74243704328662
 30
0.0
 10
55.67894421351082
 20
-89.51529403144062
 30
0.0
 10
55.67894421351082
 20
-89.51529403144062
 30
0.0
 10
55.67894421351082
 20
-89.18973250808452
 30
0.0
 10
55.53493922222738
 20
-88.95270993869933
 30
0.0
 10
55.25140786379131
 20
-88.95270993869933
 30
0.0
 10
55.01886391853695
 20
-88.95270993869933
 30
0.0
 10
54.84970973021119
 20
-89.13874509490282
 30
0.0
 10
54.79045408786489
 20
-89.32512476065483
 30
0.0
 10
54.76909449585634
 20
-89.3799017788703
 30
0.0
 10
54.76082626669174
 20
-89.44363604534743
 30
0.0
 10
54.76082626669174
 20
-89.50702580227602
 30
0.0
 10
54.76082626669174
 20
-89.50702580227602
 30
0.0
 10
54.76082626669174
 20
-90.74243704328662
 30
0.0
 10
54.76082626669174
 20
-90.74243704328662
 30
0.0
 10
54.76082626669174
 20
-90.74243704328662
 30
0.0
 10
54.39702418344936
 20
-90.74243704328662
 30
0.0
 10
54.39702418344936
 20
-90.74243704328662
 30
0.0
 10
54.39702418344936
 20
-90.74243704328662
 30
0.0
 10
54.39702418344936
 20
-89.24898815043082
 30
0.0
 10
54.39702418344936
 20
-89.24898815043082
 30
0.0
  0
HATCH
  5
98
330
89
100
AcDbEntity
  8
Livello 2
 62
   250
420
  1907995
440
 33554687
100
AcDbHatch
 10
0.0
 20
0.0
 30
0.0
210
0.0
220
0.0
230
1.0
  2
SOLID
 70
     1
 71
     1
 91
        1
 92
        1
 93
        1
 72
     4
 94
        3
 73
     0
 74
     0
 95
       80
 96
       76
 40
0.0
 40
0.0
 40
0.0
 40
0.0
 40
1.0
 40
1.0
 40
1.0
 40
2.0
 40
2.0
 40
2.0
 40
3.0
 40
3.0
 40
3.0
 40
4.0
 40
4.0
 40
4.0
 40
5.0
 40
5.0
 40
5.0
 40
6.0
 40
6.0
 40
6.0
 40
7.0
 40
7.0
 40
7.0
 40
8.0
 40
8.0
 40
8.0
 40
9.0
 40
9.0
 40
9.0
 40
10.0
 40
10.0
 40
10.0
 40
11.0
 40
11.0
 40
11.0
 40
12.0
 40
12.0
 40
12.0
 40
13.0
 40
13.0
 40
13.0
 40
14.0
 40
14.0
 40
14.0
 40
15.0
 40
15.0
 40
15.0
 40
16.0
 40
16.0
 40
16.0
 40
17.0
 40
17.0
 40
17.0
 40
18.0
 40
18.0
 40
18.0
 40
19.0
 40
19.0
 40
19.0
 40
20.0
 40
20.0
 40
20.0
 40
21.0
 40
21.0
 40
21.0
 40
22.0
 40
22.0
 40
22.0
 40
23.0
 40
23.0
 40
23.0
 40
24.0
 40
24.0
 40
24.0
 40
25.0
 40
25.0
 40
25.0
 40
25.0
 10
54.39702418344936
 20
-89.24898815043082
 10
54.39702418344936
 20
-89.03745928763646
 10
54.39254555931853
 20
-88.86382647517988
 10
54.37979870602311
 20
-88.69467228685412
 10
54.37979870602311
 20
-88.69467228685412
 10
54.70570473892774
 20
-88.69467228685412
 10
54.70570473892774
 20
-88.69467228685412
 10
54.70570473892774
 20
-88.69467228685412
 10
54.72258570680547
 20
-89.02471243434105
 10
54.72258570680547
 20
-89.02471243434105
 10
54.72258570680547
 20
-89.02471243434105
 10
54.73533256010089
 20
-89.02471243434105
 10
54.73533256010089
 20
-89.02471243434105
 10
54.84970973021119
 20
-88.83006453942442
 10
55.03987900099698
 20
-88.64816349780324
 10
55.37853188719704
 20
-88.64816349780324
 10
55.65758462150228
 20
-88.64816349780324
 10
55.86911348429661
 20
-88.81731768612899
 10
55.95799694781605
 20
-89.05847437009649
 10
55.95799694781605
 20
-89.05847437009649
 10
55.96660968652918
 20
-89.05847437009649
 10
55.96660968652918
 20
-89.05847437009649
 10
56.02999944345778
 20
-88.9440971999862
 10
56.1102701682641
 20
-88.85555824601528
 10
56.19501951720124
 20
-88.79182397953817
 10
56.31766491647614
 20
-88.69880640143641
 10
56.45305716904646
 20
-88.64816349780324
 10
56.64770506396307
 20
-88.64816349780324
 10
56.91848956910371
 20
-88.64816349780324
 10
57.32053221223237
 20
-88.82593042484213
 10
57.32053221223237
 20
-89.53665362344917
 10
57.32053221223237
 20
-89.53665362344917
 10
57.32053221223237
 20
-90.74243704328662
 10
57.32053221223237
 20
-90.74243704328662
 10
57.32053221223237
 20
-90.74243704328662
 10
56.95673012898999
 20
-90.74243704328662
 10
56.95673012898999
 20
-90.74243704328662
 10
56.95673012898999
 20
-90.74243704328662
 10
56.95673012898999
 20
-89.58316241250004
 10
56.95673012898999
 20
-89.58316241250004
 10
56.95673012898999
 20
-89.18973250808452
 10
56.81272513770654
 20
-88.95270993869933
 10
56.51231281139276
 20
-88.95270993869933
 10
56.30078394859841
 20
-88.95270993869933
 10
56.13576387485495
 20
-89.10911727372967
 10
56.07237411792635
 20
-89.29136282489938
 10
56.05549315004862
 20
-89.34200572853255
 10
56.0427462967532
 20
-89.40952960004345
 10
56.0427462967532
 20
-89.47739798110289
 10
56.0427462967532
 20
-89.47739798110289
 10
56.0427462967532
 20
-90.74243704328662
 10
56.0427462967532
 20
-90.74243704328662
 10
56.0427462967532
 20
-90.74243704328662
 10
55.67894421351082
 20
-90.74243704328662
 10
55.67894421351082
 20
-90.74243704328662
 10
55.67894421351082
 20
-90.74243704328662
 10
55.67894421351082
 20
-89.51529403144062
 10
55.67894421351082
 20
-89.51529403144062
 10
55.67894421351082
 20
-89.18973250808452
 10
55.53493922222738
 20
-88.95270993869933
 10
55.25140786379131
 20
-88.95270993869933
 10
55.01886391853695
 20
-88.95270993869933
 10
54.84970973021119
 20
-89.13874509490282
 10
54.79045408786489
 20
-89.32512476065483
 10
54.76909449585634
 20
-89.3799017788703
 10
54.76082626669174
 20
-89.44363604534743
 10
54.76082626669174
 20
-89.50702580227602
 10
54.76082626669174
 20
-89.50702580227602
 10
54.76082626669174
 20
-90.74243704328662
 10
54.76082626669174
 20
-90.74243704328662
 10
54.76082626669174
 20
-90.74243704328662
 10
54.39702418344936
 20
-90.74243704328662
 10
54.39702418344936
 20
-90.74243704328662
 10
54.39702418344936
 20
-90.74243704328662
 10
54.39702418344936
 20
-89.24898815043082
 10
54.39702418344936
 20
-89.24898815043082
 97
        0
 97
        1
330
97
 75
     2
 76
     1
 98
        1
 10
0.0
 20
0.0
450
        0
451
        0
460
0.0
461
0.0
452
        0
462
0.0
453
        0
470

  0
ENDBLK
  5
8C
330
89
100
AcDbEntity
  8
0
100
AcDbBlockEnd
  0
BLOCK
  5
9C
330
9A
100
AcDbEntity
  8
0
100
AcDbBlockBegin
  2
Block_3
 70
     0
 10
0.0
 20
0.0
 30
0.0
  3
Block_3
  1

  0
INSERT
  5
9F
330
9A
100
AcDbEntity
  8
Livello 2
100
AcDbBlockReference
  2
Block_4
 10
0.0
 20
0.0
 30
0.0
  0
ENDBLK
  5
9D
330
9A
100
AcDbEntity
  8
0
100
AcDbBlockEnd
  0
BLOCK
  5
A0
330
9E
100
AcDbEntity
  8
0
100
AcDbBlockBegin
  2
Block_4
 70
     0
 10
0.0
 20
0.0
 30
0.0
  3
Block_4
  1

  0
SPLINE
  5
A2
330
9E
100
AcDbEntity
  8
Livello 2
100
AcDbSpline
210
0.0
220
0.0
230
1.0
 70
    11
 71
     3
 72
    29
 73
    25
 74
     0
 42
0.000000001
 43
0.0000000001
 40
0.0
 40
0.0
 40
0.0
 40
0.0
 40
1.0
 40
1.0
 40
1.0
 40
2.0
 40
2.0
 40
2.0
 40
3.0
 40
3.0
 40
3.0
 40
4.0
 40
4.0
 40
4.0
 40
5.0
 40
5.0
 40
5.0
 40
6.0
 40
6.0
 40
6.0
 40
7.0
 40
7.0
 40
7.0
 40
8.0
 40
8.0
 40
8.0
 40
8.0
 10
46.80816784854101
 20
-2.150428601892948
 30
0.0
 10
46.80816784854101
 20
-2.150428601892948
 30
0.0
 10
46.79972736460215
 20
-2.150428601892948
 30
0.0
 10
46.79972736460215
 20
-2.150428601892948
 30
0.0
 10
46.79972736460215
 20
-2.150428601892948
 30
0.0
 10
46.32154811124947
 20
-2.408466253738161
 30
0.0
 10
46.32154811124947
 20
-2.408466253738161
 30
0.0
 10
46.32154811124947
 20
-2.408466253738161
 30
0.0
 10
46.24971787038201
 20
-2.125279404850624
 30
0.0
 10
46.24971787038201
 20
-2.125279404850624
 30
0.0
 10
46.24971787038201
 20
-2.125279404850624
 30
0.0
 10
46.85037026823532
 20
-1.803507486528289
 30
0.0
 10
46.85037026823532
 20
-1.803507486528289
 30
0.0
 10
46.85037026823532
 20
-1.803507486528289
 30
0.0
 10
47.1678358172011
 20
-1.803507486528289
 30
0.0
 10
47.1678358172011
 20
-1.803507486528289
 30
0.0
 10
47.1678358172011
 20
-1.803507486528289
 30
0.0
 10
47.1678358172011
 20
-4.553727212403234
 30
0.0
 10
47.1678358172011
 20
-4.553727212403234
 30
0.0
 10
47.1678358172011
 20
-4.553727212403234
 30
0.0
 10
46.80816784854101
 20
-4.553727212403234
 30
0.0
 10
46.80816784854101
 20
-4.553727212403234
 30
0.0
 10
46.80816784854101
 20
-4.553727212403234
 30
0.0
 10
46.80816784854101
 20
-2.150428601892948
 30
0.0
 10
46.80816784854101
 20
-2.150428601892948
 30
0.0
  0
HATCH
  5
A3
330
9E
100
AcDbEntity
  8
Livello 2
 62
   250
420
  1907995
440
 33554687
100
AcDbHatch
 10
0.0
 20
0.0
 30
0.0
210
0.0
220
0.0
230
1.0
  2
SOLID
 70
     1
 71
     1
 91
        1
 92
        1
 93
        1
 72
     4
 94
        3
 73
     0
 74
     0
 95
       29
 96
       25
 40
0.0
 40
0.0
 40
0.0
 40
0.0
 40
1.0
 40
1.0
 40
1.0
 40
2.0
 40
2.0
 40
2.0
 40
3.0
 40
3.0
 40
3.0
 40
4.0
 40
4.0
 40
4.0
 40
5.0
 40
5.0
 40
5.0
 40
6.0
 40
6.0
 40
6.0
 40
7.0
 40
7.0
 40
7.0
 40
8.0
 40
8.0
 40
8.0
 40
8.0
 10
46.80816784854101
 20
-2.150428601892948
 10
46.80816784854101
 20
-2.150428601892948
 10
46.79972736460215
 20
-2.150428601892948
 10
46.79972736460215
 20
-2.150428601892948
 10
46.79972736460215
 20
-2.150428601892948
 10
46.32154811124947
 20
-2.408466253738161
 10
46.32154811124947
 20
-2.408466253738161
 10
46.32154811124947
 20
-2.408466253738161
 10
46.24971787038201
 20
-2.125279404850624
 10
46.24971787038201
 20
-2.125279404850624
 10
46.24971787038201
 20
-2.125279404850624
 10
46.85037026823532
 20
-1.803507486528289
 10
46.85037026823532
 20
-1.803507486528289
 10
46.85037026823532
 20
-1.803507486528289
 10
47.1678358172011
 20
-1.803507486528289
 10
47.1678358172011
 20
-1.803507486528289
 10
47.1678358172011
 20
-1.803507486528289
 10
47.1678358172011
 20
-4.553727212403234
 10
47.1678358172011
 20
-4.553727212403234
 10
47.1678358172011
 20
-4.553727212403234
 10
46.80816784854101
 20
-4.553727212403234
 10
46.80816784854101
 20
-4.553727212403234
 10
46.80816784854101
 20
-4.553727212403234
 10
46.80816784854101
 20
-2.150428601892948
 10
46.80816784854101
 20
-2.150428601892948
 97
        0
 97
        1
330
A2
 75
     2
 76
     1
 98
        1
 10
0.0
 20
0.0
450
        0
451
        0
460
0.0
461
0.0
452
        0
462
0.0
453
        0
470

  0
SPLINE
  5
A4
330
9E
100
AcDbEntity
  8
Livello 2
100
AcDbSpline
210
0.0
220
0.0
230
1.0
 70
    11
 71
     3
 72
    20
 73
    16
 74
     0
 42
0.000000001
 43
0.0000000001
 40
0.0
 40
0.0
 40
0.0
 40
0.0
 40
1.0
 40
1.0
 40
1.0
 40
2.0
 40
2.0
 40
2.0
 40
3.0
 40
3.0
 40
3.0
 40
4.0
 40
4.0
 40
4.0
 40
5.0
 40
5.0
 40
5.0
 40
5.0
 10
49.63555771328556
 20
-3.652490233461877
 30
0.0
 10
49.63555771328556
 20
-3.259060329046346
 30
0.0
 10
49.41128199719579
 20
-3.022037759661157
 30
0.0
 10
49.0686672511877
 20
-3.022037759661157
 30
0.0
 10
48.84439153509793
 20
-3.022037759661157
 30
0.0
 10
48.6369967868859
 20
-3.161564126813775
 30
0.0
 10
48.53553872484528
 20
-3.360690645861216
 30
0.0
 10
48.51004501825443
 20
-3.402720810781264
 30
0.0
 10
48.49316405037671
 20
-3.457842338545261
 30
0.0
 10
48.49316405037671
 20
-3.525710719604683
 30
0.0
 10
48.50160453431557
 20
-3.978396266366512
 30
0.0
 10
48.70899928252761
 20
-4.312570528435746
 30
0.0
 10
49.09812281758658
 20
-4.312570528435746
 30
0.0
 10
49.41989473590892
 20
-4.312570528435746
 30
0.0
 10
49.63555771328556
 20
-4.045920137877408
 30
0.0
 10
49.63555771328556
 20
-3.652490233461877
 30
0.0
  0
SPLINE
  5
A5
330
9E
100
AcDbEntity
  8
Livello 2
100
AcDbSpline
210
0.0
220
0.0
230
1.0
 70
     9
 71
     3
 72
    38
 73
    34
 74
     0
 42
0.000000001
 43
0.0000000001
 40
0.0
 40
0.0
 40
0.0
 40
0.0
 40
1.0
 40
1.0
 40
1.0
 40
2.0
 40
2.0
 40
2.0
 40
3.0
 40
3.0
 40
3.0
 40
4.0
 40
4.0
 40
4.0
 40
5.0
 40
5.0
 40
5.0
 40
6.0
 40
6.0
 40
6.0
 40
7.0
 40
7.0
 40
7.0
 40
8.0
 40
8.0
 40
8.0
 40
9.0
 40
9.0
 40
9.0
 40
10.0
 40
10.0
 40
10.0
 40
11.0
 40
11.0
 40
11.0
 40
11.0
 10
49.74132214468273
 20
-2.066023762504327
 30
0.0
 10
49.66518553445871
 20
-2.061545138373502
 30
0.0
 10
49.56768933222614
 20
-2.066023762504327
 30
0.0
 10
49.46192490082896
 20
-2.082904730382051
 30
0.0
 10
48.87815347085338
 20
-2.180056423066097
 30
0.0
 10
48.56930066060073
 20
-2.607592772785602
 30
0.0
 10
48.50591090367213
 20
-3.06027831954743
 30
0.0
 10
48.50591090367213
 20
-3.06027831954743
 30
0.0
 10
48.5184855021933
 20
-3.06027831954743
 30
0.0
 10
48.5184855021933
 20
-3.06027831954743
 30
0.0
 10
48.64974364018131
 20
-2.886645507090838
 30
0.0
 10
48.87815347085338
 20
-2.74298502535592
 30
0.0
 10
49.18287216652373
 20
-2.74298502535592
 30
0.0
 10
49.66931964904101
 20
-2.74298502535592
 30
0.0
 10
50.01210664982337
 20
-3.094040255302878
 30
0.0
 10
50.01210664982337
 20
-3.631475151001853
 30
0.0
 10
50.01210664982337
 20
-4.134803601396854
 30
0.0
 10
49.66931964904101
 20
-4.600236001454107
 30
0.0
 10
49.09812281758658
 20
-4.600236001454107
 30
0.0
 10
48.51004501825443
 20
-4.600236001454107
 30
0.0
 10
48.12505559777776
 20
-4.143416340109979
 30
0.0
 10
48.12505559777776
 20
-3.428214517372113
 30
0.0
 10
48.12505559777776
 20
-2.886645507090838
 30
0.0
 10
48.31970349269438
 20
-2.459453666919858
 30
0.0
 10
48.59048799783502
 20
-2.188669161779221
 30
0.0
 10
48.81889782850708
 20
-1.964393445689457
 30
0.0
 10
49.12361652417743
 20
-1.824867078536838
 30
0.0
 10
49.47053763954208
 20
-1.782492404068265
 30
0.0
 10
49.58043618552157
 20
-1.765611436190541
 30
0.0
 10
49.67345376362331
 20
-1.761132812059716
 30
0.0
 10
49.74132214468273
 20
-1.761132812059716
 30
0.0
 10
49.74132214468273
 20
-1.761132812059716
 30
0.0
 10
49.74132214468273
 20
-2.066023762504327
 30
0.0
 10
49.74132214468273
 20
-2.066023762504327
 30
0.0
  0
HATCH
  5
A6
330
9E
100
AcDbEntity
  8
Livello 2
 62
   250
420
  1907995
440
 33554687
100
AcDbHatch
 10
0.0
 20
0.0
 30
0.0
210
0.0
220
0.0
230
1.0
  2
SOLID
 70
     1
 71
     1
 91
        2
 92
        1
 93
        1
 72
     4
 94
        3
 73
     0
 74
     0
 95
       20
 96
       16
 40
0.0
 40
0.0
 40
0.0
 40
0.0
 40
1.0
 40
1.0
 40
1.0
 40
2.0
 40
2.0
 40
2.0
 40
3.0
 40
3.0
 40
3.0
 40
4.0
 40
4.0
 40
4.0
 40
5.0
 40
5.0
 40
5.0
 40
5.0
 10
49.63555771328556
 20
-3.652490233461877
 10
49.63555771328556
 20
-3.259060329046346
 10
49.41128199719579
 20
-3.022037759661157
 10
49.0686672511877
 20
-3.022037759661157
 10
48.84439153509793
 20
-3.022037759661157
 10
48.6369967868859
 20
-3.161564126813775
 10
48.53553872484528
 20
-3.360690645861216
 10
48.51004501825443
 20
-3.402720810781264
 10
48.49316405037671
 20
-3.457842338545261
 10
48.49316405037671
 20
-3.525710719604683
 10
48.50160453431557
 20
-3.978396266366512
 10
48.70899928252761
 20
-4.312570528435746
 10
49.09812281758658
 20
-4.312570528435746
 10
49.41989473590892
 20
-4.312570528435746
 10
49.63555771328556
 20
-4.045920137877408
 10
49.63555771328556
 20
-3.652490233461877
 97
        0
 97
        1
330
A4
 92
        1
 93
        1
 72
     4
 94
        3
 73
     0
 74
     0
 95
       38
 96
       34
 40
0.0
 40
0.0
 40
0.0
 40
0.0
 40
1.0
 40
1.0
 40
1.0
 40
2.0
 40
2.0
 40
2.0
 40
3.0
 40
3.0
 40
3.0
 40
4.0
 40
4.0
 40
4.0
 40
5.0
 40
5.0
 40
5.0
 40
6.0
 40
6.0
 40
6.0
 40
7.0
 40
7.0
 40
7.0
 40
8.0
 40
8.0
 40
8.0
 40
9.0
 40
9.0
 40
9.0
 40
10.0
 40
10.0
 40
10.0
 40
11.0
 40
11.0
 40
11.0
 40
11.0
 10
49.74132214468273
 20
-2.066023762504327
 10
49.66518553445871
 20
-2.061545138373502
 10
49.56768933222614
 20
-2.066023762504327
 10
49.46192490082896
 20
-2.082904730382051
 10
48.87815347085338
 20
-2.180056423066097
 10
48.56930066060073
 20
-2.607592772785602
 10
48.50591090367213
 20
-3.06027831954743
 10
48.50591090367213
 20
-3.06027831954743
 10
48.5184855021933
 20
-3.06027831954743
 10
48.5184855021933
 20
-3.06027831954743
 10
48.64974364018131
 20
-2.886645507090838
 10
48.87815347085338
 20
-2.74298502535592
 10
49.18287216652373
 20
-2.74298502535592
 10
49.66931964904101
 20
-2.74298502535592
 10
50.01210664982337
 20
-3.094040255302878
 10
50.01210664982337
 20
-3.631475151001853
 10
50.01210664982337
 20
-4.134803601396854
 10
49.66931964904101
 20
-4.600236001454107
 10
49.09812281758658
 20
-4.600236001454107
 10
48.51004501825443
 20
-4.600236001454107
 10
48.12505559777776
 20
-4.143416340109979
 10
48.12505559777776
 20
-3.428214517372113
 10
48.12505559777776
 20
-2.886645507090838
 10
48.31970349269438
 20
-2.459453666919858
 10
48.59048799783502
 20
-2.188669161779221
 10
48.81889782850708
 20
-1.964393445689457
 10
49.12361652417743
 20
-1.824867078536838
 10
49.47053763954208
 20
-1.782492404068265
 10
49.58043618552157
 20
-1.765611436190541
 10
49.67345376362331
 20
-1.761132812059716
 10
49.74132214468273
 20
-1.761132812059716
 10
49.74132214468273
 20
-1.761132812059716
 10
49.74132214468273
 20
-2.066023762504327
 10
49.74132214468273
 20
-2.066023762504327
 97
        0
 97
        1
330
A5
 75
     2
 76
     1
 98
        1
 10
0.0
 20
0.0
450
        0
451
        0
460
0.0
461
0.0
452
        0
462
0.0
453
        0
470

  0
SPLINE
  5
A7
330
9E
100
AcDbEntity
  8
Livello 2
100
AcDbSpline
210
0.0
220
0.0
230
1.0
 70
     9
 71
     3
 72
    17
 73
    13
 74
     0
 42
0.000000001
 43
0.0000000001
 40
0.0
 40
0.0
 40
0.0
 40
0.0
 40
1.0
 40
1.0
 40
1.0
 40
2.0
 40
2.0
 40
2.0
 40
3.0
 40
3.0
 40
3.0
 40
4.0
 40
4.0
 40
4.0
 40
4.0
 10
50.67769909757362
 20
-3.191191947986924
 30
0.0
 10
50.67769909757362
 20
-3.90639377072479
 30
0.0
 10
50.8978406990811
 20
-4.312570528435746
 30
0.0
 10
51.23614907573263
 20
-4.312570528435746
 30
0.0
 10
51.61683212685274
 20
-4.312570528435746
 30
0.0
 10
51.79873316847393
 20
-3.868153210838517
 30
0.0
 10
51.79873316847393
 20
-3.1660427509446
 30
0.0
 10
51.79873316847393
 20
-2.489081488093007
 30
0.0
 10
51.62544486556586
 20
-2.044664170495778
 30
0.0
 10
51.24028319031493
 20
-2.044664170495778
 30
0.0
 10
50.91472166695882
 20
-2.044664170495778
 30
0.0
 10
50.67769909757362
 20
-2.442572699042134
 30
0.0
 10
50.67769909757362
 20
-3.191191947986924
 30
0.0
  0
SPLINE
  5
A8
330
9E
100
AcDbEntity
  8
Livello 2
100
AcDbSpline
210
0.0
220
0.0
230
1.0
 70
     9
 71
     3
 72
    17
 73
    13
 74
     0
 42
0.000000001
 43
0.0000000001
 40
0.0
 40
0.0
 40
0.0
 40
0.0
 40
1.0
 40
1.0
 40
1.0
 40
2.0
 40
2.0
 40
2.0
 40
3.0
 40
3.0
 40
3.0
 40
4.0
 40
4.0
 40
4.0
 40
4.0
 10
52.17114799042944
 20
-3.149161783066876
 30
0.0
 10
52.17114799042944
 20
-4.084160697763682
 30
0.0
 10
51.82422687506478
 20
-4.600236001454107
 30
0.0
 10
51.21513399327261
 20
-4.600236001454107
 30
0.0
 10
50.67769909757362
 20
-4.600236001454107
 30
0.0
 10
50.31389701433125
 20
-4.096907551059106
 30
0.0
 10
50.30528427561812
 20
-3.187057833404624
 30
0.0
 10
50.30528427561812
 20
-2.264805772003243
 30
0.0
 10
50.70319280416448
 20
-1.756998697477416
 30
0.0
 10
51.26164278232348
 20
-1.756998697477416
 30
0.0
 10
51.84110784294251
 20
-1.756998697477416
 30
0.0
 10
52.17114799042944
 20
-2.273074001167842
 30
0.0
 10
52.17114799042944
 20
-3.149161783066876
 30
0.0
  0
HATCH
  5
A9
330
9E
100
AcDbEntity
  8
Livello 2
 62
   250
420
  1907995
440
 33554687
100
AcDbHatch
 10
0.0
 20
0.0
 30
0.0
210
0.0
220
0.0
230
1.0
  2
SOLID
 70
     1
 71
     1
 91
        2
 92
        1
 93
        1
 72
     4
 94
        3
 73
     0
 74
     0
 95
       17
 96
       13
 40
0.0
 40
0.0
 40
0.0
 40
0.0
 40
1.0
 40
1.0
 40
1.0
 40
2.0
 40
2.0
 40
2.0
 40
3.0
 40
3.0
 40
3.0
 40
4.0
 40
4.0
 40
4.0
 40
4.0
 10
50.67769909757362
 20
-3.191191947986924
 10
50.67769909757362
 20
-3.90639377072479
 10
50.8978406990811
 20
-4.312570528435746
 10
51.23614907573263
 20
-4.312570528435746
 10
51.61683212685274
 20
-4.312570528435746
 10
51.79873316847393
 20
-3.868153210838517
 10
51.79873316847393
 20
-3.1660427509446
 10
51.79873316847393
 20
-2.489081488093007
 10
51.62544486556586
 20
-2.044664170495778
 10
51.24028319031493
 20
-2.044664170495778
 10
50.91472166695882
 20
-2.044664170495778
 10
50.67769909757362
 20
-2.442572699042134
 10
50.67769909757362
 20
-3.191191947986924
 97
        0
 97
        1
330
A7
 92
        1
 93
        1
 72
     4
 94
        3
 73
     0
 74
     0
 95
       17
 96
       13
 40
0.0
 40
0.0
 40
0.0
 40
0.0
 40
1.0
 40
1.0
 40
1.0
 40
2.0
 40
2.0
 40
2.0
 40
3.0
 40
3.0
 40
3.0
 40
4.0
 40
4.0
 40
4.0
 40
4.0
 10
52.17114799042944
 20
-3.149161783066876
 10
52.17114799042944
 20
-4.084160697763682
 10
51.82422687506478
 20
-4.600236001454107
 10
51.21513399327261
 20
-4.600236001454107
 10
50.67769909757362
 20
-4.600236001454107
 10
50.31389701433125
 20
-4.096907551059106
 10
50.30528427561812
 20
-3.187057833404624
 10
50.30528427561812
 20
-2.264805772003243
 10
50.70319280416448
 20
-1.756998697477416
 10
51.26164278232348
 20
-1.756998697477416
 10
51.84110784294251
 20
-1.756998697477416
 10
52.17114799042944
 20
-2.273074001167842
 10
52.17114799042944
 20
-3.149161783066876
 97
        0
 97
        1
330
A8
 75
     2
 76
     1
 98
        1
 10
0.0
 20
0.0
450
        0
451
        0
460
0.0
461
0.0
452
        0
462
0.0
453
        0
470

  0
SPLINE
  5
AA
330
9E
100
AcDbEntity
  8
Livello 2
100
AcDbSpline
210
0.0
220
0.0
230
1.0
 70
     9
 71
     3
 72
    80
 73
    76
 74
     0
 42
0.000000001
 43
0.0000000001
 40
0.0
 40
0.0
 40
0.0
 40
0.0
 40
1.0
 40
1.0
 40
1.0
 40
2.0
 40
2.0
 40
2.0
 40
3.0
 40
3.0
 40
3.0
 40
4.0
 40
4.0
 40
4.0
 40
5.0
 40
5.0
 40
5.0
 40
6.0
 40
6.0
 40
6.0
 40
7.0
 40
7.0
 40
7.0
 40
8.0
 40
8.0
 40
8.0
 40
9.0
 40
9.0
 40
9.0
 40
10.0
 40
10.0
 40
10.0
 40
11.0
 40
11.0
 40
11.0
 40
12.0
 40
12.0
 40
12.0
 40
13.0
 40
13.0
 40
13.0
 40
14.0
 40
14.0
 40
14.0
 40
15.0
 40
15.0
 40
15.0
 40
16.0
 40
16.0
 40
16.0
 40
17.0
 40
17.0
 40
17.0
 40
18.0
 40
18.0
 40
18.0
 40
19.0
 40
19.0
 40
19.0
 40
20.0
 40
20.0
 40
20.0
 40
21.0
 40
21.0
 40
21.0
 40
22.0
 40
22.0
 40
22.0
 40
23.0
 40
23.0
 40
23.0
 40
24.0
 40
24.0
 40
24.0
 40
25.0
 40
25.0
 40
25.0
 40
25.0
 10
53.53092717845754
 20
-3.06027831954743
 30
0.0
 10
53.53092717845754
 20
-2.84874945675309
 30
0.0
 10
53.52644855432672
 20
-2.675116644296498
 30
0.0
 10
53.5137017010313
 20
-2.505962455970731
 30
0.0
 10
53.5137017010313
 20
-2.505962455970731
 30
0.0
 10
53.83960773393593
 20
-2.505962455970731
 30
0.0
 10
53.83960773393593
 20
-2.505962455970731
 30
0.0
 10
53.83960773393593
 20
-2.505962455970731
 30
0.0
 10
53.85648870181366
 20
-2.836002603457666
 30
0.0
 10
53.85648870181366
 20
-2.836002603457666
 30
0.0
 10
53.85648870181366
 20
-2.836002603457666
 30
0.0
 10
53.86923555510908
 20
-2.836002603457666
 30
0.0
 10
53.86923555510908
 20
-2.836002603457666
 30
0.0
 10
53.98361272521938
 20
-2.64135470854105
 30
0.0
 10
54.17378199600516
 20
-2.459453666919858
 30
0.0
 10
54.51243488220523
 20
-2.459453666919858
 30
0.0
 10
54.79148761651046
 20
-2.459453666919858
 30
0.0
 10
55.00301647930481
 20
-2.628607855245626
 30
0.0
 10
55.09189994282425
 20
-2.869764539213114
 30
0.0
 10
55.09189994282425
 20
-2.869764539213114
 30
0.0
 10
55.10051268153738
 20
-2.869764539213114
 30
0.0
 10
55.10051268153738
 20
-2.869764539213114
 30
0.0
 10
55.16390243846597
 20
-2.75538736910282
 30
0.0
 10
55.24417316327229
 20
-2.666848415131898
 30
0.0
 10
55.32892251220943
 20
-2.603114148654777
 30
0.0
 10
55.45156791148433
 20
-2.510096570553031
 30
0.0
 10
55.58696016405465
 20
-2.459453666919858
 30
0.0
 10
55.78160805897127
 20
-2.459453666919858
 30
0.0
 10
56.05239256411191
 20
-2.459453666919858
 30
0.0
 10
56.45443520724056
 20
-2.63722059395875
 30
0.0
 10
56.45443520724056
 20
-3.347943792565791
 30
0.0
 10
56.45443520724056
 20
-3.347943792565791
 30
0.0
 10
56.45443520724056
 20
-4.553727212403234
 30
0.0
 10
56.45443520724056
 20
-4.553727212403234
 30
0.0
 10
56.45443520724056
 20
-4.553727212403234
 30
0.0
 10
56.09063312399818
 20
-4.553727212403234
 30
0.0
 10
56.09063312399818
 20
-4.553727212403234
 30
0.0
 10
56.09063312399818
 20
-4.553727212403234
 30
0.0
 10
56.09063312399818
 20
-3.394452581616664
 30
0.0
 10
56.09063312399818
 20
-3.394452581616664
 30
0.0
 10
56.09063312399818
 20
-3.001022677201133
 30
0.0
 10
55.94662813271473
 20
-2.764000107815944
 30
0.0
 10
55.64621580640094
 20
-2.764000107815944
 30
0.0
 10
55.43468694360661
 20
-2.764000107815944
 30
0.0
 10
55.26966686986314
 20
-2.920407442846287
 30
0.0
 10
55.20627711293454
 20
-3.102652994016003
 30
0.0
 10
55.18939614505682
 20
-3.153295897649176
 30
0.0
 10
55.17664929176139
 20
-3.220819769160073
 30
0.0
 10
55.17664929176139
 20
-3.288688150219494
 30
0.0
 10
55.17664929176139
 20
-3.288688150219494
 30
0.0
 10
55.17664929176139
 20
-4.553727212403234
 30
0.0
 10
55.17664929176139
 20
-4.553727212403234
 30
0.0
 10
55.17664929176139
 20
-4.553727212403234
 30
0.0
 10
54.81284720851901
 20
-4.553727212403234
 30
0.0
 10
54.81284720851901
 20
-4.553727212403234
 30
0.0
 10
54.81284720851901
 20
-4.553727212403234
 30
0.0
 10
54.81284720851901
 20
-3.326584200557242
 30
0.0
 10
54.81284720851901
 20
-3.326584200557242
 30
0.0
 10
54.81284720851901
 20
-3.001022677201133
 30
0.0
 10
54.66884221723557
 20
-2.764000107815944
 30
0.0
 10
54.38531085879951
 20
-2.764000107815944
 30
0.0
 10
54.15276691354514
 20
-2.764000107815944
 30
0.0
 10
53.98361272521938
 20
-2.950035264019435
 30
0.0
 10
53.92435708287308
 20
-3.136414929771452
 30
0.0
 10
53.90299749086453
 20
-3.191191947986924
 30
0.0
 10
53.89472926169993
 20
-3.254926214464046
 30
0.0
 10
53.89472926169993
 20
-3.318315971392643
 30
0.0
 10
53.89472926169993
 20
-3.318315971392643
 30
0.0
 10
53.89472926169993
 20
-4.553727212403234
 30
0.0
 10
53.89472926169993
 20
-4.553727212403234
 30
0.0
 10
53.89472926169993
 20
-4.553727212403234
 30
0.0
 10
53.53092717845754
 20
-4.553727212403234
 30
0.0
 10
53.53092717845754
 20
-4.553727212403234
 30
0.0
 10
53.53092717845754
 20
-4.553727212403234
 30
0.0
 10
53.53092717845754
 20
-3.06027831954743
 30
0.0
 10
53.53092717845754
 20
-3.06027831954743
 30
0.0
  0
HATCH
  5
AB
330
9E
100
AcDbEntity
  8
Livello 2
 62
   250
420
  1907995
440
 33554687
100
AcDbHatch
 10
0.0
 20
0.0
 30
0.0
210
0.0
220
0.0
230
1.0
  2
SOLID
 70
     1
 71
     1
 91
        1
 92
        1
 93
        1
 72
     4
 94
        3
 73
     0
 74
     0
 95
       80
 96
       76
 40
0.0
 40
0.0
 40
0.0
 40
0.0
 40
1.0
 40
1.0
 40
1.0
 40
2.0
 40
2.0
 40
2.0
 40
3.0
 40
3.0
 40
3.0
 40
4.0
 40
4.0
 40
4.0
 40
5.0
 40
5.0
 40
5.0
 40
6.0
 40
6.0
 40
6.0
 40
7.0
 40
7.0
 40
7.0
 40
8.0
 40
8.0
 40
8.0
 40
9.0
 40
9.0
 40
9.0
 40
10.0
 40
10.0
 40
10.0
 40
11.0
 40
11.0
 40
11.0
 40
12.0
 40
12.0
 40
12.0
 40
13.0
 40
13.0
 40
13.0
 40
14.0
 40
14.0
 40
14.0
 40
15.0
 40
15.0
 40
15.0
 40
16.0
 40
16.0
 40
16.0
 40
17.0
 40
17.0
 40
17.0
 40
18.0
 40
18.0
 40
18.0
 40
19.0
 40
19.0
 40
19.0
 40
20.0
 40
20.0
 40
20.0
 40
21.0
 40
21.0
 40
21.0
 40
22.0
 40
22.0
 40
22.0
 40
23.0
 40
23.0
 40
23.0
 40
24.0
 40
24.0
 40
24.0
 40
25.0
 40
25.0
 40
25.0
 40
25.0
 10
53.53092717845754
 20
-3.06027831954743
 10
53.53092717845754
 20
-2.84874945675309
 10
53.52644855432672
 20
-2.675116644296498
 10
53.5137017010313
 20
-2.505962455970731
 10
53.5137017010313
 20
-2.505962455970731
 10
53.83960773393593
 20
-2.505962455970731
 10
53.83960773393593
 20
-2.505962455970731
 10
53.83960773393593
 20
-2.505962455970731
 10
53.85648870181366
 20
-2.836002603457666
 10
53.85648870181366
 20
-2.836002603457666
 10
53.85648870181366
 20
-2.836002603457666
 10
53.86923555510908
 20
-2.836002603457666
 10
53.86923555510908
 20
-2.836002603457666
 10
53.98361272521938
 20
-2.64135470854105
 10
54.17378199600516
 20
-2.459453666919858
 10
54.51243488220523
 20
-2.459453666919858
 10
54.79148761651046
 20
-2.459453666919858
 10
55.00301647930481
 20
-2.628607855245626
 10
55.09189994282425
 20
-2.869764539213114
 10
55.09189994282425
 20
-2.869764539213114
 10
55.10051268153738
 20
-2.869764539213114
 10
55.10051268153738
 20
-2.869764539213114
 10
55.16390243846597
 20
-2.75538736910282
 10
55.24417316327229
 20
-2.666848415131898
 10
55.32892251220943
 20
-2.603114148654777
 10
55.45156791148433
 20
-2.510096570553031
 10
55.58696016405465
 20
-2.459453666919858
 10
55.78160805897127
 20
-2.459453666919858
 10
56.05239256411191
 20
-2.459453666919858
 10
56.45443520724056
 20
-2.63722059395875
 10
56.45443520724056
 20
-3.347943792565791
 10
56.45443520724056
 20
-3.347943792565791
 10
56.45443520724056
 20
-4.553727212403234
 10
56.45443520724056
 20
-4.553727212403234
 10
56.45443520724056
 20
-4.553727212403234
 10
56.09063312399818
 20
-4.553727212403234
 10
56.09063312399818
 20
-4.553727212403234
 10
56.09063312399818
 20
-4.553727212403234
 10
56.09063312399818
 20
-3.394452581616664
 10
56.09063312399818
 20
-3.394452581616664
 10
56.09063312399818
 20
-3.001022677201133
 10
55.94662813271473
 20
-2.764000107815944
 10
55.64621580640094
 20
-2.764000107815944
 10
55.43468694360661
 20
-2.764000107815944
 10
55.26966686986314
 20
-2.920407442846287
 10
55.20627711293454
 20
-3.102652994016003
 10
55.18939614505682
 20
-3.153295897649176
 10
55.17664929176139
 20
-3.220819769160073
 10
55.17664929176139
 20
-3.288688150219494
 10
55.17664929176139
 20
-3.288688150219494
 10
55.17664929176139
 20
-4.553727212403234
 10
55.17664929176139
 20
-4.553727212403234
 10
55.17664929176139
 20
-4.553727212403234
 10
54.81284720851901
 20
-4.553727212403234
 10
54.81284720851901
 20
-4.553727212403234
 10
54.81284720851901
 20
-4.553727212403234
 10
54.81284720851901
 20
-3.326584200557242
 10
54.81284720851901
 20
-3.326584200557242
 10
54.81284720851901
 20
-3.001022677201133
 10
54.66884221723557
 20
-2.764000107815944
 10
54.38531085879951
 20
-2.764000107815944
 10
54.15276691354514
 20
-2.764000107815944
 10
53.98361272521938
 20
-2.950035264019435
 10
53.92435708287308
 20
-3.136414929771452
 10
53.90299749086453
 20
-3.191191947986924
 10
53.89472926169993
 20
-3.254926214464046
 10
53.89472926169993
 20
-3.318315971392643
 10
53.89472926169993
 20
-3.318315971392643
 10
53.89472926169993
 20
-4.553727212403234
 10
53.89472926169993
 20
-4.553727212403234
 10
53.89472926169993
 20
-4.553727212403234
 10
53.53092717845754
 20
-4.553727212403234
 10
53.53092717845754
 20
-4.553727212403234
 10
53.53092717845754
 20
-4.553727212403234
 10
53.53092717845754
 20
-3.06027831954743
 10
53.53092717845754
 20
-3.06027831954743
 97
        0
 97
        1
330
AA
 75
     2
 76
     1
 98
        1
 10
0.0
 20
0.0
450
        0
451
        0
460
0.0
461
0.0
452
        0
462
0.0
453
        0
470

  0
SPLINE
  5
AC
330
9E
100
AcDbEntity
  8
Livello 2
100
AcDbSpline
210
0.0
220
0.0
230
1.0
 70
     9
 71
     3
 72
    80
 73
    76
 74
     0
 42
0.000000001
 43
0.0000000001
 40
0.0
 40
0.0
 40
0.0
 40
0.0
 40
1.0
 40
1.0
 40
1.0
 40
2.0
 40
2.0
 40
2.0
 40
3.0
 40
3.0
 40
3.0
 40
4.0
 40
4.0
 40
4.0
 40
5.0
 40
5.0
 40
5.0
 40
6.0
 40
6.0
 40
6.0
 40
7.0
 40
7.0
 40
7.0
 40
8.0
 40
8.0
 40
8.0
 40
9.0
 40
9.0
 40
9.0
 40
10.0
 40
10.0
 40
10.0
 40
11.0
 40
11.0
 40
11.0
 40
12.0
 40
12.0
 40
12.0
 40
13.0
 40
13.0
 40
13.0
 40
14.0
 40
14.0
 40
14.0
 40
15.0
 40
15.0
 40
15.0
 40
16.0
 40
16.0
 40
16.0
 40
17.0
 40
17.0
 40
17.0
 40
18.0
 40
18.0
 40
18.0
 40
19.0
 40
19.0
 40
19.0
 40
20.0
 40
20.0
 40
20.0
 40
21.0
 40
21.0
 40
21.0
 40
22.0
 40
22.0
 40
22.0
 40
23.0
 40
23.0
 40
23.0
 40
24.0
 40
24.0
 40
24.0
 40
25.0
 40
25.0
 40
25.0
 40
25.0
 10
57.06146103174158
 20
-3.06027831954743
 30
0.0
 10
57.06146103174158
 20
-2.84874945675309
 30
0.0
 10
57.05698240761075
 20
-2.675116644296498
 30
0.0
 10
57.04423555431533
 20
-2.505962455970731
 30
0.0
 10
57.04423555431533
 20
-2.505962455970731
 30
0.0
 10
57.37014158721997
 20
-2.505962455970731
 30
0.0
 10
57.37014158721997
 20
-2.505962455970731
 30
0.0
 10
57.37014158721997
 20
-2.505962455970731
 30
0.0
 10
57.38702255509769
 20
-2.836002603457666
 30
0.0
 10
57.38702255509769
 20
-2.836002603457666
 30
0.0
 10
57.38702255509769
 20
-2.836002603457666
 30
0.0
 10
57.39976940839312
 20
-2.836002603457666
 30
0.0
 10
57.39976940839312
 20
-2.836002603457666
 30
0.0
 10
57.5141465785034
 20
-2.64135470854105
 30
0.0
 10
57.7043158492892
 20
-2.459453666919858
 30
0.0
 10
58.04296873548926
 20
-2.459453666919858
 30
0.0
 10
58.3220214697945
 20
-2.459453666919858
 30
0.0
 10
58.53355033258884
 20
-2.628607855245626
 30
0.0
 10
58.62243379610828
 20
-2.869764539213114
 30
0.0
 10
58.62243379610828
 20
-2.869764539213114
 30
0.0
 10
58.63104653482141
 20
-2.869764539213114
 30
0.0
 10
58.63104653482141
 20
-2.869764539213114
 30
0.0
 10
58.69443629175
 20
-2.75538736910282
 30
0.0
 10
58.77470701655632
 20
-2.666848415131898
 30
0.0
 10
58.85945636549347
 20
-2.603114148654777
 30
0.0
 10
58.98210176476837
 20
-2.510096570553031
 30
0.0
 10
59.11749401733868
 20
-2.459453666919858
 30
0.0
 10
59.3121419122553
 20
-2.459453666919858
 30
0.0
 10
59.58292641739594
 20
-2.459453666919858
 30
0.0
 10
59.98496906052459
 20
-2.63722059395875
 30
0.0
 10
59.98496906052459
 20
-3.347943792565791
 30
0.0
 10
59.98496906052459
 20
-3.347943792565791
 30
0.0
 10
59.98496906052459
 20
-4.553727212403234
 30
0.0
 10
59.98496906052459
 20
-4.553727212403234
 30
0.0
 10
59.98496906052459
 20
-4.553727212403234
 30
0.0
 10
59.6211669772822
 20
-4.553727212403234
 30
0.0
 10
59.6211669772822
 20
-4.553727212403234
 30
0.0
 10
59.6211669772822
 20
-4.553727212403234
 30
0.0
 10
59.6211669772822
 20
-3.394452581616664
 30
0.0
 10
59.6211669772822
 20
-3.394452581616664
 30
0.0
 10
59.6211669772822
 20
-3.001022677201133
 30
0.0
 10
59.47716198599877
 20
-2.764000107815944
 30
0.0
 10
59.17674965968497
 20
-2.764000107815944
 30
0.0
 10
58.96522079689064
 20
-2.764000107815944
 30
0.0
 10
58.80020072314717
 20
-2.920407442846287
 30
0.0
 10
58.73681096621858
 20
-3.102652994016003
 30
0.0
 10
58.71992999834085
 20
-3.153295897649176
 30
0.0
 10
58.70718314504543
 20
-3.220819769160073
 30
0.0
 10
58.70718314504543
 20
-3.288688150219494
 30
0.0
 10
58.70718314504543
 20
-3.288688150219494
 30
0.0
 10
58.70718314504543
 20
-4.553727212403234
 30
0.0
 10
58.70718314504543
 20
-4.553727212403234
 30
0.0
 10
58.70718314504543
 20
-4.553727212403234
 30
0.0
 10
58.34338106180304
 20
-4.553727212403234
 30
0.0
 10
58.34338106180304
 20
-4.553727212403234
 30
0.0
 10
58.34338106180304
 20
-4.553727212403234
 30
0.0
 10
58.34338106180304
 20
-3.326584200557242
 30
0.0
 10
58.34338106180304
 20
-3.326584200557242
 30
0.0
 10
58.34338106180304
 20
-3.001022677201133
 30
0.0
 10
58.19937607051961
 20
-2.764000107815944
 30
0.0
 10
57.91584471208354
 20
-2.764000107815944
 30
0.0
 10
57.68330076682918
 20
-2.764000107815944
 30
0.0
 10
57.5141465785034
 20
-2.950035264019435
 30
0.0
 10
57.45489093615711
 20
-3.136414929771452
 30
0.0
 10
57.43353134414856
 20
-3.191191947986924
 30
0.0
 10
57.42526311498396
 20
-3.254926214464046
 30
0.0
 10
57.42526311498396
 20
-3.318315971392643
 30
0.0
 10
57.42526311498396
 20
-3.318315971392643
 30
0.0
 10
57.42526311498396
 20
-4.553727212403234
 30
0.0
 10
57.42526311498396
 20
-4.553727212403234
 30
0.0
 10
57.42526311498396
 20
-4.553727212403234
 30
0.0
 10
57.06146103174158
 20
-4.553727212403234
 30
0.0
 10
57.06146103174158
 20
-4.553727212403234
 30
0.0
 10
57.06146103174158
 20
-4.553727212403234
 30
0.0
 10
57.06146103174158
 20
-3.06027831954743
 30
0.0
 10
57.06146103174158
 20
-3.06027831954743
 30
0.0
  0
HATCH
  5
AD
330
9E
100
AcDbEntity
  8
Livello 2
 62
   250
420
  1907995
440
 33554687
100
AcDbHatch
 10
0.0
 20
0.0
 30
0.0
210
0.0
220
0.0
230
1.0
  2
SOLID
 70
     1
 71
     1
 91
        1
 92
        1
 93
        1
 72
     4
 94
        3
 73
     0
 74
     0
 95
       80
 96
       76
 40
0.0
 40
0.0
 40
0.0
 40
0.0
 40
1.0
 40
1.0
 40
1.0
 40
2.0
 40
2.0
 40
2.0
 40
3.0
 40
3.0
 40
3.0
 40
4.0
 40
4.0
 40
4.0
 40
5.0
 40
5.0
 40
5.0
 40
6.0
 40
6.0
 40
6.0
 40
7.0
 40
7.0
 40
7.0
 40
8.0
 40
8.0
 40
8.0
 40
9.0
 40
9.0
 40
9.0
 40
10.0
 40
10.0
 40
10.0
 40
11.0
 40
11.0
 40
11.0
 40
12.0
 40
12.0
 40
12.0
 40
13.0
 40
13.0
 40
13.0
 40
14.0
 40
14.0
 40
14.0
 40
15.0
 40
15.0
 40
15.0
 40
16.0
 40
16.0
 40
16.0
 40
17.0
 40
17.0
 40
17.0
 40
18.0
 40
18.0
 40
18.0
 40
19.0
 40
19.0
 40
19.0
 40
20.0
 40
20.0
 40
20.0
 40
21.0
 40
21.0
 40
21.0
 40
22.0
 40
22.0
 40
22.0
 40
23.0
 40
23.0
 40
23.0
 40
24.0
 40
24.0
 40
24.0
 40
25.0
 40
25.0
 40
25.0
 40
25.0
 10
57.06146103174158
 20
-3.06027831954743
 10
57.06146103174158
 20
-2.84874945675309
 10
57.05698240761075
 20
-2.675116644296498
 10
57.04423555431533
 20
-2.505962455970731
 10
57.04423555431533
 20
-2.505962455970731
 10
57.37014158721997
 20
-2.505962455970731
 10
57.37014158721997
 20
-2.505962455970731
 10
57.37014158721997
 20
-2.505962455970731
 10
57.38702255509769
 20
-2.836002603457666
 10
57.38702255509769
 20
-2.836002603457666
 10
57.38702255509769
 20
-2.836002603457666
 10
57.39976940839312
 20
-2.836002603457666
 10
57.39976940839312
 20
-2.836002603457666
 10
57.5141465785034
 20
-2.64135470854105
 10
57.7043158492892
 20
-2.459453666919858
 10
58.04296873548926
 20
-2.459453666919858
 10
58.3220214697945
 20
-2.459453666919858
 10
58.53355033258884
 20
-2.628607855245626
 10
58.62243379610828
 20
-2.869764539213114
 10
58.62243379610828
 20
-2.869764539213114
 10
58.63104653482141
 20
-2.869764539213114
 10
58.63104653482141
 20
-2.869764539213114
 10
58.69443629175
 20
-2.75538736910282
 10
58.77470701655632
 20
-2.666848415131898
 10
58.85945636549347
 20
-2.603114148654777
 10
58.98210176476837
 20
-2.510096570553031
 10
59.11749401733868
 20
-2.459453666919858
 10
59.3121419122553
 20
-2.459453666919858
 10
59.58292641739594
 20
-2.459453666919858
 10
59.98496906052459
 20
-2.63722059395875
 10
59.98496906052459
 20
-3.347943792565791
 10
59.98496906052459
 20
-3.347943792565791
 10
59.98496906052459
 20
-4.553727212403234
 10
59.98496906052459
 20
-4.553727212403234
 10
59.98496906052459
 20
-4.553727212403234
 10
59.6211669772822
 20
-4.553727212403234
 10
59.6211669772822
 20
-4.553727212403234
 10
59.6211669772822
 20
-4.553727212403234
 10
59.6211669772822
 20
-3.394452581616664
 10
59.6211669772822
 20
-3.394452581616664
 10
59.6211669772822
 20
-3.001022677201133
 10
59.47716198599877
 20
-2.764000107815944
 10
59.17674965968497
 20
-2.764000107815944
 10
58.96522079689064
 20
-2.764000107815944
 10
58.80020072314717
 20
-2.920407442846287
 10
58.73681096621858
 20
-3.102652994016003
 10
58.71992999834085
 20
-3.153295897649176
 10
58.70718314504543
 20
-3.220819769160073
 10
58.70718314504543
 20
-3.288688150219494
 10
58.70718314504543
 20
-3.288688150219494
 10
58.70718314504543
 20
-4.553727212403234
 10
58.70718314504543
 20
-4.553727212403234
 10
58.70718314504543
 20
-4.553727212403234
 10
58.34338106180304
 20
-4.553727212403234
 10
58.34338106180304
 20
-4.553727212403234
 10
58.34338106180304
 20
-4.553727212403234
 10
58.34338106180304
 20
-3.326584200557242
 10
58.34338106180304
 20
-3.326584200557242
 10
58.34338106180304
 20
-3.001022677201133
 10
58.19937607051961
 20
-2.764000107815944
 10
57.91584471208354
 20
-2.764000107815944
 10
57.68330076682918
 20
-2.764000107815944
 10
57.5141465785034
 20
-2.950035264019435
 10
57.45489093615711
 20
-3.136414929771452
 10
57.43353134414856
 20
-3.191191947986924
 10
57.42526311498396
 20
-3.254926214464046
 10
57.42526311498396
 20
-3.318315971392643
 10
57.42526311498396
 20
-3.318315971392643
 10
57.42526311498396
 20
-4.553727212403234
 10
57.42526311498396
 20
-4.553727212403234
 10
57.42526311498396
 20
-4.553727212403234
 10
57.06146103174158
 20
-4.553727212403234
 10
57.06146103174158
 20
-4.553727212403234
 10
57.06146103174158
 20
-4.553727212403234
 10
57.06146103174158
 20
-3.06027831954743
 10
57.06146103174158
 20
-3.06027831954743
 97
        0
 97
        1
330
AC
 75
     2
 76
     1
 98
        1
 10
0.0
 20
0.0
450
        0
451
        0
460
0.0
461
0.0
452
        0
462
0.0
453
        0
470

  0
ENDBLK
  5
A1
330
9E
100
AcDbEntity
  8
0
100
AcDbBlockEnd
  0
BLOCK
  5
B2
330
B0
100
AcDbEntity
  8
0
100
AcDbBlockBegin
  2
Block_5
 70
     0
 10
0.0
 20
0.0
 30
0.0
  3
Block_5
  1

  0
INSERT
  5
B5
330
B0
100
AcDbEntity
  8
Livello 2
100
AcDbBlockReference
  2
Block_6
 10
0.0
 20
0.0
 30
0.0
  0
ENDBLK
  5
B3
330
B0
100
AcDbEntity
  8
0
100
AcDbBlockEnd
  0
BLOCK
  5
B6
330
B4
100
AcDbEntity
  8
0
100
AcDbBlockBegin
  2
Block_6
 70
     0
 10
0.0
 20
0.0
 30
0.0
  3
Block_6
  1

  0
SPLINE
  5
B8
330
B4
100
AcDbEntity
  8
Livello 2
100
AcDbSpline
210
0.0
220
0.0
230
1.0
 70
    11
 71
     3
 72
    29
 73
    25
 74
     0
 42
0.000000001
 43
0.0000000001
 40
0.0
 40
0.0
 40
0.0
 40
0.0
 40
1.0
 40
1.0
 40
1.0
 40
2.0
 40
2.0
 40
2.0
 40
3.0
 40
3.0
 40
3.0
 40
4.0
 40
4.0
 40
4.0
 40
5.0
 40
5.0
 40
5.0
 40
6.0
 40
6.0
 40
6.0
 40
7.0
 40
7.0
 40
7.0
 40
8.0
 40
8.0
 40
8.0
 40
8.0
 10
61.08119844393109
 20
-9.328801809733771
 30
0.0
 10
61.08119844393109
 20
-9.328801809733771
 30
0.0
 10
61.08119844393109
 20
-9.57409260828356
 30
0.0
 10
61.08119844393109
 20
-9.57409260828356
 30
0.0
 10
61.08119844393109
 20
-9.57409260828356
 30
0.0
 10
59.88368325325825
 20
-12.07902153560872
 30
0.0
 10
59.88368325325825
 20
-12.07902153560872
 30
0.0
 10
59.88368325325825
 20
-12.07902153560872
 30
0.0
 10
59.49852157800731
 20
-12.07902153560872
 30
0.0
 10
59.49852157800731
 20
-12.07902153560872
 30
0.0
 10
59.49852157800731
 20
-12.07902153560872
 30
0.0
 10
60.69190265409786
 20
-9.646095103925281
 30
0.0
 10
60.69190265409786
 20
-9.646095103925281
 30
0.0
 10
60.69190265409786
 20
-9.646095103925281
 30
0.0
 10
60.69190265409786
 20
-9.637826874760682
 30
0.0
 10
60.69190265409786
 20
-9.637826874760682
 30
0.0
 10
60.69190265409786
 20
-9.637826874760682
 30
0.0
 10
59.34624835755927
 20
-9.637826874760682
 30
0.0
 10
59.34624835755927
 20
-9.637826874760682
 30
0.0
 10
59.34624835755927
 20
-9.637826874760682
 30
0.0
 10
59.34624835755927
 20
-9.328801809733771
 30
0.0
 10
59.34624835755927
 20
-9.328801809733771
 30
0.0
 10
59.34624835755927
 20
-9.328801809733771
 30
0.0
 10
61.08119844393109
 20
-9.328801809733771
 30
0.0
 10
61.08119844393109
 20
-9.328801809733771
 30
0.0
  0
HATCH
  5
B9
330
B4
100
AcDbEntity
  8
Livello 2
 62
   250
420
  1907995
440
 33554687
100
AcDbHatch
 10
0.0
 20
0.0
 30
0.0
210
0.0
220
0.0
230
1.0
  2
SOLID
 70
     1
 71
     1
 91
        1
 92
        1
 93
        1
 72
     4
 94
        3
 73
     0
 74
     0
 95
       29
 96
       25
 40
0.0
 40
0.0
 40
0.0
 40
0.0
 40
1.0
 40
1.0
 40
1.0
 40
2.0
 40
2.0
 40
2.0
 40
3.0
 40
3.0
 40
3.0
 40
4.0
 40
4.0
 40
4.0
 40
5.0
 40
5.0
 40
5.0
 40
6.0
 40
6.0
 40
6.0
 40
7.0
 40
7.0
 40
7.0
 40
8.0
 40
8.0
 40
8.0
 40
8.0
 10
61.08119844393109
 20
-9.328801809733771
 10
61.08119844393109
 20
-9.328801809733771
 10
61.08119844393109
 20
-9.57409260828356
 10
61.08119844393109
 20
-9.57409260828356
 10
61.08119844393109
 20
-9.57409260828356
 10
59.88368325325825
 20
-12.07902153560872
 10
59.88368325325825
 20
-12.07902153560872
 10
59.88368325325825
 20
-12.07902153560872
 10
59.49852157800731
 20
-12.07902153560872
 10
59.49852157800731
 20
-12.07902153560872
 10
59.49852157800731
 20
-12.07902153560872
 10
60.69190265409786
 20
-9.646095103925281
 10
60.69190265409786
 20
-9.646095103925281
 10
60.69190265409786
 20
-9.646095103925281
 10
60.69190265409786
 20
-9.637826874760682
 10
60.69190265409786
 20
-9.637826874760682
 10
60.69190265409786
 20
-9.637826874760682
 10
59.34624835755927
 20
-9.637826874760682
 10
59.34624835755927
 20
-9.637826874760682
 10
59.34624835755927
 20
-9.637826874760682
 10
59.34624835755927
 20
-9.328801809733771
 10
59.34624835755927
 20
-9.328801809733771
 10
59.34624835755927
 20
-9.328801809733771
 10
61.08119844393109
 20
-9.328801809733771
 10
61.08119844393109
 20
-9.328801809733771
 97
        0
 97
        1
330
B8
 75
     2
 76
     1
 98
        1
 10
0.0
 20
0.0
450
        0
451
        0
460
0.0
461
0.0
452
        0
462
0.0
453
        0
470

  0
SPLINE
  5
BA
330
B4
100
AcDbEntity
  8
Livello 2
100
AcDbSpline
210
0.0
220
0.0
230
1.0
 70
     9
 71
     3
 72
    17
 73
    13
 74
     0
 42
0.000000001
 43
0.0000000001
 40
0.0
 40
0.0
 40
0.0
 40
0.0
 40
1.0
 40
1.0
 40
1.0
 40
2.0
 40
2.0
 40
2.0
 40
3.0
 40
3.0
 40
3.0
 40
4.0
 40
4.0
 40
4.0
 40
4.0
 10
61.80156790989683
 20
-10.7164862711924
 30
0.0
 10
61.80156790989683
 20
-11.43168809393027
 30
0.0
 10
62.02136500185577
 20
-11.83786485164123
 30
0.0
 10
62.36001788805583
 20
-11.83786485164123
 30
0.0
 10
62.74070093917593
 20
-11.83786485164123
 30
0.0
 10
62.92260198079713
 20
-11.393447534044
 30
0.0
 10
62.92260198079713
 20
-10.69133707415008
 30
0.0
 10
62.92260198079713
 20
-10.01437581129849
 30
0.0
 10
62.74931367788906
 20
-9.56995849370126
 30
0.0
 10
62.36415200263813
 20
-9.56995849370126
 30
0.0
 10
62.03824596973349
 20
-9.56995849370126
 30
0.0
 10
61.80156790989683
 20
-9.967867022247617
 30
0.0
 10
61.80156790989683
 20
-10.7164862711924
 30
0.0
  0
SPLINE
  5
BB
330
B4
100
AcDbEntity
  8
Livello 2
100
AcDbSpline
210
0.0
220
0.0
230
1.0
 70
     9
 71
     3
 72
    17
 73
    13
 74
     0
 42
0.000000001
 43
0.0000000001
 40
0.0
 40
0.0
 40
0.0
 40
0.0
 40
1.0
 40
1.0
 40
1.0
 40
2.0
 40
2.0
 40
2.0
 40
3.0
 40
3.0
 40
3.0
 40
4.0
 40
4.0
 40
4.0
 40
4.0
 10
63.29501680275264
 20
-10.67445610627236
 30
0.0
 10
63.29501680275264
 20
-11.60945502096916
 30
0.0
 10
62.94809568738798
 20
-12.12553032465959
 30
0.0
 10
62.33865829604728
 20
-12.12553032465959
 30
0.0
 10
61.80156790989683
 20
-12.12553032465959
 30
0.0
 10
61.43742131710592
 20
-11.62220187426459
 30
0.0
 10
61.42915308794132
 20
-10.7123521566101
 30
0.0
 10
61.42915308794132
 20
-9.790100095208725
 30
0.0
 10
61.82671710693916
 20
-9.282293020682899
 30
0.0
 10
62.38516708509815
 20
-9.282293020682899
 30
0.0
 10
62.9649766552657
 20
-9.282293020682899
 30
0.0
 10
63.29501680275264
 20
-9.798368324373324
 30
0.0
 10
63.29501680275264
 20
-10.67445610627236
 30
0.0
  0
HATCH
  5
BC
330
B4
100
AcDbEntity
  8
Livello 2
 62
   250
420
  1907995
440
 33554687
100
AcDbHatch
 10
0.0
 20
0.0
 30
0.0
210
0.0
220
0.0
230
1.0
  2
SOLID
 70
     1
 71
     1
 91
        2
 92
        1
 93
        1
 72
     4
 94
        3
 73
     0
 74
     0
 95
       17
 96
       13
 40
0.0
 40
0.0
 40
0.0
 40
0.0
 40
1.0
 40
1.0
 40
1.0
 40
2.0
 40
2.0
 40
2.0
 40
3.0
 40
3.0
 40
3.0
 40
4.0
 40
4.0
 40
4.0
 40
4.0
 10
61.80156790989683
 20
-10.7164862711924
 10
61.80156790989683
 20
-11.43168809393027
 10
62.02136500185577
 20
-11.83786485164123
 10
62.36001788805583
 20
-11.83786485164123
 10
62.74070093917593
 20
-11.83786485164123
 10
62.92260198079713
 20
-11.393447534044
 10
62.92260198079713
 20
-10.69133707415008
 10
62.92260198079713
 20
-10.01437581129849
 10
62.74931367788906
 20
-9.56995849370126
 10
62.36415200263813
 20
-9.56995849370126
 10
62.03824596973349
 20
-9.56995849370126
 10
61.80156790989683
 20
-9.967867022247617
 10
61.80156790989683
 20
-10.7164862711924
 97
        0
 97
        1
330
BA
 92
        1
 93
        1
 72
     4
 94
        3
 73
     0
 74
     0
 95
       17
 96
       13
 40
0.0
 40
0.0
 40
0.0
 40
0.0
 40
1.0
 40
1.0
 40
1.0
 40
2.0
 40
2.0
 40
2.0
 40
3.0
 40
3.0
 40
3.0
 40
4.0
 40
4.0
 40
4.0
 40
4.0
 10
63.29501680275264
 20
-10.67445610627236
 10
63.29501680275264
 20
-11.60945502096916
 10
62.94809568738798
 20
-12.12553032465959
 10
62.33865829604728
 20
-12.12553032465959
 10
61.80156790989683
 20
-12.12553032465959
 10
61.43742131710592
 20
-11.62220187426459
 10
61.42915308794132
 20
-10.7123521566101
 10
61.42915308794132
 20
-9.790100095208725
 10
61.82671710693916
 20
-9.282293020682899
 10
62.38516708509815
 20
-9.282293020682899
 10
62.9649766552657
 20
-9.282293020682899
 10
63.29501680275264
 20
-9.798368324373324
 10
63.29501680275264
 20
-10.67445610627236
 97
        0
 97
        1
330
BB
 75
     2
 76
     1
 98
        1
 10
0.0
 20
0.0
450
        0
451
        0
460
0.0
461
0.0
452
        0
462
0.0
453
        0
470

  0
SPLINE
  5
BD
330
B4
100
AcDbEntity
  8
Livello 2
100
AcDbSpline
210
0.0
220
0.0
230
1.0
 70
     9
 71
     3
 72
    80
 73
    76
 74
     0
 42
0.000000001
 43
0.0000000001
 40
0.0
 40
0.0
 40
0.0
 40
0.0
 40
1.0
 40
1.0
 40
1.0
 40
2.0
 40
2.0
 40
2.0
 40
3.0
 40
3.0
 40
3.0
 40
4.0
 40
4.0
 40
4.0
 40
5.0
 40
5.0
 40
5.0
 40
6.0
 40
6.0
 40
6.0
 40
7.0
 40
7.0
 40
7.0
 40
8.0
 40
8.0
 40
8.0
 40
9.0
 40
9.0
 40
9.0
 40
10.0
 40
10.0
 40
10.0
 40
11.0
 40
11.0
 40
11.0
 40
12.0
 40
12.0
 40
12.0
 40
13.0
 40
13.0
 40
13.0
 40
14.0
 40
14.0
 40
14.0
 40
15.0
 40
15.0
 40
15.0
 40
16.0
 40
16.0
 40
16.0
 40
17.0
 40
17.0
 40
17.0
 40
18.0
 40
18.0
 40
18.0
 40
19.0
 40
19.0
 40
19.0
 40
20.0
 40
20.0
 40
20.0
 40
21.0
 40
21.0
 40
21.0
 40
22.0
 40
22.0
 40
22.0
 40
23.0
 40
23.0
 40
23.0
 40
24.0
 40
24.0
 40
24.0
 40
25.0
 40
25.0
 40
25.0
 40
25.0
 10
64.65514050032926
 20
-10.58557264275291
 30
0.0
 10
64.65514050032926
 20
-10.37404377995857
 30
0.0
 10
64.65066187619846
 20
-10.20041096750198
 30
0.0
 10
64.63791502290303
 20
-10.03125677917621
 30
0.0
 10
64.63791502290303
 20
-10.03125677917621
 30
0.0
 10
64.96382105580766
 20
-10.03125677917621
 30
0.0
 10
64.96382105580766
 20
-10.03125677917621
 30
0.0
 10
64.96382105580766
 20
-10.03125677917621
 30
0.0
 10
64.98070202368538
 20
-10.36129692666315
 30
0.0
 10
64.98070202368538
 20
-10.36129692666315
 30
0.0
 10
64.98070202368538
 20
-10.36129692666315
 30
0.0
 10
64.99344887698081
 20
-10.36129692666315
 30
0.0
 10
64.99344887698081
 20
-10.36129692666315
 30
0.0
 10
65.10782604709111
 20
-10.16664903174653
 30
0.0
 10
65.2979953178769
 20
-9.98474799012534
 30
0.0
 10
65.63664820407694
 20
-9.98474799012534
 30
0.0
 10
65.91570093838218
 20
-9.98474799012534
 30
0.0
 10
66.12722980117652
 20
-10.15390217845111
 30
0.0
 10
66.21611326469597
 20
-10.3950588624186
 30
0.0
 10
66.21611326469597
 20
-10.3950588624186
 30
0.0
 10
66.2247260034091
 20
-10.3950588624186
 30
0.0
 10
66.2247260034091
 20
-10.3950588624186
 30
0.0
 10
66.2881157603377
 20
-10.2806816923083
 30
0.0
 10
66.36838648514402
 20
-10.19214273833738
 30
0.0
 10
66.45313583408117
 20
-10.12840847186026
 30
0.0
 10
66.57578123335605
 20
-10.03539089375851
 30
0.0
 10
66.71117348592638
 20
-9.98474799012534
 30
0.0
 10
66.90582138084299
 20
-9.98474799012534
 30
0.0
 10
67.17660588598363
 20
-9.98474799012534
 30
0.0
 10
67.57864852911229
 20
-10.16251491716423
 30
0.0
 10
67.57864852911229
 20
-10.87323811577127
 30
0.0
 10
67.57864852911229
 20
-10.87323811577127
 30
0.0
 10
67.57864852911229
 20
-12.07902153560872
 30
0.0
 10
67.57864852911229
 20
-12.07902153560872
 30
0.0
 10
67.57864852911229
 20
-12.07902153560872
 30
0.0
 10
67.21484644586991
 20
-12.07902153560872
 30
0.0
 10
67.21484644586991
 20
-12.07902153560872
 30
0.0
 10
67.21484644586991
 20
-12.07902153560872
 30
0.0
 10
67.21484644586991
 20
-10.91974690482214
 30
0.0
 10
67.21484644586991
 20
-10.91974690482214
 30
0.0
 10
67.21484644586991
 20
-10.52631700040661
 30
0.0
 10
67.07084145458646
 20
-10.28929443102142
 30
0.0
 10
66.77042912827267
 20
-10.28929443102142
 30
0.0
 10
66.55890026547833
 20
-10.28929443102142
 30
0.0
 10
66.39388019173487
 20
-10.44570176605177
 30
0.0
 10
66.33049043480626
 20
-10.62794731722148
 30
0.0
 10
66.31360946692854
 20
-10.67859022085466
 30
0.0
 10
66.30086261363311
 20
-10.74611409236555
 30
0.0
 10
66.30086261363311
 20
-10.81398247342497
 30
0.0
 10
66.30086261363311
 20
-10.81398247342497
 30
0.0
 10
66.30086261363311
 20
-12.07902153560872
 30
0.0
 10
66.30086261363311
 20
-12.07902153560872
 30
0.0
 10
66.30086261363311
 20
-12.07902153560872
 30
0.0
 10
65.93706053039074
 20
-12.07902153560872
 30
0.0
 10
65.93706053039074
 20
-12.07902153560872
 30
0.0
 10
65.93706053039074
 20
-12.07902153560872
 30
0.0
 10
65.93706053039074
 20
-10.85187852376272
 30
0.0
 10
65.93706053039074
 20
-10.85187852376272
 30
0.0
 10
65.93706053039074
 20
-10.52631700040661
 30
0.0
 10
65.7930555391073
 20
-10.28929443102142
 30
0.0
 10
65.50952418067123
 20
-10.28929443102142
 30
0.0
 10
65.27698023541687
 20
-10.28929443102142
 30
0.0
 10
65.10782604709111
 20
-10.47532958722491
 30
0.0
 10
65.0485704047448
 20
-10.66170925297693
 30
0.0
 10
65.02721081273626
 20
-10.7164862711924
 30
0.0
 10
65.01894258357165
 20
-10.78022053766953
 30
0.0
 10
65.01894258357165
 20
-10.84361029459812
 30
0.0
 10
65.01894258357165
 20
-10.84361029459812
 30
0.0
 10
65.01894258357165
 20
-12.07902153560872
 30
0.0
 10
65.01894258357165
 20
-12.07902153560872
 30
0.0
 10
65.01894258357165
 20
-12.07902153560872
 30
0.0
 10
64.65514050032926
 20
-12.07902153560872
 30
0.0
 10
64.65514050032926
 20
-12.07902153560872
 30
0.0
 10
64.65514050032926
 20
-12.07902153560872
 30
0.0
 10
64.65514050032926
 20
-10.58557264275291
 30
0.0
 10
64.65514050032926
 20
-10.58557264275291
 30
0.0
  0
HATCH
  5
BE
330
B4
100
AcDbEntity
  8
Livello 2
 62
   250
420
  1907995
440
 33554687
100
AcDbHatch
 10
0.0
 20
0.0
 30
0.0
210
0.0
220
0.0
230
1.0
  2
SOLID
 70
     1
 71
     1
 91
        1
 92
        1
 93
        1
 72
     4
 94
        3
 73
     0
 74
     0
 95
       80
 96
       76
 40
0.0
 40
0.0
 40
0.0
 40
0.0
 40
1.0
 40
1.0
 40
1.0
 40
2.0
 40
2.0
 40
2.0
 40
3.0
 40
3.0
 40
3.0
 40
4.0
 40
4.0
 40
4.0
 40
5.0
 40
5.0
 40
5.0
 40
6.0
 40
6.0
 40
6.0
 40
7.0
 40
7.0
 40
7.0
 40
8.0
 40
8.0
 40
8.0
 40
9.0
 40
9.0
 40
9.0
 40
10.0
 40
10.0
 40
10.0
 40
11.0
 40
11.0
 40
11.0
 40
12.0
 40
12.0
 40
12.0
 40
13.0
 40
13.0
 40
13.0
 40
14.0
 40
14.0
 40
14.0
 40
15.0
 40
15.0
 40
15.0
 40
16.0
 40
16.0
 40
16.0
 40
17.0
 40
17.0
 40
17.0
 40
18.0
 40
18.0
 40
18.0
 40
19.0
 40
19.0
 40
19.0
 40
20.0
 40
20.0
 40
20.0
 40
21.0
 40
21.0
 40
21.0
 40
22.0
 40
22.0
 40
22.0
 40
23.0
 40
23.0
 40
23.0
 40
24.0
 40
24.0
 40
24.0
 40
25.0
 40
25.0
 40
25.0
 40
25.0
 10
64.65514050032926
 20
-10.58557264275291
 10
64.65514050032926
 20
-10.37404377995857
 10
64.65066187619846
 20
-10.20041096750198
 10
64.63791502290303
 20
-10.03125677917621
 10
64.63791502290303
 20
-10.03125677917621
 10
64.96382105580766
 20
-10.03125677917621
 10
64.96382105580766
 20
-10.03125677917621
 10
64.96382105580766
 20
-10.03125677917621
 10
64.98070202368538
 20
-10.36129692666315
 10
64.98070202368538
 20
-10.36129692666315
 10
64.98070202368538
 20
-10.36129692666315
 10
64.99344887698081
 20
-10.36129692666315
 10
64.99344887698081
 20
-10.36129692666315
 10
65.10782604709111
 20
-10.16664903174653
 10
65.2979953178769
 20
-9.98474799012534
 10
65.63664820407694
 20
-9.98474799012534
 10
65.91570093838218
 20
-9.98474799012534
 10
66.12722980117652
 20
-10.15390217845111
 10
66.21611326469597
 20
-10.3950588624186
 10
66.21611326469597
 20
-10.3950588624186
 10
66.2247260034091
 20
-10.3950588624186
 10
66.2247260034091
 20
-10.3950588624186
 10
66.2881157603377
 20
-10.2806816923083
 10
66.36838648514402
 20
-10.19214273833738
 10
66.45313583408117
 20
-10.12840847186026
 10
66.57578123335605
 20
-10.03539089375851
 10
66.71117348592638
 20
-9.98474799012534
 10
66.90582138084299
 20
-9.98474799012534
 10
67.17660588598363
 20
-9.98474799012534
 10
67.57864852911229
 20
-10.16251491716423
 10
67.57864852911229
 20
-10.87323811577127
 10
67.57864852911229
 20
-10.87323811577127
 10
67.57864852911229
 20
-12.07902153560872
 10
67.57864852911229
 20
-12.07902153560872
 10
67.57864852911229
 20
-12.07902153560872
 10
67.21484644586991
 20
-12.07902153560872
 10
67.21484644586991
 20
-12.07902153560872
 10
67.21484644586991
 20
-12.07902153560872
 10
67.21484644586991
 20
-10.91974690482214
 10
67.21484644586991
 20
-10.91974690482214
 10
67.21484644586991
 20
-10.52631700040661
 10
67.07084145458646
 20
-10.28929443102142
 10
66.77042912827267
 20
-10.28929443102142
 10
66.55890026547833
 20
-10.28929443102142
 10
66.39388019173487
 20
-10.44570176605177
 10
66.33049043480626
 20
-10.62794731722148
 10
66.31360946692854
 20
-10.67859022085466
 10
66.30086261363311
 20
-10.74611409236555
 10
66.30086261363311
 20
-10.81398247342497
 10
66.30086261363311
 20
-10.81398247342497
 10
66.30086261363311
 20
-12.07902153560872
 10
66.30086261363311
 20
-12.07902153560872
 10
66.30086261363311
 20
-12.07902153560872
 10
65.93706053039074
 20
-12.07902153560872
 10
65.93706053039074
 20
-12.07902153560872
 10
65.93706053039074
 20
-12.07902153560872
 10
65.93706053039074
 20
-10.85187852376272
 10
65.93706053039074
 20
-10.85187852376272
 10
65.93706053039074
 20
-10.52631700040661
 10
65.7930555391073
 20
-10.28929443102142
 10
65.50952418067123
 20
-10.28929443102142
 10
65.27698023541687
 20
-10.28929443102142
 10
65.10782604709111
 20
-10.47532958722491
 10
65.0485704047448
 20
-10.66170925297693
 10
65.02721081273626
 20
-10.7164862711924
 10
65.01894258357165
 20
-10.78022053766953
 10
65.01894258357165
 20
-10.84361029459812
 10
65.01894258357165
 20
-10.84361029459812
 10
65.01894258357165
 20
-12.07902153560872
 10
65.01894258357165
 20
-12.07902153560872
 10
65.01894258357165
 20
-12.07902153560872
 10
64.65514050032926
 20
-12.07902153560872
 10
64.65514050032926
 20
-12.07902153560872
 10
64.65514050032926
 20
-12.07902153560872
 10
64.65514050032926
 20
-10.58557264275291
 10
64.65514050032926
 20
-10.58557264275291
 97
        0
 97
        1
330
BD
 75
     2
 76
     1
 98
        1
 10
0.0
 20
0.0
450
        0
451
        0
460
0.0
461
0.0
452
        0
462
0.0
453
        0
470

  0
SPLINE
  5
BF
330
B4
100
AcDbEntity
  8
Livello 2
100
AcDbSpline
210
0.0
220
0.0
230
1.0
 70
     9
 71
     3
 72
    80
 73
    76
 74
     0
 42
0.000000001
 43
0.0000000001
 40
0.0
 40
0.0
 40
0.0
 40
0.0
 40
1.0
 40
1.0
 40
1.0
 40
2.0
 40
2.0
 40
2.0
 40
3.0
 40
3.0
 40
3.0
 40
4.0
 40
4.0
 40
4.0
 40
5.0
 40
5.0
 40
5.0
 40
6.0
 40
6.0
 40
6.0
 40
7.0
 40
7.0
 40
7.0
 40
8.0
 40
8.0
 40
8.0
 40
9.0
 40
9.0
 40
9.0
 40
10.0
 40
10.0
 40
10.0
 40
11.0
 40
11.0
 40
11.0
 40
12.0
 40
12.0
 40
12.0
 40
13.0
 40
13.0
 40
13.0
 40
14.0
 40
14.0
 40
14.0
 40
15.0
 40
15.0
 40
15.0
 40
16.0
 40
16.0
 40
16.0
 40
17.0
 40
17.0
 40
17.0
 40
18.0
 40
18.0
 40
18.0
 40
19.0
 40
19.0
 40
19.0
 40
20.0
 40
20.0
 40
20.0
 40
21.0
 40
21.0
 40
21.0
 40
22.0
 40
22.0
 40
22.0
 40
23.0
 40
23.0
 40
23.0
 40
24.0
 40
24.0
 40
24.0
 40
25.0
 40
25.0
 40
25.0
 40
25.0
 10
68.1856743536133
 20
-10.58557264275291
 30
0.0
 10
68.1856743536133
 20
-10.37404377995857
 30
0.0
 10
68.18119572948248
 20
-10.20041096750198
 30
0.0
 10
68.16844887618706
 20
-10.03125677917621
 30
0.0
 10
68.16844887618706
 20
-10.03125677917621
 30
0.0
 10
68.49435490909169
 20
-10.03125677917621
 30
0.0
 10
68.49435490909169
 20
-10.03125677917621
 30
0.0
 10
68.49435490909169
 20
-10.03125677917621
 30
0.0
 10
68.51123587696942
 20
-10.36129692666315
 30
0.0
 10
68.51123587696942
 20
-10.36129692666315
 30
0.0
 10
68.51123587696942
 20
-10.36129692666315
 30
0.0
 10
68.52398273026484
 20
-10.36129692666315
 30
0.0
 10
68.52398273026484
 20
-10.36129692666315
 30
0.0
 10
68.63835990037514
 20
-10.16664903174653
 30
0.0
 10
68.82852917116093
 20
-9.98474799012534
 30
0.0
 10
69.16718205736099
 20
-9.98474799012534
 30
0.0
 10
69.44623479166622
 20
-9.98474799012534
 30
0.0
 10
69.65776365446057
 20
-10.15390217845111
 30
0.0
 10
69.74664711798
 20
-10.3950588624186
 30
0.0
 10
69.74664711798
 20
-10.3950588624186
 30
0.0
 10
69.75525985669313
 20
-10.3950588624186
 30
0.0
 10
69.75525985669313
 20
-10.3950588624186
 30
0.0
 10
69.81864961362173
 20
-10.2806816923083
 30
0.0
 10
69.89892033842806
 20
-10.19214273833738
 30
0.0
 10
69.98366968736519
 20
-10.12840847186026
 30
0.0
 10
70.10631508664009
 20
-10.03539089375851
 30
0.0
 10
70.24170733921041
 20
-9.98474799012534
 30
0.0
 10
70.43635523412702
 20
-9.98474799012534
 30
0.0
 10
70.70713973926766
 20
-9.98474799012534
 30
0.0
 10
71.10918238239631
 20
-10.16251491716423
 30
0.0
 10
71.10918238239631
 20
-10.87323811577127
 30
0.0
 10
71.10918238239631
 20
-10.87323811577127
 30
0.0
 10
71.10918238239631
 20
-12.07902153560872
 30
0.0
 10
71.10918238239631
 20
-12.07902153560872
 30
0.0
 10
71.10918238239631
 20
-12.07902153560872
 30
0.0
 10
70.74538029915394
 20
-12.07902153560872
 30
0.0
 10
70.74538029915394
 20
-12.07902153560872
 30
0.0
 10
70.74538029915394
 20
-12.07902153560872
 30
0.0
 10
70.74538029915394
 20
-10.91974690482214
 30
0.0
 10
70.74538029915394
 20
-10.91974690482214
 30
0.0
 10
70.74538029915394
 20
-10.52631700040661
 30
0.0
 10
70.60137530787049
 20
-10.28929443102142
 30
0.0
 10
70.30096298155671
 20
-10.28929443102142
 30
0.0
 10
70.08943411876237
 20
-10.28929443102142
 30
0.0
 10
69.92441404501891
 20
-10.44570176605177
 30
0.0
 10
69.8610242880903
 20
-10.62794731722148
 30
0.0
 10
69.84414332021258
 20
-10.67859022085466
 30
0.0
 10
69.83139646691715
 20
-10.74611409236555
 30
0.0
 10
69.83139646691715
 20
-10.81398247342497
 30
0.0
 10
69.83139646691715
 20
-10.81398247342497
 30
0.0
 10
69.83139646691715
 20
-12.07902153560872
 30
0.0
 10
69.83139646691715
 20
-12.07902153560872
 30
0.0
 10
69.83139646691715
 20
-12.07902153560872
 30
0.0
 10
69.46759438367476
 20
-12.07902153560872
 30
0.0
 10
69.46759438367476
 20
-12.07902153560872
 30
0.0
 10
69.46759438367476
 20
-12.07902153560872
 30
0.0
 10
69.46759438367476
 20
-10.85187852376272
 30
0.0
 10
69.46759438367476
 20
-10.85187852376272
 30
0.0
 10
69.46759438367476
 20
-10.52631700040661
 30
0.0
 10
69.32358939239133
 20
-10.28929443102142
 30
0.0
 10
69.04005803395526
 20
-10.28929443102142
 30
0.0
 10
68.80751408870089
 20
-10.28929443102142
 30
0.0
 10
68.63835990037514
 20
-10.47532958722491
 30
0.0
 10
68.57910425802884
 20
-10.66170925297693
 30
0.0
 10
68.55774466602028
 20
-10.7164862711924
 30
0.0
 10
68.54947643685568
 20
-10.78022053766953
 30
0.0
 10
68.54947643685568
 20
-10.84361029459812
 30
0.0
 10
68.54947643685568
 20
-10.84361029459812
 30
0.0
 10
68.54947643685568
 20
-12.07902153560872
 30
0.0
 10
68.54947643685568
 20
-12.07902153560872
 30
0.0
 10
68.54947643685568
 20
-12.07902153560872
 30
0.0
 10
68.1856743536133
 20
-12.07902153560872
 30
0.0
 10
68.1856743536133
 20
-12.07902153560872
 30
0.0
 10
68.1856743536133
 20
-12.07902153560872
 30
0.0
 10
68.1856743536133
 20
-10.58557264275291
 30
0.0
 10
68.1856743536133
 20
-10.58557264275291
 30
0.0
  0
HATCH
  5
C0
330
B4
100
AcDbEntity
  8
Livello 2
 62
   250
420
  1907995
440
 33554687
100
AcDbHatch
 10
0.0
 20
0.0
 30
0.0
210
0.0
220
0.0
230
1.0
  2
SOLID
 70
     1
 71
     1
 91
        1
 92
        1
 93
        1
 72
     4
 94
        3
 73
     0
 74
     0
 95
       80
 96
       76
 40
0.0
 40
0.0
 40
0.0
 40
0.0
 40
1.0
 40
1.0
 40
1.0
 40
2.0
 40
2.0
 40
2.0
 40
3.0
 40
3.0
 40
3.0
 40
4.0
 40
4.0
 40
4.0
 40
5.0
 40
5.0
 40
5.0
 40
6.0
 40
6.0
 40
6.0
 40
7.0
 40
7.0
 40
7.0
 40
8.0
 40
8.0
 40
8.0
 40
9.0
 40
9.0
 40
9.0
 40
10.0
 40
10.0
 40
10.0
 40
11.0
 40
11.0
 40
11.0
 40
12.0
 40
12.0
 40
12.0
 40
13.0
 40
13.0
 40
13.0
 40
14.0
 40
14.0
 40
14.0
 40
15.0
 40
15.0
 40
15.0
 40
16.0
 40
16.0
 40
16.0
 40
17.0
 40
17.0
 40
17.0
 40
18.0
 40
18.0
 40
18.0
 40
19.0
 40
19.0
 40
19.0
 40
20.0
 40
20.0
 40
20.0
 40
21.0
 40
21.0
 40
21.0
 40
22.0
 40
22.0
 40
22.0
 40
23.0
 40
23.0
 40
23.0
 40
24.0
 40
24.0
 40
24.0
 40
25.0
 40
25.0
 40
25.0
 40
25.0
 10
68.1856743536133
 20
-10.58557264275291
 10
68.1856743536133
 20
-10.37404377995857
 10
68.18119572948248
 20
-10.20041096750198
 10
68.16844887618706
 20
-10.03125677917621
 10
68.16844887618706
 20
-10.03125677917621
 10
68.49435490909169
 20
-10.03125677917621
 10
68.49435490909169
 20
-10.03125677917621
 10
68.49435490909169
 20
-10.03125677917621
 10
68.51123587696942
 20
-10.36129692666315
 10
68.51123587696942
 20
-10.36129692666315
 10
68.51123587696942
 20
-10.36129692666315
 10
68.52398273026484
 20
-10.36129692666315
 10
68.52398273026484
 20
-10.36129692666315
 10
68.63835990037514
 20
-10.16664903174653
 10
68.82852917116093
 20
-9.98474799012534
 10
69.16718205736099
 20
-9.98474799012534
 10
69.44623479166622
 20
-9.98474799012534
 10
69.65776365446057
 20
-10.15390217845111
 10
69.74664711798
 20
-10.3950588624186
 10
69.74664711798
 20
-10.3950588624186
 10
69.75525985669313
 20
-10.3950588624186
 10
69.75525985669313
 20
-10.3950588624186
 10
69.81864961362173
 20
-10.2806816923083
 10
69.89892033842806
 20
-10.19214273833738
 10
69.98366968736519
 20
-10.12840847186026
 10
70.10631508664009
 20
-10.03539089375851
 10
70.24170733921041
 20
-9.98474799012534
 10
70.43635523412702
 20
-9.98474799012534
 10
70.70713973926766
 20
-9.98474799012534
 10
71.10918238239631
 20
-10.16251491716423
 10
71.10918238239631
 20
-10.87323811577127
 10
71.10918238239631
 20
-10.87323811577127
 10
71.10918238239631
 20
-12.07902153560872
 10
71.10918238239631
 20
-12.07902153560872
 10
71.10918238239631
 20
-12.07902153560872
 10
70.74538029915394
 20
-12.07902153560872
 10
70.74538029915394
 20
-12.07902153560872
 10
70.74538029915394
 20
-12.07902153560872
 10
70.74538029915394
 20
-10.91974690482214
 10
70.74538029915394
 20
-10.91974690482214
 10
70.74538029915394
 20
-10.52631700040661
 10
70.60137530787049
 20
-10.28929443102142
 10
70.30096298155671
 20
-10.28929443102142
 10
70.08943411876237
 20
-10.28929443102142
 10
69.92441404501891
 20
-10.44570176605177
 10
69.8610242880903
 20
-10.62794731722148
 10
69.84414332021258
 20
-10.67859022085466
 10
69.83139646691715
 20
-10.74611409236555
 10
69.83139646691715
 20
-10.81398247342497
 10
69.83139646691715
 20
-10.81398247342497
 10
69.83139646691715
 20
-12.07902153560872
 10
69.83139646691715
 20
-12.07902153560872
 10
69.83139646691715
 20
-12.07902153560872
 10
69.46759438367476
 20
-12.07902153560872
 10
69.46759438367476
 20
-12.07902153560872
 10
69.46759438367476
 20
-12.07902153560872
 10
69.46759438367476
 20
-10.85187852376272
 10
69.46759438367476
 20
-10.85187852376272
 10
69.46759438367476
 20
-10.52631700040661
 10
69.32358939239133
 20
-10.28929443102142
 10
69.04005803395526
 20
-10.28929443102142
 10
68.80751408870089
 20
-10.28929443102142
 10
68.63835990037514
 20
-10.47532958722491
 10
68.57910425802884
 20
-10.66170925297693
 10
68.55774466602028
 20
-10.7164862711924
 10
68.54947643685568
 20
-10.78022053766953
 10
68.54947643685568
 20
-10.84361029459812
 10
68.54947643685568
 20
-10.84361029459812
 10
68.54947643685568
 20
-12.07902153560872
 10
68.54947643685568
 20
-12.07902153560872
 10
68.54947643685568
 20
-12.07902153560872
 10
68.1856743536133
 20
-12.07902153560872
 10
68.1856743536133
 20
-12.07902153560872
 10
68.1856743536133
 20
-12.07902153560872
 10
68.1856743536133
 20
-10.58557264275291
 10
68.1856743536133
 20
-10.58557264275291
 97
        0
 97
        1
330
BF
 75
     2
 76
     1
 98
        1
 10
0.0
 20
0.0
450
        0
451
        0
460
0.0
461
0.0
452
        0
462
0.0
453
        0
470

  0
ENDBLK
  5
B7
330
B4
100
AcDbEntity
  8
0
100
AcDbBlockEnd
  0
ENDSEC
  0
SECTION
  2
ENTITIES
  0
LINE
  5
99
330
70
100
AcDbEntity
  8
0
100
AcDbLine
 10
34.07509493505762
 20
-86.19537034882174
 30
0.0
 11
70.04464787745412
 21
-86.19537034882174
 31
0.0
  0
LINE
  5
AE
330
70
100
AcDbEntity
  8
0
100
AcDbLine
 10
47.6363031123749
 20
-5.605246912178864
 30
0.0
 11
56.4835381332103
 21
-5.605246912178864
 31
0.0
  0
LINE
  5
AF
330
70
100
AcDbEntity
  8
0
100
AcDbLine
 10
57.8163580102372
 20
-8.260202250879235
 30
0.0
 11
57.8163580102372
 21
-12.4870327669759
 31
0.0
  0
CIRCLE
  5
102
330
70
100
AcDbEntity
  8
0
100
AcDbCircle
 10
52.05992062279228
 20
-65.81012543275878
 30
0.0
 40
17.72017408789398
  0
SPLINE
  5
103
330
70
100
AcDbEntity
  8
0
100
AcDbSpline
210
0.0
220
0.0
230
1.0
 70
     9
 71
     3
 72
    17
 73
    13
 74
     0
 42
0.000000001
 43
0.0000000001
 40
0.0
 40
0.0
 40
0.0
 40
0.0
 40
1.0
 40
1.0
 40
1.0
 40
2.0
 40
2.0
 40
2.0
 40
3.0
 40
3.0
 40
3.0
 40
4.0
 40
4.0
 40
4.0
 40
4.0
 10
52.05987140625587
 20
-48.3544989570954
 30
0.0
 10
42.4347913847906
 20
-48.3544989570954
 30
0.0
 10
34.604261601592
 20
-56.18502874029402
 30
0.0
 10
34.604261601592
 20
-65.81028101653354
 30
0.0
 10
34.604261601592
 20
-75.43518878322455
 30
0.0
 10
42.4347913847906
 20
-83.26554631164889
 30
0.0
 10
52.05987140625587
 20
-83.26554631164889
 30
0.0
 10
61.68477917294686
 20
-83.26554631164889
 30
0.0
 10
69.51548121091974
 20
-75.43518878322455
 30
0.0
 10
69.51548121091974
 20
-65.81028101653354
 30
0.0
 10
69.51548121091974
 20
-56.18502874029402
 30
0.0
 10
61.68477917294686
 20
-48.3544989570954
 30
0.0
 10
52.05987140625587
 20
-48.3544989570954
 30
0.0
  0
SPLINE
  5
104
330
70
100
AcDbEntity
  8
0
100
AcDbSpline
210
0.0
220
0.0
230
1.0
 70
     9
 71
     3
 72
    17
 73
    13
 74
     0
 42
0.000000001
 43
0.0000000001
 40
0.0
 40
0.0
 40
0.0
 40
0.0
 40
1.0
 40
1.0
 40
1.0
 40
2.0
 40
2.0
 40
2.0
 40
3.0
 40
3.0
 40
3.0
 40
4.0
 40
4.0
 40
4.0
 40
4.0
 10
52.05987140625587
 20
-83.79471297818327
 30
0.0
 10
42.14299179718994
 20
-83.79471297818327
 30
0.0
 10
34.07509493505762
 20
-75.72698837082519
 30
0.0
 10
34.07509493505762
 20
-65.81028101653354
 30
0.0
 10
34.07509493505762
 20
-55.89322915269336
 30
0.0
 10
42.14299179718994
 20
-47.82533229056102
 30
0.0
 10
52.05987140625587
 20
-47.82533229056102
 30
0.0
 10
61.97657876054752
 20
-47.82533229056102
 30
0.0
 10
70.04464787745412
 20
-55.89322915269336
 30
0.0
 10
70.04464787745412
 20
-65.81028101653354
 30
0.0
 10
70.04464787745412
 20
-75.72698837082519
 30
0.0
 10
61.97657876054752
 20
-83.79471297818327
 30
0.0
 10
52.05987140625587
 20
-83.79471297818327
 30
0.0
  0
SPLINE
  5
107
330
70
100
AcDbEntity
  8
0
100
AcDbSpline
210
0.0
220
0.0
230
1.0
 70
     8
 71
     3
 72
    32
 73
    28
 74
     0
 42
0.000000001
 43
0.0000000001
 40
0.0
 40
0.0
 40
0.0
 40
0.0
 40
1.0
 40
1.0
 40
1.0
 40
2.0
 40
2.0
 40
2.0
 40
3.0
 40
3.0
 40
3.0
 40
4.0
 40
4.0
 40
4.0
 40
5.0
 40
5.0
 40
5.0
 40
6.0
 40
6.0
 40
6.0
 40
7.0
 40
7.0
 40
7.0
 40
8.0
 40
8.0
 40
8.0
 40
9.0
 40
9.0
 40
9.0
 40
9.0
 10
51.64870471981239
 20
-45.88564184076247
 30
0.0
 10
50.60194787963185
 20
-43.82443443124332
 30
0.0
 10
49.54966544471251
 20
-41.71354240847486
 30
0.0
 10
49.09827048113111
 20
-39.42819358733281
 30
0.0
 10
48.8723630758472
 20
-38.28445636382376
 30
0.0
 10
48.81867371336958
 20
-37.10411938185418
 30
0.0
 10
49.00877229127834
 20
-35.95115936727566
 30
0.0
 10
49.20057066176843
 20
-34.78789000214248
 30
0.0
 10
49.61780934486103
 20
-33.6754519320351
 30
0.0
 10
50.03445212196973
 20
-32.57774775604573
 30
0.0
 10
50.88055844735608
 20
-30.34856127367651
 30
0.0
 10
51.61777996490737
 20
-28.08649798017262
 30
0.0
 10
52.27087443142642
 20
-25.79343487850611
 30
0.0
 10
52.60190993610504
 20
-24.63114467389573
 30
0.0
 10
52.93124549695837
 20
-23.46530243065066
 30
0.0
 10
53.21750291761849
 20
-22.29106757969357
 30
0.0
 10
53.4825593364945
 20
-21.20379974993249
 30
0.0
 10
53.65044458992226
 20
-20.09502747505543
 30
0.0
 10
53.46501676336021
 20
-18.98016994678652
 30
0.0
 10
53.26713751904599
 20
-17.79045010105643
 30
0.0
 10
52.72525799947231
 20
-16.68487723810701
 30
0.0
 10
52.11820889234558
 20
-15.65467532074222
 30
0.0
 10
51.47077641594275
 20
-14.55594019252217
 30
0.0
 10
50.66809410943459
 20
-13.52253670484839
 30
0.0
 10
50.32496341484532
 20
-12.27562703953334
 30
0.0
 10
50.24976527385071
 20
-12.00236297339714
 30
0.0
 10
49.82421415657242
 20
-12.11838857853137
 30
0.0
 10
49.89974314668319
 20
-12.39285492405515
 30
0.0
  0
SPLINE
  5
108
330
70
100
AcDbEntity
  8
0
100
AcDbSpline
210
0.0
220
0.0
230
1.0
 70
     8
 71
     3
 72
    32
 73
    28
 74
     0
 42
0.000000001
 43
0.0000000001
 40
9.0
 40
9.0
 40
9.0
 40
9.0
 40
10.0
 40
10.0
 40
10.0
 40
11.0
 40
11.0
 40
11.0
 40
12.0
 40
12.0
 40
12.0
 40
13.0
 40
13.0
 40
13.0
 40
14.0
 40
14.0
 40
14.0
 40
15.0
 40
15.0
 40
15.0
 40
16.0
 40
16.0
 40
16.0
 40
17.0
 40
17.0
 40
17.0
 40
18.0
 40
18.0
 40
18.0
 40
18.0
 10
49.89974314668319
 20
-12.39285492405515
 30
0.0
 10
50.19847318384687
 20
-13.47841613012852
 30
0.0
 10
50.82788135986051
 20
-14.4000917883048
 30
0.0
 10
51.41493609700686
 20
-15.34575931785669
 30
0.0
 10
52.00213287990692
 20
-16.29165566432724
 30
0.0
 10
52.56023927033796
 20
-17.27576673281695
 30
0.0
 10
52.86988504546762
 20
-18.35188035269894
 30
0.0
 10
53.23005804615593
 20
-19.6035915100451
 30
0.0
 10
53.11153571683274
 20
-20.84062715728499
 30
0.0
 10
52.8123710184183
 20
-22.09160952272926
 30
0.0
 10
52.53782030564196
 20
-23.23966643560685
 30
0.0
 10
52.2133802218665
 20
-24.37835337087518
 30
0.0
 10
51.89172967938573
 20
-25.51394780269591
 30
0.0
 10
51.23422602651342
 20
-27.83527914989716
 30
0.0
 10
50.49484243336077
 20
-30.12773858678513
 30
0.0
 10
49.6384734746066
 20
-32.38353818849215
 30
0.0
 10
49.21179734326198
 20
-33.50746478263645
 30
0.0
 10
48.7822375856281
 20
-34.64318053423318
 30
0.0
 10
48.58355202311621
 20
-35.83393148275418
 30
0.0
 10
48.41218288242269
 20
-36.86097121452231
 30
0.0
 10
48.41818584576423
 20
-37.89976189894888
 30
0.0
 10
48.56757169022301
 20
-38.92906896087337
 30
0.0
 10
48.93783668623578
 20
-41.48029044079194
 30
0.0
 10
50.11327457816427
 20
-43.83451847313843
 30
0.0
 10
51.26793813305442
 20
-46.10820896503058
 30
0.0
 10
51.39646691080617
 20
-46.36129971053068
 30
0.0
 10
51.77704772340971
 20
-46.1383667715391
 30
0.0
 10
51.64870471981239
 20
-45.88564184076247
 30
0.0
  0
LINE
  5
109
330
70
100
AcDbEntity
  8
0
100
AcDbLine
 10
52.62891703901225
 20
-47.73717356717489
 30
0.0
 11
51.49092420657327
 21
-47.73717356717489
 31
0.0
  0
LINE
  5
10A
330
70
100
AcDbEntity
  8
0
100
AcDbLine
 10
51.49092420657327
 20
-47.73717356717489
 30
0.0
 11
51.49092420657327
 21
-44.32319507340463
 31
0.0
  0
LINE
  5
10B
330
70
100
AcDbEntity
  8
0
100
AcDbLine
 10
51.49092420657327
 20
-44.32319507340463
 30
0.0
 11
52.62891703901225
 21
-44.32319507340463
 31
0.0
  0
LINE
  5
10C
330
70
100
AcDbEntity
  8
0
100
AcDbLine
 10
52.62891703901225
 20
-44.32319507340463
 30
0.0
 11
52.62891703901225
 21
-47.73717356717489
 31
0.0
  0
LINE
  5
10D
330
70
100
AcDbEntity
  8
0
100
AcDbLine
 10
52.23626029510065
 20
-44.21590575066477
 30
0.0
 11
51.88348251741107
 21
-44.21590575066477
 31
0.0
  0
LINE
  5
10E
330
70
100
AcDbEntity
  8
0
100
AcDbLine
 10
51.88348251741107
 20
-44.21590575066477
 30
0.0
 11
51.88348251741107
 21
-12.07902153560872
 31
0.0
  0
LINE
  5
10F
330
70
100
AcDbEntity
  8
0
100
AcDbLine
 10
51.88348251741107
 20
-12.07902153560872
 30
0.0
 11
52.23626029510065
 21
-12.07902153560872
 31
0.0
  0
LINE
  5
110
330
70
100
AcDbEntity
  8
0
100
AcDbLine
 10
52.23626029510065
 20
-12.07902153560872
 30
0.0
 11
52.23626029510065
 21
-44.21590575066477
 31
0.0
  0
LINE
  5
111
330
70
100
AcDbEntity
  8
0
100
AcDbLine
 10
56.4835381332103
 20
-12.4870327669759
 30
0.0
 11
47.6363031123749
 21
-12.4870327669759
 31
0.0
  0
LINE
  5
112
330
70
100
AcDbEntity
  8
0
100
AcDbLine
 10
47.6363031123749
 20
-12.4870327669759
 30
0.0
 11
47.6363031123749
 21
-8.260202250879235
 31
0.0
  0
LINE
  5
113
330
70
100
AcDbEntity
  8
0
100
AcDbLine
 10
47.6363031123749
 20
-8.260202250879235
 30
0.0
 11
56.4835381332103
 21
-8.260202250879235
 31
0.0
  0
LINE
  5
114
330
70
100
AcDbEntity
  8
0
100
AcDbLine
 10
56.4835381332103
 20
-8.260202250879235
 30
0.0
 11
56.4835381332103
 21
-12.4870327669759
 31
0.0
  0
MTEXT
  5
16D
330
70
100
AcDbEntity
  8
0
100
AcDbMText
 10
45.12598154095766
 20
-0.7446513475947505
 30
0.0
 40
3.2
 41
347.1191075550286
 46
0.0
 71
     1
 72
     5
  1
160mm
 73
     1
 44
1.0
1001
ACAD
1000
ACAD_MTEXT_COLUMN_INFO_BEGIN
1070
    75
1070
     2
1070
    79
1070
     0
1070
    76
1070
     1
1070
    78
1070
     0
1070
    48
1040
347.1191075550286
1070
    49
1040
16.0
1070
    50
1070
     1
1040
0.0
1000
ACAD_MTEXT_COLUMN_INFO_END
  0
MTEXT
  5
175
330
70
100
AcDbEntity
  8
0
100
AcDbMText
 10
59.43322914044743
 20
-8.222669915597716
 30
0.0
 40
3.2
 41
347.1191075550286
 46
0.0
 71
     1
 72
     5
  1
70mm
 73
     1
 44
1.0
1001
ACAD
1000
ACAD_MTEXT_COLUMN_INFO_BEGIN
1070
    75
1070
     2
1070
    79
1070
     0
1070
    76
1070
     1
1070
    78
1070
     0
1070
    48
1040
347.1191075550286
1070
    49
1040
16.0
1070
    50
1070
     1
1040
0.0
1000
ACAD_MTEXT_COLUMN_INFO_END
  0
MTEXT
  5
17D
330
70
100
AcDbEntity
  8
0
100
AcDbMText
 10
44.01636066207798
 20
-92.18229792315106
 30
0.0
 40
3.2
 41
347.1191075550286
 46
0.0
 71
     1
 72
     5
  1
750mm
 73
     1
 44
1.0
1001
ACAD
1000
ACAD_MTEXT_COLUMN_INFO_BEGIN
1070
    75
1070
     2
1070
    79
1070
     0
1070
    76
1070
     1
1070
    78
1070
     0
1070
    48
1040
347.1191075550286
1070
    49
1040
16.0
1070
    50
1070
     1
1040
0.0
1000
ACAD_MTEXT_COLUMN_INFO_END
  0
ENDSEC
  0
SECTION
  2
OBJECTS
  0
DICTIONARY
  5
C
330
0
100
AcDbDictionary
281
     1
  3
ACAD_CIP_PREVIOUS_PRODUCT_INFO
350
101
  3
ACAD_COLOR
350
63
  3
ACAD_DETAILVIEWSTYLE
350
6A
  3
ACAD_GROUP
350
D
  3
ACAD_LAYOUT
350
62
  3
ACAD_MATERIAL
350
10
  3
ACAD_MLEADERSTYLE
350
66
  3
ACAD_MLINESTYLE
350
5F
  3
ACAD_PLOTSETTINGS
350
61
  3
ACAD_PLOTSTYLENAME
350
E
  3
ACAD_SCALELIST
350
42
  3
ACAD_SECTIONVIEWSTYLE
350
68
  3
ACAD_TABLESTYLE
350
64
  3
ACAD_VISUALSTYLE
350
29
  3
ACDB_RECOMPOSE_DATA
350
1C7
  3
AcDbVariableDictionary
350
F7
  3
AcDsDecomposeData
350
1CD
  0
DICTIONARY
  5
11B
330
2
100
AcDbDictionary
280
     1
281
     1
  3
ACAD_LAYERSTATES
360
11C
  0
DICTIONARY
  5
105
330
70
100
AcDbDictionary
280
     1
281
     1
  3
ACAD_SORTENTS
360
106
  0
XRECORD
  5
101
102
{ACAD_REACTORS
330
C
102
}
330
C
100
AcDbXrecord
280
     1
300
ACD
300
2022
300

  0
DICTIONARY
  5
63
102
{ACAD_REACTORS
330
C
102
}
330
C
100
AcDbDictionary
281
     1
  0
DICTIONARY
  5
6A
102
{ACAD_REACTORS
330
C
102
}
330
C
100
AcDbDictionary
281
     1
  3
Imperial24
350
6B
  0
DICTIONARY
  5
D
102
{ACAD_REACTORS
330
C
102
}
330
C
100
AcDbDictionary
281
     1
  0
DICTIONARY
  5
62
102
{ACAD_REACTORS
330
C
102
}
330
C
100
AcDbDictionary
281
     1
  3
Layout1
350
6F
  3
Layout2
350
77
  3
Model
350
73
  0
DICTIONARY
  5
10
102
{ACAD_REACTORS
330
C
102
}
330
C
100
AcDbDictionary
281
     1
  3
ByBlock
350
19
  3
ByLayer
350
11
  3
Global
350
21
  0
DICTIONARY
  5
66
102
{ACAD_REACTORS
330
C
102
}
330
C
100
AcDbDictionary
281
     1
  3
Standard
350
67
  0
DICTIONARY
  5
5F
102
{ACAD_REACTORS
330
C
102
}
330
C
100
AcDbDictionary
281
     1
  3
Standard
350
60
  0
DICTIONARY
  5
61
102
{ACAD_REACTORS
330
C
102
}
330
C
100
AcDbDictionary
281
     1
  0
ACDBDICTIONARYWDFLT
  5
E
102
{ACAD_REACTORS
330
C
102
}
330
C
100
AcDbDictionary
281
     1
  3
Normal
350
F
100
AcDbDictionaryWithDefault
340
F
  0
DICTIONARY
  5
42
102
{ACAD_REACTORS
330
C
102
}
330
C
100
AcDbDictionary
281
     1
  3
A0
350
43
  3
A1
350
44
  3
A2
350
45
  3
A3
350
46
  3
A4
350
47
  3
A5
350
48
  3
A6
350
49
  3
A7
350
4A
  3
A8
350
4B
  3
A9
350
4C
  3
B0
350
4D
  3
B1
350
4E
  3
B2
350
4F
  3
B3
350
50
  3
B4
350
51
  3
B5
350
52
  3
B6
350
53
  0
DICTIONARY
  5
68
102
{ACAD_REACTORS
330
C
102
}
330
C
100
AcDbDictionary
281
     1
  3
Imperial24
350
69
  0
DICTIONARY
  5
64
102
{ACAD_REACTORS
330
C
102
}
330
C
100
AcDbDictionary
281
     1
  3
Standard
350
65
  0
DICTIONARY
  5
29
102
{ACAD_REACTORS
330
C
102
}
330
C
100
AcDbDictionary
281
     1
  3
2dWireframe
350
2F
  3
Basic
350
2E
  3
Brighten
350
35
  3
ColorChange
350
39
  3
Conceptual
350
32
  3
Dim
350
34
  3
EdgeColorOff
350
41
  3
Facepattern
350
38
  3
Flat
350
2A
  3
FlatWithEdges
350
2B
  3
Gouraud
350
2C
  3
GouraudWithEdges
350
2D
  3
Hidden
350
31
  3
JitterOff
350
3F
  3
Linepattern
350
37
  3
OverhangOff
350
40
  3
Realistic
350
33
  3
Shaded
350
3E
  3
Shaded with edges
350
3D
  3
Shades of Gray
350
3A
  3
Sketchy
350
3B
  3
Thicken
350
36
  3
Wireframe
350
30
  3
X-Ray
350
3C
  0
XRECORD
  5
1C7
102
{ACAD_REACTORS
330
C
102
}
330
C
100
AcDbXrecord
280
     1
 90
        1
330
65
330
16D
330
175
330
17D
  0
DICTIONARY
  5
F7
102
{ACAD_REACTORS
330
C
102
}
330
C
100
AcDbDictionary
281
     1
  3
CANNOSCALE
350
FC
  3
CMLEADERSTYLE
350
F9
  3
CTABLESTYLE
350
F8
  3
CVIEWDETAILSTYLE
350
FA
  3
CVIEWSECTIONSTYLE
350
FB
  0
DICTIONARY
  5
1CD
102
{ACAD_REACTORS
330
C
102
}
330
C
100
AcDbDictionary
281
     1
  3
AcDsRecords
350
1CF
  3
AcDsSchemas
350
1CE
1001
ACAD
1070
     2
  0
DICTIONARY
  5
11C
102
{ACAD_REACTORS
330
11B
102
}
330
11B
100
AcDbDictionary
281
     1
  0
SORTENTSTABLE
  5
106
102
{ACAD_REACTORS
330
105
102
}
330
105
100
AcDbSortentsTable
330
70
331
99
  5
113
331
AE
  5
115
331
AF
  5
116
331
103
  5
82
331
104
  5
83
331
107
  5
81
331
108
  5
AF
331
109
  5
103
331
10A
  5
107
331
10B
  5
108
331
10C
  5
109
331
10D
  5
10A
331
10E
  5
10B
331
10F
  5
10C
331
110
  5
10D
331
111
  5
10E
331
112
  5
10F
331
113
  5
110
331
114
  5
111
  0
ACDBDETAILVIEWSTYLE
  5
6B
102
{ACAD_XDICTIONARY
360
1D2
102
}
102
{ACAD_REACTORS
330
6A
102
}
330
6A
100
AcDbModelDocViewStyle
 70
     0
  3
Imperial24
290
     0
100
AcDbDetailViewStyle
 70
     0
 71
     0
 90
        3
 71
     1
340
55
 62
   256
 40
0.24
340
0
 62
   256
 40
0.24
300

 40
0.36
280
     3
 71
     2
340
5D
 90
       25
 62
   256
 71
     3
340
55
 62
   256
 40
0.24
 90
        1
 40
0.75
 90
        1
300
%<\AcVar ViewType \f "%tc1">% %<\AcVar ViewDetailId>%\PSCALE %<\AcVar ViewScale \f "%sn">%
 71
     4
340
5D
 90
       25
 62
   256
340
5D
 90
       25
 62
   256
280
     0
  0
LAYOUT
  5
6F
102
{ACAD_REACTORS
330
62
102
}
330
62
100
AcDbPlotSettings
  1

  2

  4

  6

 40
0.0
 41
0.0
 42
0.0
 43
0.0
 44
0.0
 45
0.0
 46
0.0
 47
0.0
 48
0.0
 49
0.0
140
0.0
141
0.0
142
1.0
143
1.0
 70
   688
 72
     0
 73
     0
 74
     5
  7

 75
    16
147
1.0
 76
     0
 77
     2
 78
   300
148
0.0
149
0.0
100
AcDbLayout
  1
Layout1
 70
     1
 71
     1
 10
0.0
 20
0.0
 11
12.0
 21
9.0
 12
0.0
 22
0.0
 32
0.0
 14
1.000000000000000E+20
 24
1.000000000000000E+20
 34
1.000000000000000E+20
 15
-1.000000000000000E+20
 25
-1.000000000000000E+20
 35
-1.000000000000000E+20
146
0.0
 13
0.0
 23
0.0
 33
0.0
 16
1.0
 26
0.0
 36
0.0
 17
0.0
 27
1.0
 37
0.0
 76
     0
330
6C
  0
LAYOUT
  5
77
102
{ACAD_REACTORS
330
62
102
}
330
62
100
AcDbPlotSettings
  1

  2

  4

  6

 40
0.0
 41
0.0
 42
0.0
 43
0.0
 44
0.0
 45
0.0
 46
0.0
 47
0.0
 48
0.0
 49
0.0
140
0.0
141
0.0
142
1.0
143
1.0
 70
   688
 72
     0
 73
     0
 74
     5
  7

 75
    16
147
1.0
 76
     0
 77
     2
 78
   300
148
0.0
149
0.0
100
AcDbLayout
  1
Layout2
 70
     1
 71
     2
 10
0.0
 20
0.0
 11
12.0
 21
9.0
 12
0.0
 22
0.0
 32
0.0
 14
0.0
 24
0.0
 34
0.0
 15
0.0
 25
0.0
 35
0.0
146
0.0
 13
0.0
 23
0.0
 33
0.0
 16
1.0
 26
0.0
 36
0.0
 17
0.0
 27
1.0
 37
0.0
 76
     0
330
74
  0
LAYOUT
  5
73
102
{ACAD_XDICTIONARY
360
164
102
}
102
{ACAD_REACTORS
330
62
102
}
330
62
100
AcDbPlotSettings
  1

  2

  4

  6

 40
0.0
 41
0.0
 42
0.0
 43
0.0
 44
0.0
 45
0.0
 46
0.0
 47
0.0
 48
0.0
 49
0.0
140
0.0
141
0.0
142
1.0
143
1.0
 70
  1712
 72
     0
 73
     0
 74
     0
  7

 75
     0
147
1.0
 76
     0
 77
     2
 78
   300
148
0.0
149
0.0
100
AcDbLayout
  1
Model
 70
     1
 71
     0
 10
0.0
 20
0.0
 11
12.0
 21
9.0
 12
0.0
 22
0.0
 32
0.0
 14
0.0
 24
0.0
 34
0.0
 15
0.0
 25
0.0
 35
0.0
146
0.0
 13
0.0
 23
0.0
 33
0.0
 16
1.0
 26
0.0
 36
0.0
 17
0.0
 27
1.0
 37
0.0
 76
     0
330
70
331
57
  0
MATERIAL
  5
19
102
{ACAD_XDICTIONARY
360
1A
102
}
102
{ACAD_REACTORS
330
10
102
}
330
10
100
AcDbMaterial
  1
ByBlock
 72
     0
 43
0.0208333333333333
 43
0.0
 43
0.0
 43
0.0
 43
0.0
 43
0.0208333333333333
 43
0.0
 43
0.0
 43
0.0
 43
0.0
 43
1.0
 43
0.0
 43
0.0
 43
0.0
 43
0.0
 43
1.0
 77
     0
 47
0.0208333333333333
 47
0.0
 47
0.0
 47
0.0
 47
0.0
 47
0.0208333333333333
 47
0.0
 47
0.0
 47
0.0
 47
0.0
 47
1.0
 47
0.0
 47
0.0
 47
0.0
 47
0.0
 47
1.0
171
     0
 49
0.0208333333333333
 49
0.0
 49
0.0
 49
0.0
 49
0.0
 49
0.0208333333333333
 49
0.0
 49
0.0
 49
0.0
 49
0.0
 49
1.0
 49
0.0
 49
0.0
 49
0.0
 49
0.0
 49
1.0
175
     0
142
0.0208333333333333
142
0.0
142
0.0
142
0.0
142
0.0
142
0.0208333333333333
142
0.0
142
0.0
142
0.0
142
0.0
142
1.0
142
0.0
142
0.0
142
0.0
142
0.0
142
1.0
179
     0
144
0.0208333333333333
144
0.0
144
0.0
144
0.0
144
0.0
144
0.0208333333333333
144
0.0
144
0.0
144
0.0
144
0.0
144
1.0
144
0.0
144
0.0
144
0.0
144
0.0
144
1.0
147
0.0208333333333333
147
0.0
147
0.0
147
0.0
147
0.0
147
0.0208333333333333
147
0.0
147
0.0
147
0.0
147
0.0
147
1.0
147
0.0
147
0.0
147
0.0
147
0.0
147
1.0
  0
MATERIAL
  5
11
102
{ACAD_XDICTIONARY
360
12
102
}
102
{ACAD_REACTORS
330
10
102
}
330
10
100
AcDbMaterial
  1
ByLayer
 72
     0
 43
0.0208333333333333
 43
0.0
 43
0.0
 43
0.0
 43
0.0
 43
0.0208333333333333
 43
0.0
 43
0.0
 43
0.0
 43
0.0
 43
1.0
 43
0.0
 43
0.0
 43
0.0
 43
0.0
 43
1.0
 77
     0
 47
0.0208333333333333
 47
0.0
 47
0.0
 47
0.0
 47
0.0
 47
0.0208333333333333
 47
0.0
 47
0.0
 47
0.0
 47
0.0
 47
1.0
 47
0.0
 47
0.0
 47
0.0
 47
0.0
 47
1.0
171
     0
 49
0.0208333333333333
 49
0.0
 49
0.0
 49
0.0
 49
0.0
 49
0.0208333333333333
 49
0.0
 49
0.0
 49
0.0
 49
0.0
 49
1.0
 49
0.0
 49
0.0
 49
0.0
 49
0.0
 49
1.0
175
     0
142
0.0208333333333333
142
0.0
142
0.0
142
0.0
142
0.0
142
0.0208333333333333
142
0.0
142
0.0
142
0.0
142
0.0
142
1.0
142
0.0
142
0.0
142
0.0
142
0.0
142
1.0
179
     0
144
0.0208333333333333
144
0.0
144
0.0
144
0.0
144
0.0
144
0.0208333333333333
144
0.0
144
0.0
144
0.0
144
0.0
144
1.0
144
0.0
144
0.0
144
0.0
144
0.0
144
1.0
147
0.0208333333333333
147
0.0
147
0.0
147
0.0
147
0.0
147
0.0208333333333333
147
0.0
147
0.0
147
0.0
147
0.0
147
1.0
147
0.0
147
0.0
147
0.0
147
0.0
147
1.0
  0
MATERIAL
  5
21
102
{ACAD_XDICTIONARY
360
22
102
}
102
{ACAD_REACTORS
330
10
102
}
330
10
100
AcDbMaterial
  1
Global
 72
     0
 43
0.0208333333333333
 43
0.0
 43
0.0
 43
0.0
 43
0.0
 43
0.0208333333333333
 43
0.0
 43
0.0
 43
0.0
 43
0.0
 43
1.0
 43
0.0
 43
0.0
 43
0.0
 43
0.0
 43
1.0
 77
     0
 47
0.0208333333333333
 47
0.0
 47
0.0
 47
0.0
 47
0.0
 47
0.0208333333333333
 47
0.0
 47
0.0
 47
0.0
 47
0.0
 47
1.0
 47
0.0
 47
0.0
 47
0.0
 47
0.0
 47
1.0
171
     0
 49
0.0208333333333333
 49
0.0
 49
0.0
 49
0.0
 49
0.0
 49
0.0208333333333333
 49
0.0
 49
0.0
 49
0.0
 49
0.0
 49
1.0
 49
0.0
 49
0.0
 49
0.0
 49
0.0
 49
1.0
175
     0
142
0.0208333333333333
142
0.0
142
0.0
142
0.0
142
0.0
142
0.0208333333333333
142
0.0
142
0.0
142
0.0
142
0.0
142
1.0
142
0.0
142
0.0
142
0.0
142
0.0
142
1.0
179
     0
144
0.0208333333333333
144
0.0
144
0.0
144
0.0
144
0.0
144
0.0208333333333333
144
0.0
144
0.0
144
0.0
144
0.0
144
1.0
144
0.0
144
0.0
144
0.0
144
0.0
144
1.0
147
0.0208333333333333
147
0.0
147
0.0
147
0.0
147
0.0
147
0.0208333333333333
147
0.0
147
0.0
147
0.0
147
0.0
147
1.0
147
0.0
147
0.0
147
0.0
147
0.0
147
1.0
  0
MLEADERSTYLE
  5
67
102
{ACAD_REACTORS
330
66
102
}
330
66
100
AcDbMLeaderStyle
179
     2
170
     2
171
     1
172
     0
 90
        2
 40
0.0
 41
0.0
173
     1
 91
-1056964608
340
5B
 92
       -2
290
     1
 42
0.09
291
     1
 43
0.36
  3
Standard
 44
0.18
300

342
55
174
     1
178
     6
175
     1
176
     0
 93
-1056964608
 45
0.18
292
     0
297
     0
 46
0.18
 94
-1056964608
 47
1.0
 49
1.0
140
1.0
293
     1
141
0.0
294
     1
177
     0
142
1.0
295
     0
296
     0
143
0.125
271
     0
272
     9
273
     9
298
     1
  0
MLINESTYLE
  5
60
102
{ACAD_REACTORS
330
5F
102
}
330
5F
100
AcDbMlineStyle
  2
STANDARD
 70
     0
  3

 62
   256
 51
90.0
 52
90.0
 71
     2
 49
0.5
 62
   256
  6
BYLAYER
 49
-0.5
 62
   256
  6
BYLAYER
  0
ACDBPLACEHOLDER
  5
F
102
{ACAD_REACTORS
330
E
102
}
330
E
  0
SCALE
  5
43
102
{ACAD_REACTORS
330
42
102
}
330
42
100
AcDbScale
 70
     0
300
1:1
140
1.0
141
1.0
290
     1
  0
SCALE
  5
44
102
{ACAD_REACTORS
330
42
102
}
330
42
100
AcDbScale
 70
     0
300
1/128" = 1'-0"
140
0.0078125
141
12.0
290
     0
  0
SCALE
  5
45
102
{ACAD_REACTORS
330
42
102
}
330
42
100
AcDbScale
 70
     0
300
1/64" = 1'-0"
140
0.015625
141
12.0
290
     0
  0
SCALE
  5
46
102
{ACAD_REACTORS
330
42
102
}
330
42
100
AcDbScale
 70
     0
300
1/32" = 1'-0"
140
0.03125
141
12.0
290
     0
  0
SCALE
  5
47
102
{ACAD_REACTORS
330
42
102
}
330
42
100
AcDbScale
 70
     0
300
1/16" = 1'-0"
140
0.0625
141
12.0
290
     0
  0
SCALE
  5
48
102
{ACAD_REACTORS
330
42
102
}
330
42
100
AcDbScale
 70
     0
300
3/32" = 1'-0"
140
0.09375
141
12.0
290
     0
  0
SCALE
  5
49
102
{ACAD_REACTORS
330
42
102
}
330
42
100
AcDbScale
 70
     0
300
1/8" = 1'-0"
140
0.125
141
12.0
290
     0
  0
SCALE
  5
4A
102
{ACAD_REACTORS
330
42
102
}
330
42
100
AcDbScale
 70
     0
300
3/16" = 1'-0"
140
0.1875
141
12.0
290
     0
  0
SCALE
  5
4B
102
{ACAD_REACTORS
330
42
102
}
330
42
100
AcDbScale
 70
     0
300
1/4" = 1'-0"
140
0.25
141
12.0
290
     0
  0
SCALE
  5
4C
102
{ACAD_REACTORS
330
42
102
}
330
42
100
AcDbScale
 70
     0
300
3/8" = 1'-0"
140
0.375
141
12.0
290
     0
  0
SCALE
  5
4D
102
{ACAD_REACTORS
330
42
102
}
330
42
100
AcDbScale
 70
     0
300
1/2" = 1'-0"
140
0.5
141
12.0
290
     0
  0
SCALE
  5
4E
102
{ACAD_REACTORS
330
42
102
}
330
42
100
AcDbScale
 70
     0
300
3/4" = 1'-0"
140
0.75
141
12.0
290
     0
  0
SCALE
  5
4F
102
{ACAD_REACTORS
330
42
102
}
330
42
100
AcDbScale
 70
     0
300
1" = 1'-0"
140
1.0
141
12.0
290
     0
  0
SCALE
  5
50
102
{ACAD_REACTORS
330
42
102
}
330
42
100
AcDbScale
 70
     0
300
1-1/2" = 1'-0"
140
1.5
141
12.0
290
     0
  0
SCALE
  5
51
102
{ACAD_REACTORS
330
42
102
}
330
42
100
AcDbScale
 70
     0
300
3" = 1'-0"
140
3.0
141
12.0
290
     0
  0
SCALE
  5
52
102
{ACAD_REACTORS
330
42
102
}
330
42
100
AcDbScale
 70
     0
300
6" = 1'-0"
140
6.0
141
12.0
290
     0
  0
SCALE
  5
53
102
{ACAD_REACTORS
330
42
102
}
330
42
100
AcDbScale
 70
     0
300
1'-0" = 1'-0"
140
12.0
141
12.0
290
     0
  0
ACDBSECTIONVIEWSTYLE
  5
69
102
{ACAD_XDICTIONARY
360
1D0
102
}
102
{ACAD_REACTORS
330
68
102
}
330
68
100
AcDbModelDocViewStyle
 70
     0
  3
Imperial24
290
     0
100
AcDbSectionViewStyle
 70
     0
 71
     0
 90
       78
 71
     1
340
55
 62
   256
 40
0.24
340
0
340
0
 62
   256
 40
0.24
300
I, O, Q, S, X, Z
 40
0.48
 90
        3
 40
0.18
 90
        1
 71
     2
340
5D
 90
       25
 62
   256
340
5D
 90
       50
 62
   256
 40
0.24
 40
0.0
 40
0.24
 71
     3
340
55
 62
   256
 40
0.24
 90
        1
 40
0.75
 90
        1
300
%<\AcVar ViewType \f "%tc1">% %<\AcVar ViewSectionStartId>%-%<\AcVar ViewSectionEndId>%\PSCALE %<\AcVar ViewScale \f "%sn">%
 71
     4
 62
   256
 62
   257
300
ANSI31
 40
1.0
 90
        0
290
     0
290
     0
 90
        6
 40
0.0
 40
1.570796326794896
 40
0.2617993877991494
 40
1.308996938995747
 40
-0.2617993877991494
 40
1.832595714594046
  0
TABLESTYLE
  5
65
102
{ACAD_XDICTIONARY
360
122
102
}
102
{ACAD_REACTORS
330
64
102
}
330
64
100
AcDbTableStyle
280
     0
  3
Standard
 70
     0
 71
     0
 40
0.06
 41
0.06
280
     0
281
     0
  7
Standard
140
0.18
170
     2
 62
     0
 63
     7
283
     0
 90
      512
 91
        0
  1

274
    -2
284
     1
 64
     0
275
    -2
285
     1
 65
     0
276
    -2
286
     1
 66
     0
277
    -2
287
     1
 67
     0
278
    -2
288
     1
 68
     0
279
    -2
289
     1
 69
     0
  7
Standard
140
0.25
170
     5
 62
     0
 63
     7
283
     0
 90
      512
 91
        0
  1

274
    -2
284
     1
 64
     0
275
    -2
285
     1
 65
     0
276
    -2
286
     1
 66
     0
277
    -2
287
     1
 67
     0
278
    -2
288
     1
 68
     0
279
    -2
289
     1
 69
     0
  7
Standard
140
0.18
170
     5
 62
     0
 63
     7
283
     0
 90
      512
 91
        0
  1

274
    -2
284
     1
 64
     0
275
    -2
285
     1
 65
     0
276
    -2
286
     1
 66
     0
277
    -2
287
     1
 67
     0
278
    -2
288
     1
 68
     0
279
    -2
289
     1
 69
     0
  0
VISUALSTYLE
  5
2F
102
{ACAD_REACTORS
330
29
102
}
330
29
100
AcDbVisualStyle
  2
2dWireframe
 70
     4
177
     3
291
     0
 70
    58
 90
        0
176
     1
 90
        2
176
     1
 90
        0
176
     1
 90
        0
176
     1
 40
0.6
176
     1
 40
30.0
176
     1
 62
     7
420
 16777215
176
     1
 90
        1
176
     1
 90
        4
176
     1
 62
     7
176
     1
 62
   257
176
     1
 90
        1
176
     1
 90
        1
176
     1
 40
1.0
176
     1
 90
        0
176
     1
 62
   257
176
     1
 40
1.0
176
     1
 90
        1
176
     1
 90
        6
176
     1
 90
        2
176
     1
 62
     7
176
     1
 90
        5
176
     1
 90
        0
176
     1
 90
        0
176
     1
290
     0
176
     1
 90
        1
176
     1
 40
0.0
176
     1
 90
        0
176
     1
290
     1
176
     1
290
     1
176
     1
290
     0
176
     1
290
     0
176
     1
290
     0
176
     1
290
     0
176
     1
290
     0
176
     1
290
     0
176
     1
290
     0
176
     1
 90
       50
176
     1
 40
0.0
176
     1
 40
1.0
176
     1
 90
        0
176
     1
 62
    18
420
        0
176
     1
 90
       50
176
     1
 90
        3
176
     1
 62
     5
420
      255
176
     1
290
     0
176
     1
 90
       50
176
     1
 90
       50
176
     1
 90
       50
176
     1
290
     0
176
     1
 90
       50
176
     1
 62
   256
176
     0
 40
1.0
176
     0
 90
        2
176
     1
  1
strokes_ogs.tif
176
     1
290
     0
176
     1
 40
1.0
176
     1
 40
1.0
176
     1
1001
ACAD
1000
AcDbSavedByObjectVersion
1070
     0
  0
VISUALSTYLE
  5
2E
102
{ACAD_REACTORS
330
29
102
}
330
29
100
AcDbVisualStyle
  2
Basic
 70
     7
177
     3
291
     1
 70
    58
 90
        1
176
     1
 90
        0
176
     1
 90
        1
176
     1
 90
        0
176
     1
 40
0.6
176
     1
 40
30.0
176
     1
 62
     7
420
 16777215
176
     1
 90
        0
176
     1
 90
        4
176
     1
 62
     7
176
     1
 62
   257
176
     1
 90
        1
176
     1
 90
        1
176
     1
 40
1.0
176
     1
 90
        8
176
     1
 62
     7
176
     1
 40
1.0
176
     1
 90
        1
176
     1
 90
        6
176
     1
 90
        2
176
     1
 62
     7
176
     1
 90
        5
176
     1
 90
        0
176
     1
 90
        0
176
     1
290
     0
176
     1
 90
        1
176
     1
 40
0.0
176
     1
 90
        0
176
     1
290
     0
176
     1
290
     1
176
     1
290
     1
176
     1
290
     0
176
     1
290
     0
176
     1
290
     0
176
     1
290
     0
176
     1
290
     0
176
     1
290
     0
176
     1
 90
       50
176
     1
 40
0.0
176
     1
 40
1.0
176
     1
 90
        0
176
     1
 62
    18
420
        0
176
     1
 90
       50
176
     1
 90
        3
176
     1
 62
     5
420
      255
176
     1
290
     0
176
     1
 90
       50
176
     1
 90
       50
176
     1
 90
       50
176
     1
290
     0
176
     1
 90
       50
176
     1
 62
   256
176
     0
 40
1.0
176
     0
 90
        2
176
     1
  1
strokes_ogs.tif
176
     1
290
     0
176
     1
 40
1.0
176
     1
 40
1.0
176
     1
1001
ACAD
1000
AcDbSavedByObjectVersion
1070
     0
  0
VISUALSTYLE
  5
35
102
{ACAD_REACTORS
330
29
102
}
330
29
100
AcDbVisualStyle
  2
Brighten
 70
    12
177
     3
291
     1
 70
    58
 90
        2
176
     1
 90
        2
176
     1
 90
        0
176
     1
 90
        0
176
     1
 40
0.6
176
     1
 40
30.0
176
     1
 62
     7
420
 16777215
176
     1
 90
        1
176
     1
 90
        4
176
     1
 62
     7
176
     1
 62
   257
176
     1
 90
        1
176
     1
 90
        1
176
     1
 40
1.0
176
     1
 90
        8
176
     1
 62
     7
176
     1
 40
1.0
176
     1
 90
        1
176
     1
 90
        6
176
     1
 90
        2
176
     1
 62
     7
176
     1
 90
        5
176
     1
 90
        0
176
     1
 90
        0
176
     1
290
     0
176
     1
 90
        1
176
     1
 40
50.0
176
     1
 90
        0
176
     1
290
     0
176
     1
290
     1
176
     1
290
     1
176
     1
290
     0
176
     1
290
     0
176
     1
290
     0
176
     1
290
     0
176
     1
290
     0
176
     1
290
     0
176
     1
 90
       50
176
     1
 40
0.0
176
     1
 40
1.0
176
     1
 90
        0
176
     1
 62
    18
420
        0
176
     1
 90
       50
176
     1
 90
        3
176
     1
 62
     5
420
      255
176
     1
290
     0
176
     1
 90
       50
176
     1
 90
       50
176
     1
 90
       50
176
     1
290
     0
176
     1
 90
       50
176
     1
 62
   256
176
     0
 40
1.0
176
     0
 90
        2
176
     1
  1
strokes_ogs.tif
176
     1
290
     0
176
     1
 40
1.0
176
     1
 40
1.0
176
     1
1001
ACAD
1000
AcDbSavedByObjectVersion
1070
     0
  0
VISUALSTYLE
  5
39
102
{ACAD_REACTORS
330
29
102
}
330
29
100
AcDbVisualStyle
  2
ColorChange
 70
    16
177
     3
291
     1
 70
    58
 90
        2
176
     1
 90
        2
176
     1
 90
        3
176
     1
 90
        0
176
     1
 40
0.6
176
     1
 40
30.0
176
     1
 62
     8
420
  8421504
176
     1
 90
        1
176
     1
 90
        4
176
     1
 62
     7
176
     1
 62
   257
176
     1
 90
        1
176
     1
 90
        1
176
     1
 40
1.0
176
     1
 90
        8
176
     1
 62
     8
420
  8421504
176
     1
 40
1.0
176
     1
 90
        1
176
     1
 90
        6
176
     1
 90
        2
176
     1
 62
     7
176
     1
 90
        5
176
     1
 90
        0
176
     1
 90
        0
176
     1
290
     0
176
     1
 90
        1
176
     1
 40
0.0
176
     1
 90
        0
176
     1
290
     0
176
     1
290
     1
176
     1
290
     1
176
     1
290
     0
176
     1
290
     0
176
     1
290
     0
176
     1
290
     0
176
     1
290
     0
176
     1
290
     0
176
     1
 90
       50
176
     1
 40
0.0
176
     1
 40
1.0
176
     1
 90
        0
176
     1
 62
    18
420
        0
176
     1
 90
       50
176
     1
 90
        3
176
     1
 62
     5
420
      255
176
     1
290
     0
176
     1
 90
       50
176
     1
 90
       50
176
     1
 90
       50
176
     1
290
     0
176
     1
 90
       50
176
     1
 62
   256
176
     0
 40
1.0
176
     0
 90
        2
176
     1
  1
strokes_ogs.tif
176
     1
290
     0
176
     1
 40
1.0
176
     1
 40
1.0
176
     1
1001
ACAD
1000
AcDbSavedByObjectVersion
1070
     0
  0
VISUALSTYLE
  5
32
102
{ACAD_REACTORS
330
29
102
}
330
29
100
AcDbVisualStyle
  2
Conceptual
 70
     9
177
     3
291
     0
 70
    58
 90
        3
176
     1
 90
        2
176
     1
 90
        0
176
     1
 90
        0
176
     1
 40
0.6
176
     1
 40
30.0
176
     1
 62
     7
420
 16777215
176
     1
 90
        2
176
     1
 90
        2
176
     1
 62
     7
176
     1
 62
   257
176
     1
 90
        1
176
     1
 90
        1
176
     1
 40
179.0
176
     1
 90
        8
176
     1
 62
     7
176
     1
 40
1.0
176
     1
 90
        1
176
     1
 90
        6
176
     1
 90
        2
176
     1
 62
     7
176
     1
 90
        3
176
     1
 90
        0
176
     1
 90
        0
176
     1
290
     0
176
     1
 90
        1
176
     1
 40
0.0
176
     1
 90
        0
176
     1
290
     0
176
     1
290
     1
176
     1
290
     1
176
     1
290
     0
176
     1
290
     0
176
     1
290
     0
176
     1
290
     0
176
     1
290
     0
176
     1
290
     0
176
     1
 90
       50
176
     1
 40
0.0
176
     1
 40
1.0
176
     1
 90
        0
176
     1
 62
    18
420
        0
176
     1
 90
       50
176
     1
 90
        3
176
     1
 62
     5
420
      255
176
     1
290
     0
176
     1
 90
       50
176
     1
 90
       50
176
     1
 90
       50
176
     1
290
     0
176
     1
 90
       50
176
     1
 62
   256
176
     0
 40
1.0
176
     0
 90
        2
176
     1
  1
strokes_ogs.tif
176
     1
290
     0
176
     1
 40
1.0
176
     1
 40
1.0
176
     1
1001
ACAD
1000
AcDbSavedByObjectVersion
1070
     0
  0
VISUALSTYLE
  5
34
102
{ACAD_REACTORS
330
29
102
}
330
29
100
AcDbVisualStyle
  2
Dim
 70
    11
177
     3
291
     1
 70
    58
 90
        2
176
     1
 90
        2
176
     1
 90
        0
176
     1
 90
        0
176
     1
 40
0.6
176
     1
 40
30.0
176
     1
 62
     7
420
 16777215
176
     1
 90
        1
176
     1
 90
        4
176
     1
 62
     7
176
     1
 62
   257
176
     1
 90
        1
176
     1
 90
        1
176
     1
 40
1.0
176
     1
 90
        8
176
     1
 62
     7
176
     1
 40
1.0
176
     1
 90
        1
176
     1
 90
        6
176
     1
 90
        2
176
     1
 62
     7
176
     1
 90
        5
176
     1
 90
        0
176
     1
 90
        0
176
     1
290
     0
176
     1
 90
        1
176
     1
 40
-50.0
176
     1
 90
        0
176
     1
290
     0
176
     1
290
     1
176
     1
290
     1
176
     1
290
     0
176
     1
290
     0
176
     1
290
     0
176
     1
290
     0
176
     1
290
     0
176
     1
290
     0
176
     1
 90
       50
176
     1
 40
0.0
176
     1
 40
1.0
176
     1
 90
        0
176
     1
 62
    18
420
        0
176
     1
 90
       50
176
     1
 90
        3
176
     1
 62
     5
420
      255
176
     1
290
     0
176
     1
 90
       50
176
     1
 90
       50
176
     1
 90
       50
176
     1
290
     0
176
     1
 90
       50
176
     1
 62
   256
176
     0
 40
1.0
176
     0
 90
        2
176
     1
  1
strokes_ogs.tif
176
     1
290
     0
176
     1
 40
1.0
176
     1
 40
1.0
176
     1
1001
ACAD
1000
AcDbSavedByObjectVersion
1070
     0
  0
VISUALSTYLE
  5
41
102
{ACAD_REACTORS
330
29
102
}
330
29
100
AcDbVisualStyle
  2
EdgeColorOff
 70
    22
177
     3
291
     1
 70
    58
 90
        2
176
     0
 90
        2
176
     0
 90
        0
176
     0
 90
        0
176
     0
 40
0.6
176
     0
 40
30.0
176
     0
 62
     7
420
 16777215
176
     0
 90
        1
176
     0
 90
        4
176
     0
 62
     7
176
     0
 62
   257
176
     0
 90
        1
176
     0
 90
        1
176
     0
 40
1.0
176
     0
 90
        8
176
     2
 62
     7
176
     0
 40
1.0
176
     0
 90
        1
176
     0
 90
        6
176
     0
 90
        2
176
     0
 62
     7
176
     0
 90
        5
176
     0
 90
        0
176
     0
 90
        0
176
     0
290
     0
176
     0
 90
        1
176
     0
 40
0.0
176
     0
 90
        0
176
     0
290
     0
176
     0
290
     1
176
     0
290
     1
176
     0
290
     0
176
     0
290
     0
176
     0
290
     0
176
     0
290
     0
176
     0
290
     0
176
     0
290
     0
176
     0
 90
       50
176
     0
 40
0.0
176
     0
 40
1.0
176
     0
 90
        0
176
     0
 62
    18
420
        0
176
     0
 90
       50
176
     0
 90
        3
176
     0
 62
     5
420
      255
176
     0
290
     0
176
     0
 90
       50
176
     0
 90
       50
176
     0
 90
       50
176
     0
290
     0
176
     0
 90
       50
176
     0
 62
   256
176
     0
 40
1.0
176
     0
 90
        2
176
     0
  1
strokes_ogs.tif
176
     0
290
     0
176
     0
 40
1.0
176
     0
 40
1.0
176
     0
1001
ACAD
1000
AcDbSavedByObjectVersion
1070
     0
  0
VISUALSTYLE
  5
38
102
{ACAD_REACTORS
330
29
102
}
330
29
100
AcDbVisualStyle
  2
Facepattern
 70
    15
177
     3
291
     1
 70
    58
 90
        2
176
     1
 90
        2
176
     1
 90
        0
176
     1
 90
        0
176
     1
 40
0.6
176
     1
 40
30.0
176
     1
 62
     7
420
 16777215
176
     1
 90
        1
176
     1
 90
        4
176
     1
 62
     7
176
     1
 62
   257
176
     1
 90
        1
176
     1
 90
        1
176
     1
 40
1.0
176
     1
 90
        8
176
     1
 62
     7
176
     1
 40
1.0
176
     1
 90
        1
176
     1
 90
        6
176
     1
 90
        2
176
     1
 62
     7
176
     1
 90
        5
176
     1
 90
        0
176
     1
 90
        0
176
     1
290
     0
176
     1
 90
        1
176
     1
 40
0.0
176
     1
 90
        0
176
     1
290
     0
176
     1
290
     1
176
     1
290
     1
176
     1
290
     0
176
     1
290
     0
176
     1
290
     0
176
     1
290
     0
176
     1
290
     0
176
     1
290
     0
176
     1
 90
       50
176
     1
 40
0.0
176
     1
 40
1.0
176
     1
 90
        0
176
     1
 62
    18
420
        0
176
     1
 90
       50
176
     1
 90
        3
176
     1
 62
     5
420
      255
176
     1
290
     0
176
     1
 90
       50
176
     1
 90
       50
176
     1
 90
       50
176
     1
290
     0
176
     1
 90
       50
176
     1
 62
   256
176
     0
 40
1.0
176
     0
 90
        2
176
     1
  1
strokes_ogs.tif
176
     1
290
     0
176
     1
 40
1.0
176
     1
 40
1.0
176
     1
1001
ACAD
1000
AcDbSavedByObjectVersion
1070
     0
  0
VISUALSTYLE
  5
2A
102
{ACAD_REACTORS
330
29
102
}
330
29
100
AcDbVisualStyle
  2
Flat
 70
     0
177
     3
291
     1
 70
    58
 90
        2
176
     1
 90
        1
176
     1
 90
        1
176
     1
 90
        2
176
     1
 40
0.6
176
     1
 40
30.0
176
     1
 62
     7
420
 16777215
176
     1
 90
        0
176
     1
 90
        0
176
     1
 62
     7
176
     1
 62
   257
176
     1
 90
        1
176
     1
 90
        1
176
     1
 40
1.0
176
     1
 90
        8
176
     1
 62
     7
176
     1
 40
1.0
176
     1
 90
        1
176
     1
 90
        6
176
     1
 90
        2
176
     1
 62
     7
176
     1
 90
        5
176
     1
 90
        0
176
     1
 90
        0
176
     1
290
     0
176
     1
 90
       13
176
     1
 40
0.0
176
     1
 90
        0
176
     1
290
     0
176
     1
290
     1
176
     1
290
     1
176
     1
290
     0
176
     1
290
     0
176
     1
290
     0
176
     1
290
     0
176
     1
290
     0
176
     1
290
     0
176
     1
 90
       50
176
     1
 40
0.0
176
     1
 40
1.0
176
     1
 90
        0
176
     1
 62
    18
420
        0
176
     1
 90
       50
176
     1
 90
        3
176
     1
 62
     5
420
      255
176
     1
290
     0
176
     1
 90
       50
176
     1
 90
       50
176
     1
 90
       50
176
     1
290
     0
176
     1
 90
       50
176
     1
 62
   256
176
     0
 40
1.0
176
     0
 90
        2
176
     1
  1
strokes_ogs.tif
176
     1
290
     0
176
     1
 40
1.0
176
     1
 40
1.0
176
     1
1001
ACAD
1000
AcDbSavedByObjectVersion
1070
     0
  0
VISUALSTYLE
  5
2B
102
{ACAD_REACTORS
330
29
102
}
330
29
100
AcDbVisualStyle
  2
FlatWithEdges
 70
     1
177
     3
291
     1
 70
    58
 90
        2
176
     1
 90
        1
176
     1
 90
        1
176
     1
 90
        2
176
     1
 40
0.6
176
     1
 40
30.0
176
     1
 62
     7
420
 16777215
176
     1
 90
        1
176
     1
 90
        0
176
     1
 62
     7
176
     1
 62
   257
176
     1
 90
        1
176
     1
 90
        1
176
     1
 40
1.0
176
     1
 90
        0
176
     1
 62
   257
176
     1
 40
1.0
176
     1
 90
        1
176
     1
 90
        6
176
     1
 90
        2
176
     1
 62
     7
176
     1
 90
        5
176
     1
 90
        0
176
     1
 90
        0
176
     1
290
     0
176
     1
 90
       13
176
     1
 40
0.0
176
     1
 90
        0
176
     1
290
     0
176
     1
290
     1
176
     1
290
     1
176
     1
290
     0
176
     1
290
     0
176
     1
290
     0
176
     1
290
     0
176
     1
290
     0
176
     1
290
     0
176
     1
 90
       50
176
     1
 40
0.0
176
     1
 40
1.0
176
     1
 90
        0
176
     1
 62
    18
420
        0
176
     1
 90
       50
176
     1
 90
        3
176
     1
 62
     5
420
      255
176
     1
290
     0
176
     1
 90
       50
176
     1
 90
       50
176
     1
 90
       50
176
     1
290
     0
176
     1
 90
       50
176
     1
 62
   256
176
     0
 40
1.0
176
     0
 90
        2
176
     1
  1
strokes_ogs.tif
176
     1
290
     0
176
     1
 40
1.0
176
     1
 40
1.0
176
     1
1001
ACAD
1000
AcDbSavedByObjectVersion
1070
     0
  0
VISUALSTYLE
  5
2C
102
{ACAD_REACTORS
330
29
102
}
330
29
100
AcDbVisualStyle
  2
Gouraud
 70
     2
177
     3
291
     1
 70
    58
 90
        2
176
     1
 90
        2
176
     1
 90
        1
176
     1
 90
        2
176
     1
 40
0.6
176
     1
 40
30.0
176
     1
 62
     7
420
 16777215
176
     1
 90
        0
176
     1
 90
        0
176
     1
 62
     7
176
     1
 62
   257
176
     1
 90
        1
176
     1
 90
        1
176
     1
 40
1.0
176
     1
 90
        0
176
     1
 62
     7
176
     1
 40
1.0
176
     1
 90
        1
176
     1
 90
        6
176
     1
 90
        2
176
     1
 62
     7
176
     1
 90
        5
176
     1
 90
        0
176
     1
 90
        0
176
     1
290
     0
176
     1
 90
       13
176
     1
 40
0.0
176
     1
 90
        0
176
     1
290
     0
176
     1
290
     1
176
     1
290
     1
176
     1
290
     0
176
     1
290
     0
176
     1
290
     0
176
     1
290
     0
176
     1
290
     0
176
     1
290
     0
176
     1
 90
       50
176
     1
 40
0.0
176
     1
 40
1.0
176
     1
 90
        0
176
     1
 62
    18
420
        0
176
     1
 90
       50
176
     1
 90
        3
176
     1
 62
     5
420
      255
176
     1
290
     0
176
     1
 90
       50
176
     1
 90
       50
176
     1
 90
       50
176
     1
290
     0
176
     1
 90
       50
176
     1
 62
   256
176
     0
 40
1.0
176
     0
 90
        2
176
     1
  1
strokes_ogs.tif
176
     1
290
     0
176
     1
 40
1.0
176
     1
 40
1.0
176
     1
1001
ACAD
1000
AcDbSavedByObjectVersion
1070
     0
  0
VISUALSTYLE
  5
2D
102
{ACAD_REACTORS
330
29
102
}
330
29
100
AcDbVisualStyle
  2
GouraudWithEdges
 70
     3
177
     3
291
     1
 70
    58
 90
        2
176
     1
 90
        2
176
     1
 90
        1
176
     1
 90
        2
176
     1
 40
0.6
176
     1
 40
30.0
176
     1
 62
     7
420
 16777215
176
     1
 90
        1
176
     1
 90
        0
176
     1
 62
     7
176
     1
 62
   257
176
     1
 90
        1
176
     1
 90
        1
176
     1
 40
1.0
176
     1
 90
        0
176
     1
 62
   257
176
     1
 40
1.0
176
     1
 90
        1
176
     1
 90
        6
176
     1
 90
        2
176
     1
 62
     7
176
     1
 90
        5
176
     1
 90
        0
176
     1
 90
        0
176
     1
290
     0
176
     1
 90
       13
176
     1
 40
0.0
176
     1
 90
        0
176
     1
290
     0
176
     1
290
     1
176
     1
290
     1
176
     1
290
     0
176
     1
290
     0
176
     1
290
     0
176
     1
290
     0
176
     1
290
     0
176
     1
290
     0
176
     1
 90
       50
176
     1
 40
0.0
176
     1
 40
1.0
176
     1
 90
        0
176
     1
 62
    18
420
        0
176
     1
 90
       50
176
     1
 90
        3
176
     1
 62
     5
420
      255
176
     1
290
     0
176
     1
 90
       50
176
     1
 90
       50
176
     1
 90
       50
176
     1
290
     0
176
     1
 90
       50
176
     1
 62
   256
176
     0
 40
1.0
176
     0
 90
        2
176
     1
  1
strokes_ogs.tif
176
     1
290
     0
176
     1
 40
1.0
176
     1
 40
1.0
176
     1
1001
ACAD
1000
AcDbSavedByObjectVersion
1070
     0
  0
VISUALSTYLE
  5
31
102
{ACAD_REACTORS
330
29
102
}
330
29
100
AcDbVisualStyle
  2
Hidden
 70
     6
177
     3
291
     0
 70
    58
 90
        1
176
     1
 90
        2
176
     1
 90
        2
176
     1
 90
        0
176
     1
 40
0.6
176
     1
 40
30.0
176
     1
 62
     7
420
 16777215
176
     1
 90
        2
176
     1
 90
        2
176
     1
 62
     7
176
     1
 62
   257
176
     1
 90
        2
176
     1
 90
        1
176
     1
 40
40.0
176
     1
 90
        0
176
     1
 62
   257
176
     1
 40
1.0
176
     1
 90
        1
176
     1
 90
        6
176
     1
 90
        2
176
     1
 62
     7
176
     1
 90
        3
176
     1
 90
        0
176
     1
 90
        0
176
     1
290
     0
176
     1
 90
        1
176
     1
 40
0.0
176
     1
 90
        0
176
     1
290
     0
176
     1
290
     1
176
     1
290
     1
176
     1
290
     0
176
     1
290
     0
176
     1
290
     0
176
     1
290
     0
176
     1
290
     0
176
     1
290
     0
176
     1
 90
       50
176
     1
 40
0.0
176
     1
 40
1.0
176
     1
 90
        0
176
     1
 62
    18
420
        0
176
     1
 90
       50
176
     1
 90
        3
176
     1
 62
     5
420
      255
176
     1
290
     0
176
     1
 90
       50
176
     1
 90
       50
176
     1
 90
       50
176
     1
290
     0
176
     1
 90
       50
176
     1
 62
   256
176
     0
 40
1.0
176
     0
 90
        2
176
     1
  1
strokes_ogs.tif
176
     1
290
     0
176
     1
 40
1.0
176
     1
 40
1.0
176
     1
1001
ACAD
1000
AcDbSavedByObjectVersion
1070
     0
  0
VISUALSTYLE
  5
3F
102
{ACAD_REACTORS
330
29
102
}
330
29
100
AcDbVisualStyle
  2
JitterOff
 70
    20
177
     3
291
     1
 70
    58
 90
        2
176
     0
 90
        2
176
     0
 90
        0
176
     0
 90
        0
176
     0
 40
0.6
176
     0
 40
30.0
176
     0
 62
     7
420
 16777215
176
     0
 90
        1
176
     0
 90
        4
176
     0
 62
     7
176
     0
 62
   257
176
     0
 90
        1
176
     0
 90
        1
176
     0
 40
1.0
176
     0
 90
       10
176
     2
 62
     7
176
     0
 40
1.0
176
     0
 90
        1
176
     0
 90
        6
176
     0
 90
        2
176
     0
 62
     7
176
     0
 90
        5
176
     0
 90
        0
176
     0
 90
        0
176
     0
290
     0
176
     0
 90
        1
176
     0
 40
0.0
176
     0
 90
        0
176
     0
290
     0
176
     0
290
     1
176
     0
290
     1
176
     0
290
     0
176
     0
290
     0
176
     0
290
     0
176
     0
290
     0
176
     0
290
     0
176
     0
290
     0
176
     0
 90
       50
176
     0
 40
0.0
176
     0
 40
1.0
176
     0
 90
        0
176
     0
 62
    18
420
        0
176
     0
 90
       50
176
     0
 90
        3
176
     0
 62
     5
420
      255
176
     0
290
     0
176
     0
 90
       50
176
     0
 90
       50
176
     0
 90
       50
176
     0
290
     0
176
     0
 90
       50
176
     0
 62
   256
176
     0
 40
1.0
176
     0
 90
        2
176
     0
  1
strokes_ogs.tif
176
     0
290
     0
176
     0
 40
1.0
176
     0
 40
1.0
176
     0
1001
ACAD
1000
AcDbSavedByObjectVersion
1070
     0
  0
VISUALSTYLE
  5
37
102
{ACAD_REACTORS
330
29
102
}
330
29
100
AcDbVisualStyle
  2
Linepattern
 70
    14
177
     3
291
     1
 70
    58
 90
        2
176
     1
 90
        2
176
     1
 90
        0
176
     1
 90
        0
176
     1
 40
0.6
176
     1
 40
30.0
176
     1
 62
     7
420
 16777215
176
     1
 90
        1
176
     1
 90
        4
176
     1
 62
     7
176
     1
 62
   257
176
     1
 90
        7
176
     1
 90
        7
176
     1
 40
1.0
176
     1
 90
        8
176
     1
 62
     7
176
     1
 40
1.0
176
     1
 90
        1
176
     1
 90
        6
176
     1
 90
        2
176
     1
 62
     7
176
     1
 90
        5
176
     1
 90
        0
176
     1
 90
        0
176
     1
290
     0
176
     1
 90
        1
176
     1
 40
0.0
176
     1
 90
        0
176
     1
290
     0
176
     1
290
     1
176
     1
290
     1
176
     1
290
     0
176
     1
290
     0
176
     1
290
     0
176
     1
290
     0
176
     1
290
     0
176
     1
290
     0
176
     1
 90
       50
176
     1
 40
0.0
176
     1
 40
1.0
176
     1
 90
        0
176
     1
 62
    18
420
        0
176
     1
 90
       50
176
     1
 90
        3
176
     1
 62
     5
420
      255
176
     1
290
     0
176
     1
 90
       50
176
     1
 90
       50
176
     1
 90
       50
176
     1
290
     0
176
     1
 90
       50
176
     1
 62
   256
176
     0
 40
1.0
176
     0
 90
        2
176
     1
  1
strokes_ogs.tif
176
     1
290
     0
176
     1
 40
1.0
176
     1
 40
1.0
176
     1
1001
ACAD
1000
AcDbSavedByObjectVersion
1070
     0
  0
VISUALSTYLE
  5
40
102
{ACAD_REACTORS
330
29
102
}
330
29
100
AcDbVisualStyle
  2
OverhangOff
 70
    21
177
     3
291
     1
 70
    58
 90
        2
176
     0
 90
        2
176
     0
 90
        0
176
     0
 90
        0
176
     0
 40
0.6
176
     0
 40
30.0
176
     0
 62
     7
420
 16777215
176
     0
 90
        1
176
     0
 90
        4
176
     0
 62
     7
176
     0
 62
   257
176
     0
 90
        1
176
     0
 90
        1
176
     0
 40
1.0
176
     0
 90
        9
176
     2
 62
     7
176
     0
 40
1.0
176
     0
 90
        1
176
     0
 90
        6
176
     0
 90
        2
176
     0
 62
     7
176
     0
 90
        5
176
     0
 90
        0
176
     0
 90
        0
176
     0
290
     0
176
     0
 90
        1
176
     0
 40
0.0
176
     0
 90
        0
176
     0
290
     0
176
     0
290
     1
176
     0
290
     1
176
     0
290
     0
176
     0
290
     0
176
     0
290
     0
176
     0
290
     0
176
     0
290
     0
176
     0
290
     0
176
     0
 90
       50
176
     0
 40
0.0
176
     0
 40
1.0
176
     0
 90
        0
176
     0
 62
    18
420
        0
176
     0
 90
       50
176
     0
 90
        3
176
     0
 62
     5
420
      255
176
     0
290
     0
176
     0
 90
       50
176
     0
 90
       50
176
     0
 90
       50
176
     0
290
     0
176
     0
 90
       50
176
     0
 62
   256
176
     0
 40
1.0
176
     0
 90
        2
176
     0
  1
strokes_ogs.tif
176
     0
290
     0
176
     0
 40
1.0
176
     0
 40
1.0
176
     0
1001
ACAD
1000
AcDbSavedByObjectVersion
1070
     0
  0
VISUALSTYLE
  5
33
102
{ACAD_REACTORS
330
29
102
}
330
29
100
AcDbVisualStyle
  2
Realistic
 70
     8
177
     3
291
     0
 70
    58
 90
        2
176
     1
 90
        2
176
     1
 90
        0
176
     1
 90
        2
176
     1
 40
0.6
176
     1
 40
30.0
176
     1
 62
     7
420
 16777215
176
     1
 90
        0
176
     1
 90
        0
176
     1
 62
     7
176
     1
 62
   257
176
     1
 90
        1
176
     1
 90
        1
176
     1
 40
1.0
176
     1
 90
        8
176
     1
 62
   257
176
     1
 40
1.0
176
     1
 90
        1
176
     1
 90
        6
176
     1
 90
        2
176
     1
 62
     7
176
     1
 90
        3
176
     1
 90
        0
176
     1
 90
        0
176
     1
290
     0
176
     1
 90
       13
176
     1
 40
0.0
176
     1
 90
        0
176
     1
290
     0
176
     1
290
     1
176
     1
290
     1
176
     1
290
     0
176
     1
290
     0
176
     1
290
     0
176
     1
290
     0
176
     1
290
     0
176
     1
290
     0
176
     1
 90
       50
176
     1
 40
0.0
176
     1
 40
1.0
176
     1
 90
        0
176
     1
 62
    18
420
        0
176
     1
 90
       50
176
     1
 90
        3
176
     1
 62
     5
420
      255
176
     1
290
     0
176
     1
 90
       50
176
     1
 90
       50
176
     1
 90
       50
176
     1
290
     0
176
     1
 90
       50
176
     1
 62
   256
176
     0
 40
1.0
176
     0
 90
        2
176
     1
  1
strokes_ogs.tif
176
     1
290
     0
176
     1
 40
1.0
176
     1
 40
1.0
176
     1
1001
ACAD
1000
AcDbSavedByObjectVersion
1070
     0
  0
VISUALSTYLE
  5
3E
102
{ACAD_REACTORS
330
29
102
}
330
29
100
AcDbVisualStyle
  2
Shaded
 70
    27
177
     3
291
     0
 70
    58
 90
        2
176
     1
 90
        2
176
     1
 90
        1
176
     1
 90
        2
176
     1
 40
0.6
176
     1
 40
30.0
176
     1
 62
     7
420
 16777215
176
     1
 90
        0
176
     1
 90
        4
176
     1
 62
     7
176
     1
 62
   257
176
     1
 90
        1
176
     1
 90
        1
176
     1
 40
1.0
176
     1
 90
        8
176
     1
 62
   257
176
     1
 40
1.0
176
     1
 90
        1
176
     1
 90
        6
176
     1
 90
        2
176
     1
 62
     8
420
  7895160
176
     1
 90
        3
176
     1
 90
        0
176
     1
 90
        0
176
     1
290
     0
176
     1
 90
        5
176
     1
 40
0.0
176
     1
 90
        0
176
     1
290
     0
176
     1
290
     1
176
     1
290
     1
176
     1
290
     0
176
     1
290
     0
176
     1
290
     0
176
     1
290
     0
176
     1
290
     0
176
     1
290
     0
176
     1
 90
       50
176
     1
 40
0.0
176
     1
 40
1.0
176
     1
 90
        0
176
     1
 62
    18
420
        0
176
     1
 90
       50
176
     1
 90
        3
176
     1
 62
     5
420
      255
176
     1
290
     0
176
     1
 90
       50
176
     1
 90
       50
176
     1
 90
       50
176
     1
290
     0
176
     1
 90
       50
176
     1
 62
   256
176
     0
 40
1.0
176
     0
 90
        2
176
     1
  1
strokes_ogs.tif
176
     1
290
     0
176
     1
 40
1.0
176
     1
 40
1.0
176
     1
1001
ACAD
1000
AcDbSavedByObjectVersion
1070
     0
  0
VISUALSTYLE
  5
3D
102
{ACAD_REACTORS
330
29
102
}
330
29
100
AcDbVisualStyle
  2
Shaded with edges
 70
    26
177
     3
291
     0
 70
    58
 90
        2
176
     1
 90
        2
176
     1
 90
        1
176
     1
 90
        2
176
     1
 40
0.6
176
     1
 40
30.0
176
     1
 62
     7
420
 16777215
176
     1
 90
        1
176
     1
 90
        2
176
     1
 62
     7
176
     1
 62
   257
176
     1
 90
        2
176
     1
 90
        1
176
     1
 40
1.0
176
     1
 90
        8
176
     1
 62
   257
176
     1
 40
1.0
176
     1
 90
        1
176
     1
 90
        6
176
     1
 90
        2
176
     1
 62
     7
176
     1
 90
        3
176
     1
 90
        0
176
     1
 90
        0
176
     1
290
     0
176
     1
 90
        5
176
     1
 40
0.0
176
     1
 90
        0
176
     1
290
     0
176
     1
290
     1
176
     1
290
     1
176
     1
290
     0
176
     1
290
     0
176
     1
290
     0
176
     1
290
     0
176
     1
290
     0
176
     1
290
     0
176
     1
 90
       50
176
     1
 40
0.0
176
     1
 40
1.0
176
     1
 90
        0
176
     1
 62
    18
420
        0
176
     1
 90
       50
176
     1
 90
        3
176
     1
 62
     5
420
      255
176
     1
290
     0
176
     1
 90
       50
176
     1
 90
       50
176
     1
 90
       50
176
     1
290
     0
176
     1
 90
       50
176
     1
 62
   256
176
     0
 40
1.0
176
     0
 90
        2
176
     1
  1
strokes_ogs.tif
176
     1
290
     0
176
     1
 40
1.0
176
     1
 40
1.0
176
     1
1001
ACAD
1000
AcDbSavedByObjectVersion
1070
     0
  0
VISUALSTYLE
  5
3A
102
{ACAD_REACTORS
330
29
102
}
330
29
100
AcDbVisualStyle
  2
Shades of Gray
 70
    23
177
     3
291
     0
 70
    58
 90
        2
176
     1
 90
        2
176
     1
 90
        3
176
     1
 90
        0
176
     1
 40
0.6
176
     1
 40
30.0
176
     1
 62
     7
420
 16777215
176
     1
 90
        2
176
     1
 90
        2
176
     1
 62
     7
176
     1
 62
     7
176
     1
 90
        1
176
     1
 90
        1
176
     1
 40
40.0
176
     1
 90
        8
176
     1
 62
     7
176
     1
 40
1.0
176
     1
 90
        1
176
     1
 90
        6
176
     1
 90
        2
176
     1
 62
     7
176
     1
 90
        3
176
     1
 90
        0
176
     1
 90
        0
176
     1
290
     0
176
     1
 90
        1
176
     1
 40
0.0
176
     1
 90
        0
176
     1
290
     0
176
     1
290
     1
176
     1
290
     1
176
     1
290
     0
176
     1
290
     0
176
     1
290
     0
176
     1
290
     0
176
     1
290
     0
176
     1
290
     0
176
     1
 90
       50
176
     1
 40
0.0
176
     1
 40
1.0
176
     1
 90
        0
176
     1
 62
    18
420
        0
176
     1
 90
       50
176
     1
 90
        3
176
     1
 62
     5
420
      255
176
     1
290
     0
176
     1
 90
       50
176
     1
 90
       50
176
     1
 90
       50
176
     1
290
     0
176
     1
 90
       50
176
     1
 62
   256
176
     0
 40
1.0
176
     0
 90
        2
176
     1
  1
strokes_ogs.tif
176
     1
290
     0
176
     1
 40
1.0
176
     1
 40
1.0
176
     1
1001
ACAD
1000
AcDbSavedByObjectVersion
1070
     0
  0
VISUALSTYLE
  5
3B
102
{ACAD_REACTORS
330
29
102
}
330
29
100
AcDbVisualStyle
  2
Sketchy
 70
    24
177
     3
291
     0
 70
    58
 90
        1
176
     1
 90
        2
176
     1
 90
        2
176
     1
 90
        0
176
     1
 40
0.6
176
     1
 40
30.0
176
     1
 62
     7
420
 16777215
176
     1
 90
        2
176
     1
 90
        2
176
     1
 62
     7
176
     1
 62
     7
176
     1
 90
        1
176
     1
 90
        1
176
     1
 40
40.0
176
     1
 90
       11
176
     1
 62
     7
176
     1
 40
1.0
176
     1
 90
        1
176
     1
 90
        6
176
     1
 90
        2
176
     1
 62
     7
176
     1
 90
        6
176
     1
 90
        0
176
     1
 90
        0
176
     1
290
     0
176
     1
 90
        1
176
     1
 40
0.0
176
     1
 90
        0
176
     1
290
     0
176
     1
290
     1
176
     1
290
     1
176
     1
290
     0
176
     1
290
     0
176
     1
290
     0
176
     1
290
     0
176
     1
290
     0
176
     1
290
     0
176
     1
 90
       50
176
     1
 40
0.0
176
     1
 40
1.0
176
     1
 90
        0
176
     1
 62
    18
420
        0
176
     1
 90
       50
176
     1
 90
        3
176
     1
 62
     5
420
      255
176
     1
290
     0
176
     1
 90
       50
176
     1
 90
       50
176
     1
 90
       50
176
     1
290
     0
176
     1
 90
       50
176
     1
 62
   256
176
     0
 40
1.0
176
     0
 90
        2
176
     1
  1
strokes_ogs.tif
176
     1
290
     0
176
     1
 40
1.0
176
     1
 40
1.0
176
     1
1001
ACAD
1000
AcDbSavedByObjectVersion
1070
     0
  0
VISUALSTYLE
  5
36
102
{ACAD_REACTORS
330
29
102
}
330
29
100
AcDbVisualStyle
  2
Thicken
 70
    13
177
     3
291
     1
 70
    58
 90
        2
176
     1
 90
        2
176
     1
 90
        0
176
     1
 90
        0
176
     1
 40
0.6
176
     1
 40
30.0
176
     1
 62
     7
420
 16777215
176
     1
 90
        1
176
     1
 90
        4
176
     1
 62
     7
176
     1
 62
   257
176
     1
 90
        1
176
     1
 90
        1
176
     1
 40
1.0
176
     1
 90
       12
176
     1
 62
     7
176
     1
 40
1.0
176
     1
 90
        1
176
     1
 90
        6
176
     1
 90
        2
176
     1
 62
     7
176
     1
 90
        5
176
     1
 90
        0
176
     1
 90
        0
176
     1
290
     0
176
     1
 90
        1
176
     1
 40
0.0
176
     1
 90
        0
176
     1
290
     0
176
     1
290
     1
176
     1
290
     1
176
     1
290
     0
176
     1
290
     0
176
     1
290
     0
176
     1
290
     0
176
     1
290
     0
176
     1
290
     0
176
     1
 90
       50
176
     1
 40
0.0
176
     1
 40
1.0
176
     1
 90
        0
176
     1
 62
    18
420
        0
176
     1
 90
       50
176
     1
 90
        3
176
     1
 62
     5
420
      255
176
     1
290
     0
176
     1
 90
       50
176
     1
 90
       50
176
     1
 90
       50
176
     1
290
     0
176
     1
 90
       50
176
     1
 62
   256
176
     0
 40
1.0
176
     0
 90
        2
176
     1
  1
strokes_ogs.tif
176
     1
290
     0
176
     1
 40
1.0
176
     1
 40
1.0
176
     1
1001
ACAD
1000
AcDbSavedByObjectVersion
1070
     0
  0
VISUALSTYLE
  5
30
102
{ACAD_REACTORS
330
29
102
}
330
29
100
AcDbVisualStyle
  2
Wireframe
 70
     5
177
     3
291
     0
 70
    58
 90
        0
176
     1
 90
        2
176
     1
 90
        0
176
     1
 90
        0
176
     1
 40
0.6
176
     1
 40
30.0
176
     1
 62
     7
420
 16777215
176
     1
 90
        1
176
     1
 90
        4
176
     1
 62
     7
176
     1
 62
   257
176
     1
 90
        1
176
     1
 90
        1
176
     1
 40
1.0
176
     1
 90
        0
176
     1
 62
   257
176
     1
 40
1.0
176
     1
 90
        1
176
     1
 90
        6
176
     1
 90
        2
176
     1
 62
     7
176
     1
 90
        3
176
     1
 90
        0
176
     1
 90
        0
176
     1
290
     0
176
     1
 90
        1
176
     1
 40
0.0
176
     1
 90
        0
176
     1
290
     0
176
     1
290
     1
176
     1
290
     1
176
     1
290
     0
176
     1
290
     0
176
     1
290
     0
176
     1
290
     0
176
     1
290
     0
176
     1
290
     0
176
     1
 90
       50
176
     1
 40
0.0
176
     1
 40
1.0
176
     1
 90
        0
176
     1
 62
    18
420
        0
176
     1
 90
       50
176
     1
 90
        3
176
     1
 62
     5
420
      255
176
     1
290
     0
176
     1
 90
       50
176
     1
 90
       50
176
     1
 90
       50
176
     1
290
     0
176
     1
 90
       50
176
     1
 62
   256
176
     0
 40
1.0
176
     0
 90
        2
176
     1
  1
strokes_ogs.tif
176
     1
290
     0
176
     1
 40
1.0
176
     1
 40
1.0
176
     1
1001
ACAD
1000
AcDbSavedByObjectVersion
1070
     0
  0
VISUALSTYLE
  5
3C
102
{ACAD_REACTORS
330
29
102
}
330
29
100
AcDbVisualStyle
  2
X-Ray
 70
    25
177
     3
291
     0
 70
    58
 90
        2
176
     1
 90
        2
176
     1
 90
        1
176
     1
 90
        1
176
     1
 40
0.5
176
     1
 40
30.0
176
     1
 62
     7
420
 16777215
176
     1
 90
        1
176
     1
 90
        0
176
     1
 62
     7
176
     1
 62
   257
176
     1
 90
        1
176
     1
 90
        1
176
     1
 40
1.0
176
     1
 90
        8
176
     1
 62
     7
176
     1
 40
1.0
176
     1
 90
        1
176
     1
 90
        6
176
     1
 90
        2
176
     1
 62
     7
176
     1
 90
        3
176
     1
 90
        0
176
     1
 90
        0
176
     1
290
     0
176
     1
 90
       13
176
     1
 40
0.0
176
     1
 90
        0
176
     1
290
     0
176
     1
290
     1
176
     1
290
     1
176
     1
290
     0
176
     1
290
     0
176
     1
290
     0
176
     1
290
     0
176
     1
290
     0
176
     1
290
     0
176
     1
 90
       50
176
     1
 40
0.0
176
     1
 40
1.0
176
     1
 90
        0
176
     1
 62
    18
420
        0
176
     1
 90
       50
176
     1
 90
        3
176
     1
 62
     5
420
      255
176
     1
290
     0
176
     1
 90
       50
176
     1
 90
       50
176
     1
 90
       50
176
     1
290
     0
176
     1
 90
       50
176
     1
 62
   256
176
     0
 40
1.0
176
     0
 90
        2
176
     1
  1
strokes_ogs.tif
176
     1
290
     0
176
     1
 40
1.0
176
     1
 40
1.0
176
     1
1001
ACAD
1000
AcDbSavedByObjectVersion
1070
     0
  0
DICTIONARYVAR
  5
FC
102
{ACAD_REACTORS
330
F7
102
}
330
F7
100
DictionaryVariables
280
     0
  1
1:1
  0
DICTIONARYVAR
  5
F9
102
{ACAD_REACTORS
330
F7
102
}
330
F7
100
DictionaryVariables
280
     0
  1
STANDARD
  0
DICTIONARYVAR
  5
F8
102
{ACAD_REACTORS
330
F7
102
}
330
F7
100
DictionaryVariables
280
     0
  1
STANDARD
  0
DICTIONARYVAR
  5
FA
102
{ACAD_REACTORS
330
F7
102
}
330
F7
100
DictionaryVariables
280
     0
  1
Imperial24
  0
DICTIONARYVAR
  5
FB
102
{ACAD_REACTORS
330
F7
102
}
330
F7
100
DictionaryVariables
280
     0
  1
Imperial24
  0
DICTIONARY
  5
1CF
102
{ACAD_REACTORS
330
1CD
102
}
330
1CD
100
AcDbDictionary
281
     1
  0
DICTIONARY
  5
1CE
102
{ACAD_REACTORS
330
1CD
102
}
330
1CD
100
AcDbDictionary
281
     1
  3
2423649440640
350
1C8
  3
2423649440656
350
1C9
  3
2423649440672
350
1CA
  3
2423649440688
350
1CB
  3
2423649440704
350
1CC
  0
DICTIONARY
  5
1D2
330
6B
100
AcDbDictionary
280
     1
281
     1
  3
ACAD_XREC_ROUNDTRIP
360
1D3
  0
DICTIONARY
  5
164
330
73
100
AcDbDictionary
280
     1
281
     1
  0
DICTIONARY
  5
1A
330
19
100
AcDbDictionary
280
     1
281
     1
  3
BUMPTILE
360
1C
  3
DIFFUSETILE
360
1B
  3
OPACITYTILE
360
1F
  3
REFLECTIONTILE
360
1E
  3
REFRACTIONTILE
360
20
  3
SPECULARTILE
360
1D
  0
DICTIONARY
  5
12
330
11
100
AcDbDictionary
280
     1
281
     1
  3
BUMPTILE
360
14
  3
DIFFUSETILE
360
13
  3
OPACITYTILE
360
17
  3
REFLECTIONTILE
360
16
  3
REFRACTIONTILE
360
18
  3
SPECULARTILE
360
15
  0
DICTIONARY
  5
22
330
21
100
AcDbDictionary
280
     1
281
     1
  3
BUMPTILE
360
24
  3
DIFFUSETILE
360
23
  3
OPACITYTILE
360
27
  3
REFLECTIONTILE
360
26
  3
REFRACTIONTILE
360
28
  3
SPECULARTILE
360
25
  0
DICTIONARY
  5
1D0
330
69
100
AcDbDictionary
280
     1
281
     1
  3
ACAD_XREC_ROUNDTRIP
360
1D1
  0
DICTIONARY
  5
122
330
65
100
AcDbDictionary
280
     1
281
     1
  3
ACAD_ROUNDTRIP_2008_TABLESTYLE_CELLSTYLEMAP
360
1C6
  0
XRECORD
  5
1C8
102
{ACAD_REACTORS
330
1CE
102
}
330
1CE
100
AcDbXrecord
280
     1
  1
AcDb_Thumbnail_Schema
102
{ATTRRECORD
341
1C9
  2
AcDbDs::TreatedAsObjectData
280
     1
291
     1
102
ATTRRECORD}
102
{ATTRRECORD
341
1CA
  2
AcDbDs::Legacy
280
     1
291
     1
102
ATTRRECORD}
  2
AcDbDs::ID
280
    10
 91
        8
102
{ATTRRECORD
341
1CB
  2
AcDs:Indexable
280
     1
291
     1
102
ATTRRECORD}
102
{ATTRRECORD
341
1CC
  2
AcDbDs::HandleAttribute
280
     7
282
     1
102
ATTRRECORD}
  2
Thumbnail_Data
280
    15
 91
        0
  0
XRECORD
  5
1C9
102
{ACAD_REACTORS
330
1CE
102
}
330
1CE
100
AcDbXrecord
280
     1
  1
AcDbDs::TreatedAsObjectDataSchema
  2
AcDbDs::TreatedAsObjectData
280
     1
 91
        0
  0
XRECORD
  5
1CA
102
{ACAD_REACTORS
330
1CE
102
}
330
1CE
100
AcDbXrecord
280
     1
  1
AcDbDs::LegacySchema
  2
AcDbDs::Legacy
280
     1
 91
        0
  0
XRECORD
  5
1CB
102
{ACAD_REACTORS
330
1CE
102
}
330
1CE
100
AcDbXrecord
280
     1
  1
AcDbDs::IndexedPropertySchema
  2
AcDs:Indexable
280
     1
 91
        0
  0
XRECORD
  5
1CC
102
{ACAD_REACTORS
330
1CE
102
}
330
1CE
100
AcDbXrecord
280
     1
  1
AcDbDs::HandleAttributeSchema
  2
AcDbDs::HandleAttribute
280
     7
 91
        1
284
     1
  0
XRECORD
  5
1D3
102
{ACAD_REACTORS
330
1D2
102
}
330
1D2
100
AcDbXrecord
280
     1
102
DISPLAYNAME
  1
Imperial24
102
FLAGS
 90
        0
  0
XRECORD
  5
1C
102
{ACAD_REACTORS
330
1A
102
}
330
1A
100
AcDbXrecord
280
     1
270
     1
271
     1
  0
XRECORD
  5
1B
102
{ACAD_REACTORS
330
1A
102
}
330
1A
100
AcDbXrecord
280
     1
270
     1
271
     1
  0
XRECORD
  5
1F
102
{ACAD_REACTORS
330
1A
102
}
330
1A
100
AcDbXrecord
280
     1
270
     1
271
     1
  0
XRECORD
  5
1E
102
{ACAD_REACTORS
330
1A
102
}
330
1A
100
AcDbXrecord
280
     1
270
     1
271
     1
  0
XRECORD
  5
20
102
{ACAD_REACTORS
330
1A
102
}
330
1A
100
AcDbXrecord
280
     1
270
     1
271
     1
  0
XRECORD
  5
1D
102
{ACAD_REACTORS
330
1A
102
}
330
1A
100
AcDbXrecord
280
     1
270
     1
271
     1
  0
XRECORD
  5
14
102
{ACAD_REACTORS
330
12
102
}
330
12
100
AcDbXrecord
280
     1
270
     1
271
     1
  0
XRECORD
  5
13
102
{ACAD_REACTORS
330
12
102
}
330
12
100
AcDbXrecord
280
     1
270
     1
271
     1
  0
XRECORD
  5
17
102
{ACAD_REACTORS
330
12
102
}
330
12
100
AcDbXrecord
280
     1
270
     1
271
     1
  0
XRECORD
  5
16
102
{ACAD_REACTORS
330
12
102
}
330
12
100
AcDbXrecord
280
     1
270
     1
271
     1
  0
XRECORD
  5
18
102
{ACAD_REACTORS
330
12
102
}
330
12
100
AcDbXrecord
280
     1
270
     1
271
     1
  0
XRECORD
  5
15
102
{ACAD_REACTORS
330
12
102
}
330
12
100
AcDbXrecord
280
     1
270
     1
271
     1
  0
XRECORD
  5
24
102
{ACAD_REACTORS
330
22
102
}
330
22
100
AcDbXrecord
280
     1
270
     1
271
     1
  0
XRECORD
  5
23
102
{ACAD_REACTORS
330
22
102
}
330
22
100
AcDbXrecord
280
     1
270
     1
271
     1
  0
XRECORD
  5
27
102
{ACAD_REACTORS
330
22
102
}
330
22
100
AcDbXrecord
280
     1
270
     1
271
     1
  0
XRECORD
  5
26
102
{ACAD_REACTORS
330
22
102
}
330
22
100
AcDbXrecord
280
     1
270
     1
271
     1
  0
XRECORD
  5
28
102
{ACAD_REACTORS
330
22
102
}
330
22
100
AcDbXrecord
280
     1
270
     1
271
     1
  0
XRECORD
  5
25
102
{ACAD_REACTORS
330
22
102
}
330
22
100
AcDbXrecord
280
     1
270
     1
271
     1
  0
XRECORD
  5
1D1
102
{ACAD_REACTORS
330
1D0
102
}
330
1D0
100
AcDbXrecord
280
     1
102
DISPLAYNAME
  1
Imperial24
102
FLAGS
 90
        0
  0
CELLSTYLEMAP
  5
1C6
102
{ACAD_REACTORS
330
122
102
}
330
122
100
AcDbCellStyleMap
 90
        3
300
CELLSTYLE
  1
TABLEFORMAT_BEGIN
 90
        5
170
     1
 91
        0
 92
    32768
 62
   257
 93
        1
300
CONTENTFORMAT
  1
CONTENTFORMAT_BEGIN
 90
        0
 91
        0
 92
      512
 93
        0
300

 40
0.0
140
1.0
 94
        5
 62
     0
340
55
144
0.25
309
CONTENTFORMAT_END
171
     0
 94
        0
309
TABLEFORMAT_END
  1
CELLSTYLE_BEGIN
 90
        1
 91
        1
300
_TITLE
309
CELLSTYLE_END
300
CELLSTYLE
  1
TABLEFORMAT_BEGIN
 90
        5
170
     1
 91
        0
 92
        0
 62
   257
 93
        1
300
CONTENTFORMAT
  1
CONTENTFORMAT_BEGIN
 90
        0
 91
        0
 92
      512
 93
        0
300

 40
0.0
140
1.0
 94
        5
 62
     0
340
55
144
0.18
309
CONTENTFORMAT_END
171
     0
 94
        0
309
TABLEFORMAT_END
  1
CELLSTYLE_BEGIN
 90
        2
 91
        1
300
_HEADER
309
CELLSTYLE_END
300
CELLSTYLE
  1
TABLEFORMAT_BEGIN
 90
        5
170
     1
 91
        0
 92
        0
 62
   257
 93
        1
300
CONTENTFORMAT
  1
CONTENTFORMAT_BEGIN
 90
        0
 91
        0
 92
      512
 93
        0
300

 40
0.0
140
1.0
 94
        2
 62
     0
340
55
144
0.18
309
CONTENTFORMAT_END
171
     0
 94
        0
309
TABLEFORMAT_END
  1
CELLSTYLE_BEGIN
 90
        3
 91
        2
300
_DATA
309
CELLSTYLE_END
  0
ENDSEC
  0
SECTION
  2
ACDSDATA
 70
     2
 71
     8
  0
ACDSSCHEMA
 90
        0
  1
AcDb_Thumbnail_Schema
  2
AcDbDs::ID
280
    10
 91
        8
  2
Thumbnail_Data
280
    15
 91
        0
101
ACDSRECORD
 95
        0
 90
        1
  2
AcDbDs::TreatedAsObjectData
280
     1
291
     1
101
ACDSRECORD
 95
        0
 90
        2
  2
AcDbDs::Legacy
280
     1
291
     1
101
ACDSRECORD
  1
AcDbDs::ID
 90
        3
  2
AcDs:Indexable
280
     1
291
     1
101
ACDSRECORD
  1
AcDbDs::ID
 90
        4
  2
AcDbDs::HandleAttribute
280
     7
282
     1
  0
ACDSSCHEMA
 90
        1
  1
AcDbDs::TreatedAsObjectDataSchema
  2
AcDbDs::TreatedAsObjectData
280
     1
 91
        0
  0
ACDSSCHEMA
 90
        2
  1
AcDbDs::LegacySchema
  2
AcDbDs::Legacy
280
     1
 91
        0
  0
ACDSSCHEMA
 90
        3
  1
AcDbDs::IndexedPropertySchema
  2
AcDs:Indexable
280
     1
 91
        0
  0
ACDSSCHEMA
 90
        4
  1
AcDbDs::HandleAttributeSchema
  2
AcDbDs::HandleAttribute
280
     7
 91
        1
284
     1
  0
ACDSRECORD
 90
        0
  2
AcDbDs::ID
280
    10
320
73
  2
Thumbnail_Data
280
    15
 94
     1117
310
89504E470D0A1A0A0000000D49484452000001000000006D080300000079B14F6400000300504C5445000000FFFFFF0000000000000000000000000000000000000000000000000000000000330000660000990000CC0000FF0033000033330033660033990033CC0033FF0066000066330066660066990066CC0066FF0099
310
000099330099660099990099CC0099FF00CC0000CC3300CC6600CC9900CCCC00CCFF00FF0000FF3300FF6600FF9900FFCC00FFFF3300003300333300663300993300CC3300FF3333003333333333663333993333CC3333FF3366003366333366663366993366CC3366FF3399003399333399663399993399CC3399FF33CC00
310
33CC3333CC6633CC9933CCCC33CCFF33FF0033FF3333FF6633FF9933FFCC33FFFF6600006600336600666600996600CC6600FF6633006633336633666633996633CC6633FF6666006666336666666666996666CC6666FF6699006699336699666699996699CC6699FF66CC0066CC3366CC6666CC9966CCCC66CCFF66FF0066
310
FF3366FF6666FF9966FFCC66FFFF9900009900339900669900999900CC9900FF9933009933339933669933999933CC9933FF9966009966339966669966999966CC9966FF9999009999339999669999999999CC9999FF99CC0099CC3399CC6699CC9999CCCC99CCFF99FF0099FF3399FF6699FF9999FFCC99FFFFCC0000CC00
310
33CC0066CC0099CC00CCCC00FFCC3300CC3333CC3366CC3399CC33CCCC33FFCC6600CC6633CC6666CC6699CC66CCCC66FFCC9900CC9933CC9966CC9999CC99CCCC99FFCCCC00CCCC33CCCC66CCCC99CCCCCCCCCCFFCCFF00CCFF33CCFF66CCFF99CCFFCCCCFFFFFF0000FF0033FF0066FF0099FF00CCFF00FFFF3300FF3333
310
FF3366FF3399FF33CCFF33FFFF6600FF6633FF6666FF6699FF66CCFF66FFFF9900FF9933FF9966FF9999FF99CCFF99FFFFCC00FFCC33FFCC66FFCC99FFCCCCFFCCFFFFFF00FFFF33FFFF66FFFF99FFFFCCFFFFFF0000000D0D0D1A1A1A2828283535354343435050505D5D5D6B6B6B787878868686939393A1A1A1AEAEAEBB
310
BBBBC9C9C9D6D6D6E4E4E4F1F1F1FFFFFF0000000000000000000000000000000000000000000000000000000000003AE5ACE9000001184944415478DAEDDACD8A83501044E17EFFE7EC57E87D54140C21E1B67F90AAF3C1C02CDCD4E19A64C6443CA1EACACBFE505D1B4A76BF6A81CE2AC502AD4D9201EECBA57700E6CBCB
310
7ABFDE11E8EFD12A70608D7D00AD021504B00E500420C043F78DD27EA12340000210800004F00E50DE01F8244800FE1CB60F5004E81F1AAD00E6FF153EF25CC0FCC180DCB3B1727F36D87D3AAC18C0FCFB019D515A6F81FD02A2FBC7BF25A6BA7F7099EEFEB16DCAFB97B7823A77817602FDF93F5796C7FE6F436DE6AFEF87
310
FBBDB50A23F529FC386F07CC5FF1C6904E5646E6FC63BB7F09B0997EAFF4FA14B406D85748AF0390DB3DB09D8148B77BE08D6180986EFAF9D6770D00000000000000000000000000000000000080BBBD00972A6F87C26D35440000000049454E44AE426082
  0
ENDSEC
  0
EOF
