  0
SECTION
  2
HEADER
  9
$ACADVER
  1
AC1027
  9
$ACADMAINTVER
 70
   125
  9
$DWGCODEPAGE
  3
ANSI_1252
  9
$LASTSAVEDBY
  1
ufficio.tecnico
  9
$REQUIREDVERSIONS
160
                 0
  9
$INSBASE
 10
0.0
 20
0.0
 30
0.0
  9
$EXTMIN
 10
33.95210629319195
 20
-98.8101102578306
 30
0.0
  9
$EXTMAX
 10
72.04454326224269
 20
-1.962299153398042
 30
0.0
  9
$LIMMIN
 10
0.0
 20
0.0
  9
$LIMMAX
 10
12.0
 20
9.0
  9
$ORTHOMODE
 70
     0
  9
$REGENMODE
 70
     1
  9
$FILLMODE
 70
     1
  9
$QTEXTMODE
 70
     0
  9
$MIRRTEXT
 70
     0
  9
$LTSCALE
 40
1.0
  9
$ATTMODE
 70
     1
  9
$TEXTSIZE
 40
0.2
  9
$TRACEWID
 40
0.05
  9
$TEXTSTYLE
  7
Standard
  9
$CLAYER
  8
0
  9
$CELTYPE
  6
ByLayer
  9
$CECOLOR
 62
   256
  9
$CELTSCALE
 40
1.0
  9
$DISPSILH
 70
     0
  9
$DIMSCALE
 40
1.0
  9
$DIMASZ
 40
0.18
  9
$DIMEXO
 40
0.0625
  9
$DIMDLI
 40
0.38
  9
$DIMRND
 40
0.0
  9
$DIMDLE
 40
0.0
  9
$DIMEXE
 40
0.18
  9
$DIMTP
 40
0.0
  9
$DIMTM
 40
0.0
  9
$DIMTXT
 40
0.18
  9
$DIMCEN
 40
0.09
  9
$DIMTSZ
 40
0.0
  9
$DIMTOL
 70
     0
  9
$DIMLIM
 70
     0
  9
$DIMTIH
 70
     1
  9
$DIMTOH
 70
     1
  9
$DIMSE1
 70
     0
  9
$DIMSE2
 70
     0
  9
$DIMTAD
 70
     0
  9
$DIMZIN
 70
     0
  9
$DIMBLK
  1

  9
$DIMASO
 70
     1
  9
$DIMSHO
 70
     1
  9
$DIMPOST
  1

  9
$DIMAPOST
  1

  9
$DIMALT
 70
     0
  9
$DIMALTD
 70
     2
  9
$DIMALTF
 40
25.4
  9
$DIMLFAC
 40
1.0
  9
$DIMTOFL
 70
     0
  9
$DIMTVP
 40
0.0
  9
$DIMTIX
 70
     0
  9
$DIMSOXD
 70
     0
  9
$DIMSAH
 70
     0
  9
$DIMBLK1
  1

  9
$DIMBLK2
  1

  9
$DIMSTYLE
  2
Standard
  9
$DIMCLRD
 70
     0
  9
$DIMCLRE
 70
     0
  9
$DIMCLRT
 70
     0
  9
$DIMTFAC
 40
1.0
  9
$DIMGAP
 40
0.09
  9
$DIMJUST
 70
     0
  9
$DIMSD1
 70
     0
  9
$DIMSD2
 70
     0
  9
$DIMTOLJ
 70
     1
  9
$DIMTZIN
 70
     0
  9
$DIMALTZ
 70
     0
  9
$DIMALTTZ
 70
     0
  9
$DIMUPT
 70
     0
  9
$DIMDEC
 70
     4
  9
$DIMTDEC
 70
     4
  9
$DIMALTU
 70
     2
  9
$DIMALTTD
 70
     2
  9
$DIMTXSTY
  7
Standard
  9
$DIMAUNIT
 70
     0
  9
$DIMADEC
 70
     0
  9
$DIMALTRND
 40
0.0
  9
$DIMAZIN
 70
     0
  9
$DIMDSEP
 70
    46
  9
$DIMATFIT
 70
     3
  9
$DIMFRAC
 70
     0
  9
$DIMLDRBLK
  1

  9
$DIMLUNIT
 70
     2
  9
$DIMLWD
 70
    -2
  9
$DIMLWE
 70
    -2
  9
$DIMTMOVE
 70
     0
  9
$DIMFXL
 40
1.0
  9
$DIMFXLON
 70
     0
  9
$DIMJOGANG
 40
0.7853981633974483
  9
$DIMTFILL
 70
     0
  9
$DIMTFILLCLR
 70
     0
  9
$DIMARCSYM
 70
     0
  9
$DIMLTYPE
  6

  9
$DIMLTEX1
  6

  9
$DIMLTEX2
  6

  9
$DIMTXTDIRECTION
 70
     0
  9
$LUNITS
 70
     2
  9
$LUPREC
 70
     4
  9
$SKETCHINC
 40
0.1
  9
$FILLETRAD
 40
0.0
  9
$AUNITS
 70
     0
  9
$AUPREC
 70
     0
  9
$MENU
  1
.
  9
$ELEVATION
 40
0.0
  9
$PELEVATION
 40
0.0
  9
$THICKNESS
 40
0.0
  9
$LIMCHECK
 70
     0
  9
$CHAMFERA
 40
0.0
  9
$CHAMFERB
 40
0.0
  9
$CHAMFERC
 40
0.0
  9
$CHAMFERD
 40
0.0
  9
$SKPOLY
 70
     0
  9
$TDCREATE
 40
2459781.470127315
  9
$TDUCREATE
 40
2459781.386793981
  9
$TDUPDATE
 40
2459781.647766204
  9
$TDUUPDATE
 40
2459781.564432871
  9
$TDINDWG
 40
0.0022106481
  9
$TDUSRTIMER
 40
0.0022106481
  9
$USRTIMER
 70
     1
  9
$ANGBASE
 50
0.0
  9
$ANGDIR
 70
     0
  9
$PDMODE
 70
     0
  9
$PDSIZE
 40
0.0
  9
$PLINEWID
 40
0.0
  9
$SPLFRAME
 70
     0
  9
$SPLINETYPE
 70
     6
  9
$SPLINESEGS
 70
     8
  9
$HANDSEED
  5
378
  9
$SURFTAB1
 70
     6
  9
$SURFTAB2
 70
     6
  9
$SURFTYPE
 70
     6
  9
$SURFU
 70
     6
  9
$SURFV
 70
     6
  9
$UCSBASE
  2

  9
$UCSNAME
  2

  9
$UCSORG
 10
0.0
 20
0.0
 30
0.0
  9
$UCSXDIR
 10
1.0
 20
0.0
 30
0.0
  9
$UCSYDIR
 10
0.0
 20
1.0
 30
0.0
  9
$UCSORTHOREF
  2

  9
$UCSORTHOVIEW
 70
     0
  9
$UCSORGTOP
 10
0.0
 20
0.0
 30
0.0
  9
$UCSORGBOTTOM
 10
0.0
 20
0.0
 30
0.0
  9
$UCSORGLEFT
 10
0.0
 20
0.0
 30
0.0
  9
$UCSORGRIGHT
 10
0.0
 20
0.0
 30
0.0
  9
$UCSORGFRONT
 10
0.0
 20
0.0
 30
0.0
  9
$UCSORGBACK
 10
0.0
 20
0.0
 30
0.0
  9
$PUCSBASE
  2

  9
$PUCSNAME
  2

  9
$PUCSORG
 10
0.0
 20
0.0
 30
0.0
  9
$PUCSXDIR
 10
1.0
 20
0.0
 30
0.0
  9
$PUCSYDIR
 10
0.0
 20
1.0
 30
0.0
  9
$PUCSORTHOREF
  2

  9
$PUCSORTHOVIEW
 70
     0
  9
$PUCSORGTOP
 10
0.0
 20
0.0
 30
0.0
  9
$PUCSORGBOTTOM
 10
0.0
 20
0.0
 30
0.0
  9
$PUCSORGLEFT
 10
0.0
 20
0.0
 30
0.0
  9
$PUCSORGRIGHT
 10
0.0
 20
0.0
 30
0.0
  9
$PUCSORGFRONT
 10
0.0
 20
0.0
 30
0.0
  9
$PUCSORGBACK
 10
0.0
 20
0.0
 30
0.0
  9
$USERI1
 70
     0
  9
$USERI2
 70
     0
  9
$USERI3
 70
     0
  9
$USERI4
 70
     0
  9
$USERI5
 70
     0
  9
$USERR1
 40
0.0
  9
$USERR2
 40
0.0
  9
$USERR3
 40
0.0
  9
$USERR4
 40
0.0
  9
$USERR5
 40
0.0
  9
$WORLDVIEW
 70
     1
  9
$SHADEDGE
 70
     3
  9
$SHADEDIF
 70
    70
  9
$TILEMODE
 70
     1
  9
$MAXACTVP
 70
    64
  9
$PINSBASE
 10
0.0
 20
0.0
 30
0.0
  9
$PLIMCHECK
 70
     0
  9
$PEXTMIN
 10
1.000000000000000E+20
 20
1.000000000000000E+20
 30
1.000000000000000E+20
  9
$PEXTMAX
 10
-1.000000000000000E+20
 20
-1.000000000000000E+20
 30
-1.000000000000000E+20
  9
$PLIMMIN
 10
0.0
 20
0.0
  9
$PLIMMAX
 10
12.0
 20
9.0
  9
$UNITMODE
 70
     0
  9
$VISRETAIN
 70
     1
  9
$PLINEGEN
 70
     0
  9
$PSLTSCALE
 70
     1
  9
$TREEDEPTH
 70
  3020
  9
$CMLSTYLE
  2
Standard
  9
$CMLJUST
 70
     0
  9
$CMLSCALE
 40
1.0
  9
$PROXYGRAPHICS
 70
     1
  9
$MEASUREMENT
 70
     0
  9
$CELWEIGHT
370
    -1
  9
$ENDCAPS
280
     0
  9
$JOINSTYLE
280
     0
  9
$LWDISPLAY
290
     1
  9
$INSUNITS
 70
     4
  9
$HYPERLINKBASE
  1

  9
$STYLESHEET
  1

  9
$XEDIT
290
     1
  9
$CEPSNTYPE
380
     0
  9
$PSTYLEMODE
290
     1
  9
$FINGERPRINTGUID
  2
{446D4B7A-B6F0-4242-BD7C-223B8FC41BC0}
  9
$VERSIONGUID
  2
{3D2A9514-BEC5-E84D-8458-89D731109450}
  9
$EXTNAMES
290
     1
  9
$PSVPSCALE
 40
0.0
  9
$OLESTARTUP
290
     0
  9
$SORTENTS
280
   127
  9
$INDEXCTL
280
     0
  9
$HIDETEXT
280
     1
  9
$XCLIPFRAME
280
     2
  9
$HALOGAP
280
     0
  9
$OBSCOLOR
 70
   257
  9
$OBSLTYPE
280
     0
  9
$INTERSECTIONDISPLAY
280
     0
  9
$INTERSECTIONCOLOR
 70
   257
  9
$DIMASSOC
280
     2
  9
$PROJECTNAME
  1

  9
$CAMERADISPLAY
290
     0
  9
$LENSLENGTH
 40
50.0
  9
$CAMERAHEIGHT
 40
0.0
  9
$STEPSPERSEC
 40
2.0
  9
$STEPSIZE
 40
6.0
  9
$3DDWFPREC
 40
2.0
  9
$PSOLWIDTH
 40
0.25
  9
$PSOLHEIGHT
 40
4.0
  9
$LOFTANG1
 40
1.570796326794896
  9
$LOFTANG2
 40
1.570796326794896
  9
$LOFTMAG1
 40
0.0
  9
$LOFTMAG2
 40
0.0
  9
$LOFTPARAM
 70
     7
  9
$LOFTNORMALS
280
     1
  9
$LATITUDE
 40
37.795
  9
$LONGITUDE
 40
-122.394
  9
$NORTHDIRECTION
 40
0.0
  9
$TIMEZONE
 70
 -8000
  9
$LIGHTGLYPHDISPLAY
280
     1
  9
$TILEMODELIGHTSYNCH
280
     1
  9
$CMATERIAL
347
11
  9
$SOLIDHIST
280
     0
  9
$SHOWHIST
280
     1
  9
$DWFFRAME
280
     2
  9
$DGNFRAME
280
     0
  9
$REALWORLDSCALE
290
     1
  9
$INTERFERECOLOR
 62
     1
  9
$INTERFEREOBJVS
345
33
  9
$INTERFEREVPVS
346
30
  9
$CSHADOW
280
     0
  9
$SHADOWPLANELOCATION
 40
0.0
  0
ENDSEC
  0
SECTION
  2
CLASSES
  0
CLASS
  1
ACDBDICTIONARYWDFLT
  2
AcDbDictionaryWithDefault
  3
ObjectDBX Classes
 90
        0
 91
        1
280
     0
281
     0
  0
CLASS
  1
MATERIAL
  2
AcDbMaterial
  3
ObjectDBX Classes
 90
     1153
 91
        3
280
     0
281
     0
  0
CLASS
  1
VISUALSTYLE
  2
AcDbVisualStyle
  3
ObjectDBX Classes
 90
     4095
 91
       24
280
     0
281
     0
  0
CLASS
  1
SCALE
  2
AcDbScale
  3
ObjectDBX Classes
 90
     1153
 91
       17
280
     0
281
     0
  0
CLASS
  1
TABLESTYLE
  2
AcDbTableStyle
  3
ObjectDBX Classes
 90
     4095
 91
        1
280
     0
281
     0
  0
CLASS
  1
MLEADERSTYLE
  2
AcDbMLeaderStyle
  3
ACDB_MLEADERSTYLE_CLASS
 90
     4095
 91
        1
280
     0
281
     0
  0
CLASS
  1
ACDBSECTIONVIEWSTYLE
  2
AcDbSectionViewStyle
  3
ObjectDBX Classes
 90
     1025
 91
        1
280
     0
281
     0
  0
CLASS
  1
ACDBDETAILVIEWSTYLE
  2
AcDbDetailViewStyle
  3
ObjectDBX Classes
 90
     1025
 91
        1
280
     0
281
     0
  0
CLASS
  1
DICTIONARYVAR
  2
AcDbDictionaryVar
  3
ObjectDBX Classes
 90
        0
 91
        5
280
     0
281
     0
  0
CLASS
  1
SORTENTSTABLE
  2
AcDbSortentsTable
  3
ObjectDBX Classes
 90
        0
 91
        4
280
     0
281
     0
  0
CLASS
  1
CELLSTYLEMAP
  2
AcDbCellStyleMap
  3
ObjectDBX Classes
 90
     1152
 91
        1
280
     0
281
     0
  0
ENDSEC
  0
SECTION
  2
TABLES
  0
TABLE
  2
VPORT
  5
8
330
0
100
AcDbSymbolTable
 70
     1
1001
ACAD
1000
DbSaveVer
1071
      249
  0
VPORT
  5
57
330
8
100
AcDbSymbolTableRecord
100
AcDbViewportTableRecord
  2
*Active
 70
     0
 10
0.0
 20
0.0
 11
1.0
 21
1.0
 12
101.7222876717199
 22
-3.558549885838715
 13
0.0
 23
0.0
 14
1.0
 24
1.0
 15
0.0
 25
0.0
 16
0.0
 26
0.0
 36
1.0
 17
41.98055554506074
 27
-49.99999998749409
 37
0.0
 40
275.8131409845973
 41
1.840101522842639
 42
50.0
 43
0.0
 44
0.0
 50
0.0
 51
0.0
 71
     0
 72
   100
 73
     1
 74
     1
 75
     0
 76
     0
 77
     0
 78
     0
281
     0
 65
     1
110
0.0
120
0.0
130
0.0
111
1.0
121
0.0
131
0.0
112
0.0
122
1.0
132
0.0
 79
     0
146
0.0
348
2F
 60
     3
 61
     5
292
     1
282
     1
141
0.0
142
0.0
 63
   250
421
  3355443
1001
ACAD_NAV_VCDISPLAY
1070
     3
  0
ENDTAB
  0
TABLE
  2
LTYPE
  5
5
330
0
100
AcDbSymbolTable
 70
     2
  0
LTYPE
  5
5B
330
5
100
AcDbSymbolTableRecord
100
AcDbLinetypeTableRecord
  2
ByBlock
 70
     0
  3

 72
    65
 73
     0
 40
0.0
  0
LTYPE
  5
5C
330
5
100
AcDbSymbolTableRecord
100
AcDbLinetypeTableRecord
  2
ByLayer
 70
     0
  3

 72
    65
 73
     0
 40
0.0
  0
LTYPE
  5
5D
330
5
100
AcDbSymbolTableRecord
100
AcDbLinetypeTableRecord
  2
Continuous
 70
     0
  3
Solid line
 72
    65
 73
     0
 40
0.0
  0
ENDTAB
  0
TABLE
  2
LAYER
  5
2
102
{ACAD_XDICTIONARY
360
355
102
}
330
0
100
AcDbSymbolTable
 70
     3
  0
LAYER
  5
54
330
2
100
AcDbSymbolTableRecord
100
AcDbLayerTableRecord
  2
0
 70
     0
 62
     7
  6
Continuous
370
    -3
390
F
347
21
348
0
  0
LAYER
  5
78
330
2
100
AcDbSymbolTableRecord
100
AcDbLayerTableRecord
  2
Livello 1
 70
     0
 62
     7
  6
Continuous
370
     0
390
F
347
21
348
0
  0
LAYER
  5
195
330
2
100
AcDbSymbolTableRecord
100
AcDbLayerTableRecord
  2
Livello 2
 70
     0
 62
     7
  6
Continuous
370
     0
390
F
347
21
348
0
  0
ENDTAB
  0
TABLE
  2
STYLE
  5
3
330
0
100
AcDbSymbolTable
 70
     2
  0
STYLE
  5
55
330
3
100
AcDbSymbolTableRecord
100
AcDbTextStyleTableRecord
  2
Standard
 70
     0
 40
0.0
 41
1.0
 50
0.0
 71
     0
 42
0.2
  3
txt
  4

  0
STYLE
  5
5A
330
3
100
AcDbSymbolTableRecord
100
AcDbTextStyleTableRecord
  2
Annotative
 70
     0
 40
0.0
 41
1.0
 50
0.0
 71
     0
 42
0.2
  3
txt
  4

1001
AcadAnnotative
1000
AnnotativeData
1002
{
1070
     1
1070
     1
1002
}
  0
ENDTAB
  0
TABLE
  2
VIEW
  5
6
330
0
100
AcDbSymbolTable
 70
     0
  0
ENDTAB
  0
TABLE
  2
UCS
  5
7
330
0
100
AcDbSymbolTable
 70
     0
  0
ENDTAB
  0
TABLE
  2
APPID
  5
9
330
0
100
AcDbSymbolTable
 70
     4
  0
APPID
  5
56
330
9
100
AcDbSymbolTableRecord
100
AcDbRegAppTableRecord
  2
ACAD
 70
     0
  0
APPID
  5
5E
330
9
100
AcDbSymbolTableRecord
100
AcDbRegAppTableRecord
  2
AcadAnnotative
 70
     0
  0
APPID
  5
354
330
9
100
AcDbSymbolTableRecord
100
AcDbRegAppTableRecord
  2
ACAD_NAV_VCDISPLAY
 70
     0
  0
APPID
  5
36F
330
9
100
AcDbSymbolTableRecord
100
AcDbRegAppTableRecord
  2
ACAD_EXEMPT_FROM_CAD_STANDARDS
 70
     0
  0
ENDTAB
  0
TABLE
  2
DIMSTYLE
  5
A
330
0
100
AcDbSymbolTable
 70
     2
100
AcDbDimStyleTable
 71
     0
  0
DIMSTYLE
105
58
330
A
100
AcDbSymbolTableRecord
100
AcDbDimStyleTableRecord
  2
Standard
 70
     0
340
55
  0
DIMSTYLE
105
59
330
A
100
AcDbSymbolTableRecord
100
AcDbDimStyleTableRecord
  2
Annotative
 70
     0
340
55
1001
AcadAnnotative
1000
AnnotativeData
1002
{
1070
     1
1070
     1
1002
}
  0
ENDTAB
  0
TABLE
  2
BLOCK_RECORD
  5
1
330
0
100
AcDbSymbolTable
 70
     4
  0
BLOCK_RECORD
  5
70
102
{ACAD_XDICTIONARY
360
1DA
102
}
330
1
100
AcDbSymbolTableRecord
100
AcDbBlockTableRecord
  2
*Model_Space
340
73
 70
     0
280
     1
281
     0
  0
BLOCK_RECORD
  5
6C
330
1
100
AcDbSymbolTableRecord
100
AcDbBlockTableRecord
  2
*Paper_Space
340
6F
 70
     0
280
     1
281
     0
  0
BLOCK_RECORD
  5
74
330
1
100
AcDbSymbolTableRecord
100
AcDbBlockTableRecord
  2
*Paper_Space0
340
77
 70
     0
280
     1
281
     0
  0
ENDTAB
  0
ENDSEC
  0
SECTION
  2
BLOCKS
  0
BLOCK
  5
71
330
70
100
AcDbEntity
  8
0
100
AcDbBlockBegin
  2
*Model_Space
 70
     0
 10
0.0
 20
0.0
 30
0.0
  3
*Model_Space
  1

  0
ENDBLK
  5
72
330
70
100
AcDbEntity
  8
0
100
AcDbBlockEnd
  0
BLOCK
  5
6D
330
6C
100
AcDbEntity
 67
     1
  8
0
100
AcDbBlockBegin
  2
*Paper_Space
 70
     0
 10
0.0
 20
0.0
 30
0.0
  3
*Paper_Space
  1

  0
ENDBLK
  5
6E
330
6C
100
AcDbEntity
 67
     1
  8
0
100
AcDbBlockEnd
  0
BLOCK
  5
75
330
74
100
AcDbEntity
 67
     1
  8
0
100
AcDbBlockBegin
  2
*Paper_Space0
 70
     0
 10
0.0
 20
0.0
 30
0.0
  3
*Paper_Space0
  1

  0
ENDBLK
  5
76
330
74
100
AcDbEntity
 67
     1
  8
0
100
AcDbBlockEnd
  0
ENDSEC
  0
SECTION
  2
ENTITIES
  0
LINE
  5
79
330
70
100
AcDbEntity
  8
0
370
     9
100
AcDbLine
 10
41.39570515053643
 20
-65.09123062917502
 30
0.0
 11
41.39570515053643
 21
-22.29054870207681
 31
0.0
  0
LINE
  5
7A
330
70
100
AcDbEntity
  8
0
370
     9
100
AcDbLine
 10
42.04185074013781
 20
-65.09123062917502
 30
0.0
 11
42.04185074013781
 21
-22.29054870207681
 31
0.0
  0
LINE
  5
7B
330
70
100
AcDbEntity
  8
0
370
     9
100
AcDbLine
 10
42.01600158626782
 20
-22.29054870207681
 30
0.0
 11
41.42154992245158
 21
-22.29054870207681
 31
0.0
  0
LINE
  5
7C
330
70
100
AcDbEntity
  8
0
370
     9
100
AcDbLine
 10
41.03386081590882
 20
-22.3137012040128
 30
0.0
 11
42.40369069280994
 21
-22.3137012040128
 31
0.0
  0
LINE
  5
7D
330
70
100
AcDbEntity
  8
0
370
     9
100
AcDbLine
 10
38.26836067214688
 20
-22.3137012040128
 30
0.0
 11
45.16919521852735
 21
-22.3137012040128
 31
0.0
  0
LINE
  5
81
330
70
100
AcDbEntity
  8
0
370
     9
100
AcDbLine
 10
41.05970996977879
 20
-90.16167819109979
 30
0.0
 11
42.37784592089544
 21
-90.16167819109979
 31
0.0
  0
LINE
  5
82
330
70
100
AcDbEntity
  8
0
370
     9
100
AcDbLine
 10
42.37784592089544
 20
-90.13583232369656
 30
0.0
 11
42.37784592089544
 21
-90.13583232369656
 31
0.0
  0
LINE
  5
83
330
70
100
AcDbEntity
  8
0
370
     9
100
AcDbLine
 10
42.40369069280994
 20
-90.13583232369656
 30
0.0
 11
42.40369069280994
 21
-88.14570272459791
 31
0.0
  0
LINE
  5
84
330
70
100
AcDbEntity
  8
0
370
     9
100
AcDbLine
 10
41.03386081590882
 20
-88.14570272459791
 30
0.0
 11
41.03386081590882
 21
-90.13583232369656
 31
0.0
  0
LINE
  5
85
330
70
100
AcDbEntity
  8
0
370
     9
100
AcDbLine
 10
41.05970996977879
 20
-90.13583232369656
 30
0.0
 11
41.05970996977879
 21
-90.13583232369656
 31
0.0
  0
LINE
  5
86
330
70
100
AcDbEntity
  8
0
370
     9
100
AcDbLine
 10
49.48544740650423
 20
-81.86516899590365
 30
0.0
 11
33.95210629319195
 21
-81.86516899590365
 31
0.0
  0
LINE
  5
87
330
70
100
AcDbEntity
  8
0
370
     9
100
AcDbLine
 10
43.61844317431242
 20
-88.14570272459791
 30
0.0
 11
39.84495310632149
 21
-88.14570272459791
 31
0.0
  0
LINE
  5
88
330
70
100
AcDbEntity
  8
0
370
     9
100
AcDbLine
 10
43.95443835507005
 20
-88.04232144596117
 30
0.0
 11
43.61844317431242
 21
-88.04232144596117
 31
0.0
  0
LINE
  5
89
330
70
100
AcDbEntity
  8
0
370
     9
100
AcDbLine
 10
48.27069492500239
 20
-81.91686073071073
 30
0.0
 11
48.32238446883206
 21
-81.86516899590365
 31
0.0
  0
LINE
  5
8A
330
70
100
AcDbEntity
  8
0
370
     9
100
AcDbLine
 10
48.19315622730275
 20
-82.45962285069731
 30
0.0
 11
48.787607891119
 21
-81.86516899590365
 31
0.0
  0
LINE
  5
8B
330
70
100
AcDbEntity
  8
0
370
     9
100
AcDbLine
 10
48.03807883190345
 20
-83.07992147740613
 30
0.0
 11
49.25283569536077
 21
-81.86516899590365
 31
0.0
  0
LINE
  5
8C
330
70
100
AcDbEntity
  8
0
370
     9
100
AcDbLine
 10
47.70208365114583
 20
-83.90698923432067
 30
0.0
 11
49.45960263458972
 21
-82.12362766993969
 31
0.0
  0
LINE
  5
8D
330
70
100
AcDbEntity
  8
0
370
     9
100
AcDbLine
 10
44.34212746161281
 20
-87.73217103711806
 30
0.0
 11
45.27257868814151
 21
-86.80171981058935
 31
0.0
  0
LINE
  5
8E
330
70
100
AcDbEntity
  8
0
370
     9
100
AcDbLine
 10
46.90086504810127
 20
-85.17343345062959
 30
0.0
 11
49.40790870880459
 21
-82.64054282703371
 31
0.0
  0
LINE
  5
8F
330
70
100
AcDbEntity
  8
0
370
     9
100
AcDbLine
 10
45.11750129274222
 20
-87.42202062827557
 30
0.0
 11
49.25283569536077
 21
-83.26084364471993
 31
0.0
  0
LINE
  5
90
330
70
100
AcDbEntity
  8
0
370
     9
100
AcDbLine
 10
46.09964206310123
 20
-86.9051032802035
 30
0.0
 11
48.94268528651765
 21
-84.06206443874191
 31
0.0
  0
LINE
  5
91
330
70
100
AcDbEntity
  8
0
370
     9
100
AcDbLine
 10
44.18705444816867
 20
-87.78386277192577
 30
0.0
 11
44.10951575046934
 21
-87.70632407422612
 31
0.0
  0
LINE
  5
92
330
70
100
AcDbEntity
  8
0
370
     9
100
AcDbLine
 10
44.54889440084112
 20
-87.65463233941904
 30
0.0
 11
44.3938213873973
 21
-87.49955713499716
 31
0.0
  0
LINE
  5
93
330
70
100
AcDbEntity
  8
0
370
     9
100
AcDbLine
 10
44.88488958159876
 20
-87.52540409788974
 30
0.0
 11
44.65227787045592
 21
-87.29279238674626
 31
0.0
  0
LINE
  5
94
330
70
100
AcDbEntity
  8
0
370
     9
100
AcDbLine
 10
45.19503999044187
 20
-87.37032889346785
 30
0.0
 11
44.91073435351391
 21
-87.0860254475173
 31
0.0
  0
LINE
  5
95
330
70
100
AcDbEntity
  8
0
370
     9
100
AcDbLine
 10
45.53103517120013
 20
-87.21525368904663
 30
0.0
 11
45.16919521852735
 21
-86.879258508289
 31
0.0
  0
LINE
  5
96
330
70
100
AcDbEntity
  8
0
370
     9
100
AcDbLine
 10
45.84118558004261
 20
-87.06017848462538
 30
0.0
 11
45.42765170158534
 21
-86.67249156906002
 31
0.0
  0
LINE
  5
97
330
70
100
AcDbEntity
  8
0
370
     9
100
AcDbLine
 10
46.12549121697089
 20
-86.879258508289
 30
0.0
 11
45.68611256659878
 21
-86.43987985791657
 31
0.0
  0
LINE
  5
98
330
70
100
AcDbEntity
  8
0
370
     9
100
AcDbLine
 10
46.40979247194435
 20
-86.6983385319526
 30
0.0
 11
45.91872427774226
 21
-86.20726595579567
 31
0.0
  0
LINE
  5
99
330
70
100
AcDbEntity
  8
0
370
     9
100
AcDbLine
 10
46.69409810887231
 20
-86.5174163646388
 30
0.0
 11
46.15133598888572
 21
-85.97465424465221
 31
0.0
  0
LINE
  5
9A
330
70
100
AcDbEntity
  8
0
370
     9
100
AcDbLine
 10
46.95255459193093
 20
-86.31064942540984
 30
0.0
 11
46.38394770002919
 21
-85.74204253350876
 31
0.0
  0
LINE
  5
9B
330
70
100
AcDbEntity
  8
0
370
     9
100
AcDbLine
 10
47.21101545694438
 20
-86.10388467715894
 30
0.0
 11
46.61655941117266
 21
-85.50942863138786
 31
0.0
  0
LINE
  5
9C
330
70
100
AcDbEntity
  8
0
370
     9
100
AcDbLine
 10
47.46947194000236
 20
-85.87127077503806
 30
0.0
 11
46.82332635040162
 21
-85.25097214832923
 31
0.0
  0
LINE
  5
9D
330
70
100
AcDbEntity
  8
0
370
     9
100
AcDbLine
 10
47.70208365114583
 20
-85.63865906389459
 30
0.0
 11
47.03009328962994
 21
-84.96666651140127
 31
0.0
  0
LINE
  5
9E
330
70
100
AcDbEntity
  8
0
370
     9
100
AcDbLine
 10
47.93469536228929
 20
-85.40604735275111
 30
0.0
 11
47.23686022885889
 21
-84.70821002834266
 31
0.0
  0
LINE
  5
9F
330
70
100
AcDbEntity
  8
0
370
     9
100
AcDbLine
 10
48.16731145538824
 20
-85.17343345062959
 30
0.0
 11
47.4177823961727
 21
-84.42390439141469
 31
0.0
  0
LINE
  5
A0
330
70
100
AcDbEntity
  8
0
370
     9
100
AcDbLine
 10
48.37407839461655
 20
-84.9149747765942
 30
0.0
 11
47.57285540961652
 21
-84.11375617354899
 31
0.0
  0
LINE
  5
A1
330
70
100
AcDbEntity
  8
0
370
     9
100
AcDbLine
 10
48.58084095189004
 20
-84.63067133064365
 30
0.0
 11
47.75377757693032
 21
-83.80360576470652
 31
0.0
  0
LINE
  5
A2
330
70
100
AcDbEntity
  8
0
370
     9
100
AcDbLine
 10
48.76176311920385
 20
-84.34636788469246
 30
0.0
 11
47.88300581845963
 21
-83.46761058394825
 31
0.0
  0
LINE
  5
A3
330
70
100
AcDbEntity
  8
0
370
     9
100
AcDbLine
 10
48.94268528651765
 20
-84.06206443874191
 30
0.0
 11
48.01223405998895
 21
-83.1316132122132
 31
0.0
  0
LINE
  5
A4
330
70
100
AcDbEntity
  8
0
370
     9
100
AcDbLine
 10
49.09775829996211
 20
-83.72606706700688
 30
0.0
 11
48.14146230151826
 21
-82.76977325954042
 31
0.0
  0
LINE
  5
A5
330
70
100
AcDbEntity
  8
0
370
     9
100
AcDbLine
 10
49.22698654149078
 20
-83.3900718862486
 30
0.0
 11
48.21900099921727
 21
-82.38208415299768
 31
0.0
  0
LINE
  5
A6
330
70
100
AcDbEntity
  8
0
370
     9
100
AcDbLine
 10
49.33037001110558
 20
-83.02822974259841
 30
0.0
 11
48.27069492500239
 21
-81.96855246551782
 31
0.0
  0
LINE
  5
A7
330
70
100
AcDbEntity
  8
0
370
     9
100
AcDbLine
 10
49.40790870880459
 20
-82.64054282703371
 30
0.0
 11
48.63253487767518
 21
-81.86516899590365
 31
0.0
  0
LINE
  5
A8
330
70
100
AcDbEntity
  8
0
370
     9
100
AcDbLine
 10
49.45960263458972
 20
-82.22701113955386
 30
0.0
 11
49.09775829996211
 21
-81.86516899590365
 31
0.0
  0
LINE
  5
A9
330
70
100
AcDbEntity
  8
0
370
     9
100
AcDbLine
 10
43.95443835507005
 20
-88.04232144596117
 30
0.0
 11
43.95443835507005
 21
-87.83555450673285
 31
0.0
  0
LINE
  5
AA
330
70
100
AcDbEntity
  8
0
370
     9
100
AcDbLine
 10
43.61844317431242
 20
-88.14570272459791
 30
0.0
 11
43.61844317431242
 21
-88.04232144596117
 31
0.0
  0
LINE
  5
AB
330
70
100
AcDbEntity
  8
0
370
     9
100
AcDbLine
 10
39.48311315364872
 20
-88.04232144596117
 30
0.0
 11
39.84495310632149
 21
-88.04232144596117
 31
0.0
  0
LINE
  5
AC
330
70
100
AcDbEntity
  8
0
370
     9
100
AcDbLine
 10
33.97795325608451
 20
-82.09778070704713
 30
0.0
 11
34.18472019531348
 21
-81.86516899590365
 31
0.0
  0
LINE
  5
AD
330
70
100
AcDbEntity
  8
0
370
     9
100
AcDbLine
 10
34.00379802799903
 20
-82.51131458550439
 30
0.0
 11
34.67579058049234
 21
-81.86516899590365
 31
0.0
  0
LINE
  5
AE
330
70
100
AcDbEntity
  8
0
370
     9
100
AcDbLine
 10
34.08133672569867
 20
-82.92484627298426
 30
0.0
 11
35.14101400277927
 21
-81.86516899590365
 31
0.0
  0
LINE
  5
AF
330
70
100
AcDbEntity
  8
0
370
     9
100
AcDbLine
 10
34.18472019531348
 20
-83.28668841663445
 30
0.0
 11
35.21855270047892
 21
-82.25285591146899
 31
0.0
  0
LINE
  5
B0
330
70
100
AcDbEntity
  8
0
370
     9
100
AcDbLine
 10
34.31394843684214
 20
-83.64853056028463
 30
0.0
 11
35.270244435286
 21
-82.66638978992627
 31
0.0
  0
LINE
  5
B1
330
70
100
AcDbEntity
  8
0
370
     9
100
AcDbLine
 10
34.44317667837145
 20
-83.95868096912776
 30
0.0
 11
35.3736279049008
 21
-83.02822974259841
 31
0.0
  0
LINE
  5
B2
330
70
100
AcDbEntity
  8
0
370
     9
100
AcDbLine
 10
34.62409884568526
 20
-84.26882918699346
 30
0.0
 11
35.50285614642947
 21
-83.3642271143341
 31
0.0
  0
LINE
  5
B3
330
70
100
AcDbEntity
  8
0
370
     9
100
AcDbLine
 10
34.80501882202164
 20
-84.55313482392142
 30
0.0
 11
35.65793135085134
 21
-83.70022229509173
 31
0.0
  0
LINE
  5
B4
330
70
100
AcDbEntity
  8
0
370
     9
100
AcDbLine
 10
34.98593879835804
 20
-84.83743826987197
 30
0.0
 11
35.81300655527258
 21
-84.01037270393484
 31
0.0
  0
LINE
  5
B5
330
70
100
AcDbEntity
  8
0
370
     9
100
AcDbLine
 10
35.21855270047892
 20
-85.095896943908
 30
0.0
 11
35.96808175969446
 21
-84.32052092180054
 31
0.0
  0
LINE
  5
B6
330
70
100
AcDbEntity
  8
0
370
     9
100
AcDbLine
 10
35.42531963970787
 20
-85.32850865505148
 30
0.0
 11
36.14900173603053
 21
-84.63067133064365
 31
0.0
  0
LINE
  5
B7
330
70
100
AcDbEntity
  8
0
370
     9
100
AcDbLine
 10
35.65793135085134
 20
-85.58696732908686
 30
0.0
 11
36.3299217123666
 21
-84.88913000467904
 31
0.0
  0
LINE
  5
B8
330
70
100
AcDbEntity
  8
0
370
     9
100
AcDbLine
 10
35.89054306199481
 20
-85.81957904023033
 30
0.0
 11
36.53669084257297
 21
-85.17343345062959
 31
0.0
  0
LINE
  5
B9
330
70
100
AcDbEntity
  8
0
370
     9
100
AcDbLine
 10
36.14900173603053
 20
-86.02634597945929
 30
0.0
 11
36.74345778180193
 21
-85.43189212466563
 31
0.0
  0
LINE
  5
BA
330
70
100
AcDbEntity
  8
0
370
     9
100
AcDbLine
 10
36.40745821908883
 20
-86.25895769060276
 30
0.0
 11
36.97606949294539
 21
-85.6645038358091
 31
0.0
  0
LINE
  5
BB
330
70
100
AcDbEntity
  8
0
370
     9
100
AcDbLine
 10
36.66591908410228
 20
-86.4657246298317
 30
0.0
 11
37.20868120408886
 21
-85.92296250984514
 31
0.0
  0
LINE
  5
BC
330
70
100
AcDbEntity
  8
0
370
     9
100
AcDbLine
 10
36.95022033907541
 20
-86.64664679714553
 30
0.0
 11
37.44129291523233
 21
-86.15557422098859
 31
0.0
  0
LINE
  5
BD
330
70
100
AcDbEntity
  8
0
370
     9
100
AcDbLine
 10
37.23452597600306
 20
-86.82756677348193
 30
0.0
 11
37.69974939829031
 21
-86.38818812310949
 31
0.0
  0
LINE
  5
BE
330
70
100
AcDbEntity
  8
0
370
     9
100
AcDbLine
 10
37.51883161293198
 20
-87.00848674981767
 30
0.0
 11
37.93236549138925
 21
-86.59495506233843
 31
0.0
  0
LINE
  5
BF
330
70
100
AcDbEntity
  8
0
370
     9
100
AcDbLine
 10
37.82898202177445
 20
-87.18940891713211
 30
0.0
 11
38.19082197444723
 21
-86.80171981058935
 31
0.0
  0
LINE
  5
C0
330
70
100
AcDbEntity
  8
0
370
     9
100
AcDbLine
 10
38.13912804866274
 20
-87.34448412155336
 30
0.0
 11
38.44927845750521
 21
-87.03433371271023
 31
0.0
  0
LINE
  5
C1
330
70
100
AcDbEntity
  8
0
370
     9
100
AcDbLine
 10
38.47512761137583
 20
-87.47371236308266
 30
0.0
 11
38.70773932251866
 21
-87.24110065193919
 31
0.0
  0
LINE
  5
C2
330
70
100
AcDbEntity
  8
0
370
     9
100
AcDbLine
 10
38.81112279213346
 20
-87.62878756750389
 30
0.0
 11
38.96619580557729
 21
-87.44786540019008
 31
0.0
  0
LINE
  5
C3
330
70
100
AcDbEntity
  8
0
370
     9
100
AcDbLine
 10
39.14711797289109
 20
-87.73217103711806
 30
0.0
 11
39.25050144250525
 21
-87.65463233941904
 31
0.0
  0
LINE
  5
C4
330
70
100
AcDbEntity
  8
0
370
     9
100
AcDbLine
 10
36.95022033907541
 20
-86.64664679714553
 30
0.0
 11
34.70163535240749
 21
-84.39805961950019
 31
0.0
  0
LINE
  5
C5
330
70
100
AcDbEntity
  8
0
370
     9
100
AcDbLine
 10
38.06159373291792
 20
-87.29279238674626
 30
0.0
 11
34.23640973914249
 21
-83.46761058394825
 31
0.0
  0
LINE
  5
C6
330
70
100
AcDbEntity
  8
0
370
     9
100
AcDbLine
 10
38.88865710787764
 20
-87.65463233941904
 30
0.0
 11
34.05548976280674
 21
-82.8214649943475
 31
0.0
  0
LINE
  5
C7
330
70
100
AcDbEntity
  8
0
370
     9
100
AcDbLine
 10
35.89054306199481
 20
-84.19129268027123
 30
0.0
 11
33.97795325608451
 21
-82.27870068338352
 31
0.0
  0
LINE
  5
C8
330
70
100
AcDbEntity
  8
0
370
     9
100
AcDbLine
 10
35.47701137451495
 20
-83.31253537952703
 30
0.0
 11
34.05548976280674
 21
-81.86516899590365
 31
0.0
  0
LINE
  5
C9
330
70
100
AcDbEntity
  8
0
370
     9
100
AcDbLine
 10
35.270244435286
 20
-82.6146980551192
 30
0.0
 11
34.5207153760711
 21
-81.86516899590365
 31
0.0
  0
LINE
  5
CA
330
70
100
AcDbEntity
  8
0
370
     9
100
AcDbLine
 10
35.19270573758635
 20
-82.07193593513261
 30
0.0
 11
34.98593879835804
 21
-81.86516899590365
 31
0.0
  0
LINE
  5
CB
330
70
100
AcDbEntity
  8
0
370
     9
100
AcDbLine
 10
39.48311315364872
 20
-88.04232144596117
 30
0.0
 11
39.48311315364872
 21
-87.83555450673285
 31
0.0
  0
LINE
  5
CC
330
70
100
AcDbEntity
  8
0
370
     9
100
AcDbLine
 10
39.84495310632149
 20
-88.14570272459791
 30
0.0
 11
39.84495310632149
 21
-88.04232144596117
 31
0.0
  0
LINE
  5
CD
330
70
100
AcDbEntity
  8
0
370
     9
100
AcDbLine
 10
37.80313286790447
 20
-82.02024420032554
 30
0.0
 11
37.95821026330376
 21
-81.86516899590365
 31
0.0
  0
LINE
  5
CE
330
70
100
AcDbEntity
  8
0
370
     9
100
AcDbLine
 10
37.85482679368961
 20
-82.43377588780475
 30
0.0
 11
38.4234336855907
 21
-81.86516899590365
 31
0.0
  0
LINE
  5
CF
330
70
100
AcDbEntity
  8
0
370
     9
100
AcDbLine
 10
37.93236549138925
 20
-82.84730976626267
 30
0.0
 11
38.88865710787764
 21
-81.86516899590365
 31
0.0
  0
LINE
  5
D0
330
70
100
AcDbEntity
  8
0
370
     9
100
AcDbLine
 10
38.00989980713343
 20
-83.23499668182737
 30
0.0
 11
39.37972968403456
 21
-81.86516899590365
 31
0.0
  0
LINE
  5
D1
330
70
100
AcDbEntity
  8
0
370
     9
100
AcDbLine
 10
38.11328327674759
 20
-83.59683882547756
 30
0.0
 11
39.84495310632149
 21
-81.86516899590365
 31
0.0
  0
LINE
  5
D2
330
70
100
AcDbEntity
  8
0
370
     9
100
AcDbLine
 10
38.19082197444723
 20
-83.98452574104227
 30
0.0
 11
40.3101809105639
 21
-81.86516899590365
 31
0.0
  0
LINE
  5
D3
330
70
100
AcDbEntity
  8
0
370
     9
100
AcDbLine
 10
38.29420544406139
 20
-84.34636788469246
 30
0.0
 11
40.77540433285084
 21
-81.86516899590365
 31
0.0
  0
LINE
  5
D4
330
70
100
AcDbEntity
  8
0
370
     9
100
AcDbLine
 10
38.4234336855907
 20
-84.70821002834266
 30
0.0
 11
41.26647690900775
 21
-81.86516899590365
 31
0.0
  0
LINE
  5
D5
330
70
100
AcDbEntity
  8
0
370
     9
100
AcDbLine
 10
38.55266192712001
 20
-85.04420520910093
 30
0.0
 11
41.73170033129469
 21
-81.86516899590365
 31
0.0
  0
LINE
  5
D6
330
70
100
AcDbEntity
  8
0
370
     9
100
AcDbLine
 10
38.68189455060415
 20
-85.38020038985855
 30
0.0
 11
42.19692375358163
 21
-81.86516899590365
 31
0.0
  0
LINE
  5
D7
330
70
100
AcDbEntity
  8
0
370
     9
100
AcDbLine
 10
38.81112279213346
 20
-85.71619557061618
 30
0.0
 11
42.66214717586857
 21
-81.86516899590365
 31
0.0
  0
LINE
  5
D8
330
70
100
AcDbEntity
  8
0
370
     9
100
AcDbLine
 10
38.96619580557729
 20
-86.05219294235187
 30
0.0
 11
43.12737498011033
 21
-81.86516899590365
 31
0.0
  0
LINE
  5
D9
330
70
100
AcDbEntity
  8
0
370
     9
100
AcDbLine
 10
39.12127320097658
 20
-86.36234116021691
 30
0.0
 11
43.61844317431242
 21
-81.86516899590365
 31
0.0
  0
LINE
  5
DA
330
70
100
AcDbEntity
  8
0
370
     9
100
AcDbLine
 10
39.2763462144204
 20
-86.67249156906002
 30
0.0
 11
44.08367097855419
 21
-81.86516899590365
 31
0.0
  0
LINE
  5
DB
330
70
100
AcDbEntity
  8
0
370
     9
100
AcDbLine
 10
39.43141922786422
 20
-86.98264197790313
 30
0.0
 11
44.54889440084112
 21
-81.86516899590365
 31
0.0
  0
LINE
  5
DC
330
70
100
AcDbEntity
  8
0
370
     9
100
AcDbLine
 10
39.61234139517803
 20
-87.2669454238537
 30
0.0
 11
45.01411782312806
 21
-81.86516899590365
 31
0.0
  0
LINE
  5
DD
330
70
100
AcDbEntity
  8
0
370
     9
100
AcDbLine
 10
39.79326356249183
 20
-87.57709583269681
 30
0.0
 11
45.47934562737047
 21
-81.86516899590365
 31
0.0
  0
LINE
  5
DE
330
70
100
AcDbEntity
  8
0
370
     9
100
AcDbLine
 10
39.97418572980627
 20
-87.83555450673285
 30
0.0
 11
45.60857386889914
 21
-82.22701113955386
 31
0.0
  0
LINE
  5
DF
330
70
100
AcDbEntity
  8
0
370
     9
100
AcDbLine
 10
40.46525392400773
 20
-87.83555450673285
 30
0.0
 11
45.50519039928498
 21
-82.76977325954042
 31
0.0
  0
LINE
  5
E0
330
70
100
AcDbEntity
  8
0
370
     9
100
AcDbLine
 10
40.93047734629466
 20
-87.83555450673285
 30
0.0
 11
45.40180692967083
 21
-83.3642271143341
 31
0.0
  0
LINE
  5
E1
330
70
100
AcDbEntity
  8
0
370
     9
100
AcDbLine
 10
41.39570515053643
 20
-87.83555450673285
 30
0.0
 11
45.24672953427153
 21
-84.01037270393484
 31
0.0
  0
LINE
  5
E2
330
70
100
AcDbEntity
  8
0
370
     9
100
AcDbLine
 10
41.86092857282336
 20
-87.83555450673285
 30
0.0
 11
45.01411782312806
 21
-84.68236306545072
 31
0.0
  0
LINE
  5
E3
330
70
100
AcDbEntity
  8
0
370
     9
100
AcDbLine
 10
42.32615199511029
 20
-87.83555450673285
 30
0.0
 11
44.75566134007008
 21
-85.43189212466563
 31
0.0
  0
LINE
  5
E4
330
70
100
AcDbEntity
  8
0
370
     9
100
AcDbLine
 10
42.81722457126721
 20
-87.83555450673285
 30
0.0
 11
44.36797223352733
 21
-86.28480465349532
 31
0.0
  0
LINE
  5
E5
330
70
100
AcDbEntity
  8
0
370
     9
100
AcDbLine
 10
43.28244799355384
 20
-87.83555450673285
 30
0.0
 11
43.79936534162623
 21
-87.31863715866078
 31
0.0
  0
LINE
  5
E6
330
70
100
AcDbEntity
  8
0
370
     9
100
AcDbLine
 10
40.02587527363529
 20
-87.83555450673285
 30
0.0
 11
39.87080226019148
 21
-87.70632407422612
 31
0.0
  0
LINE
  5
E7
330
70
100
AcDbEntity
  8
0
370
     9
100
AcDbLine
 10
40.49109869592223
 20
-87.83555450673285
 30
0.0
 11
39.22465667059073
 21
-86.56910809944587
 31
0.0
  0
LINE
  5
E8
330
70
100
AcDbEntity
  8
0
370
     9
100
AcDbLine
 10
40.95632650016464
 20
-87.83555450673285
 30
0.0
 11
38.78527363826348
 21
-85.6645038358091
 31
0.0
  0
LINE
  5
E9
330
70
100
AcDbEntity
  8
0
370
     9
100
AcDbLine
 10
41.42154992245158
 20
-87.83555450673285
 30
0.0
 11
38.50097238329034
 21
-84.88913000467904
 31
0.0
  0
LINE
  5
EA
330
70
100
AcDbEntity
  8
0
370
     9
100
AcDbLine
 10
41.9126224986085
 20
-87.83555450673285
 30
0.0
 11
38.26836067214688
 21
-84.19129268027123
 31
0.0
  0
LINE
  5
EB
330
70
100
AcDbEntity
  8
0
370
     9
100
AcDbLine
 10
42.37784592089544
 20
-87.83555450673285
 30
0.0
 11
38.08743850483308
 21
-83.54514709067048
 31
0.0
  0
LINE
  5
EC
330
70
100
AcDbEntity
  8
0
370
     9
100
AcDbLine
 10
42.84306934318236
 20
-87.83555450673285
 30
0.0
 11
37.95821026330376
 21
-82.95069323587682
 31
0.0
  0
LINE
  5
ED
330
70
100
AcDbEntity
  8
0
370
     9
100
AcDbLine
 10
43.30829276546931
 20
-87.83555450673285
 30
0.0
 11
37.85482679368961
 21
-82.38208415299768
 31
0.0
  0
LINE
  5
EE
330
70
100
AcDbEntity
  8
0
370
     9
100
AcDbLine
 10
43.59259840239727
 20
-87.65463233941904
 30
0.0
 11
37.80313286790447
 21
-81.86516899590365
 31
0.0
  0
LINE
  5
EF
330
70
100
AcDbEntity
  8
0
370
     9
100
AcDbLine
 10
43.77352056971107
 20
-87.37032889346785
 30
0.0
 11
38.26836067214688
 21
-81.86516899590365
 31
0.0
  0
LINE
  5
F0
330
70
100
AcDbEntity
  8
0
370
     9
100
AcDbLine
 10
43.95443835507005
 20
-87.06017848462538
 30
0.0
 11
38.75942886634832
 21
-81.86516899590365
 31
0.0
  0
LINE
  5
F1
330
70
100
AcDbEntity
  8
0
370
     9
100
AcDbLine
 10
44.10951575046934
 20
-86.77587503867419
 30
0.0
 11
39.22465667059073
 21
-81.86516899590365
 31
0.0
  0
LINE
  5
F2
330
70
100
AcDbEntity
  8
0
370
     9
100
AcDbLine
 10
44.29043791778314
 20
-86.4657246298317
 30
0.0
 11
39.68988009287767
 21
-81.86516899590365
 31
0.0
  0
LINE
  5
F3
330
70
100
AcDbEntity
  8
0
370
     9
100
AcDbLine
 10
44.44551093122696
 20
-86.12972944907346
 30
0.0
 11
40.1551035151646
 21
-81.86516899590365
 31
0.0
  0
LINE
  5
F4
330
70
100
AcDbEntity
  8
0
370
     9
100
AcDbLine
 10
44.57473917275628
 20
-85.81957904023033
 30
0.0
 11
40.64617609132152
 21
-81.86516899590365
 31
0.0
  0
LINE
  5
F5
330
70
100
AcDbEntity
  8
0
370
     9
100
AcDbLine
 10
44.72981656815493
 20
-85.4835838594727
 30
0.0
 11
41.11139951360846
 21
-81.86516899590365
 31
0.0
  0
LINE
  5
F6
330
70
100
AcDbEntity
  8
0
370
     9
100
AcDbLine
 10
44.85904480968424
 20
-85.14758867871508
 30
0.0
 11
41.5766229358954
 21
-81.86516899590365
 31
0.0
  0
LINE
  5
F7
330
70
100
AcDbEntity
  8
0
370
     9
100
AcDbLine
 10
44.98827305121355
 20
-84.81159349795746
 30
0.0
 11
42.04185074013781
 21
-81.86516899590365
 31
0.0
  0
LINE
  5
F8
330
70
100
AcDbEntity
  8
0
370
     9
100
AcDbLine
 10
45.09165652082803
 20
-84.44975135430727
 30
0.0
 11
42.50707416242475
 21
-81.86516899590365
 31
0.0
  0
LINE
  5
F9
330
70
100
AcDbEntity
  8
0
370
     9
100
AcDbLine
 10
45.22088476235702
 20
-84.08790921065707
 30
0.0
 11
42.99814673858167
 21
-81.86516899590365
 31
0.0
  0
LINE
  5
FA
330
70
100
AcDbEntity
  8
0
370
     9
100
AcDbLine
 10
45.29842346005667
 20
-83.72606706700688
 30
0.0
 11
43.4633701608686
 21
-81.86516899590365
 31
0.0
  0
LINE
  5
FB
330
70
100
AcDbEntity
  8
0
370
     9
100
AcDbLine
 10
45.40180692967083
 20
-83.33838015144152
 30
0.0
 11
43.92859358315553
 21
-81.86516899590365
 31
0.0
  0
LINE
  5
FC
330
70
100
AcDbEntity
  8
0
370
     9
100
AcDbLine
 10
45.47934562737047
 20
-82.95069323587682
 30
0.0
 11
44.3938213873973
 21
-81.86516899590365
 31
0.0
  0
LINE
  5
FD
330
70
100
AcDbEntity
  8
0
370
     9
100
AcDbLine
 10
45.55687994311464
 20
-82.56300632031146
 30
0.0
 11
44.85904480968424
 21
-81.86516899590365
 31
0.0
  0
LINE
  5
FE
330
70
100
AcDbEntity
  8
0
370
     9
100
AcDbLine
 10
45.60857386889914
 20
-82.1494724418542
 30
0.0
 11
45.35011300388569
 21
-81.86516899590365
 31
0.0
  0
LINE
  5
106
330
70
100
AcDbEntity
  8
0
370
     9
100
AcDbLine
 10
49.48544740650423
 20
-81.86516899590365
 30
0.0
 11
33.95210629319195
 21
-81.86516899590365
 31
0.0
  0
LINE
  5
108
330
70
100
AcDbEntity
  8
0
370
     9
100
AcDbLine
 10
39.84495310632149
 20
-88.04232144596117
 30
0.0
 11
43.61844317431242
 21
-88.04232144596117
 31
0.0
  0
LINE
  5
109
330
70
100
AcDbEntity
  8
0
370
     9
100
AcDbLine
 10
39.48311315364872
 20
-87.83555450673285
 30
0.0
 11
43.95443835507005
 21
-87.83555450673285
 31
0.0
  0
LINE
  5
10A
330
70
100
AcDbEntity
  8
0
370
     9
100
AcDbLine
 10
49.48544740650423
 20
-81.86516899590365
 30
0.0
 11
33.95210629319195
 21
-81.86516899590365
 31
0.0
  0
LINE
  5
10B
330
70
100
AcDbEntity
  8
0
370
     9
100
AcDbLine
 10
43.61844317431242
 20
-75.58463307623199
 30
0.0
 11
39.84495310632149
 21
-75.58463307623199
 31
0.0
  0
LINE
  5
10E
330
70
100
AcDbEntity
  8
0
370
     9
100
AcDbLine
 10
49.48544740650423
 20
-81.86516899590365
 30
0.0
 11
33.95210629319195
 21
-81.86516899590365
 31
0.0
  0
LINE
  5
10F
330
70
100
AcDbEntity
  8
0
370
     9
100
AcDbLine
 10
39.84495310632149
 20
-75.68801654584615
 30
0.0
 11
43.61844317431242
 21
-75.68801654584615
 31
0.0
  0
LINE
  5
110
330
70
100
AcDbEntity
  8
0
370
     9
100
AcDbLine
 10
39.48311315364872
 20
-75.89478348507511
 30
0.0
 11
43.95443835507005
 21
-75.89478348507511
 31
0.0
  0
LINE
  5
116
330
70
100
AcDbEntity
  8
0
370
     9
100
AcDbLine
 10
49.48544740650423
 20
-81.86516899590365
 30
0.0
 11
33.95210629319195
 21
-81.86516899590365
 31
0.0
  0
LINE
  5
117
330
70
100
AcDbEntity
  8
0
370
     9
100
AcDbLine
 10
46.09964206310123
 20
-76.82523252062638
 30
0.0
 11
48.94268528651765
 21
-79.66827355306539
 31
0.0
  0
LINE
  5
118
330
70
100
AcDbEntity
  8
0
370
     9
100
AcDbLine
 10
45.11750129274222
 20
-76.30831736353238
 30
0.0
 11
49.25283569536077
 21
-80.46949434708801
 31
0.0
  0
LINE
  5
119
330
70
100
AcDbEntity
  8
0
370
     9
100
AcDbLine
 10
44.34212746161281
 20
-76.02401172660377
 30
0.0
 11
45.27257868814151
 21
-76.92861599024054
 31
0.0
  0
LINE
  5
11A
330
70
100
AcDbEntity
  8
0
370
     9
100
AcDbLine
 10
46.90086504810127
 20
-78.55690235020031
 30
0.0
 11
49.40790870880459
 21
-81.08979297379619
 31
0.0
  0
LINE
  5
11B
330
70
100
AcDbEntity
  8
0
370
     9
100
AcDbLine
 10
47.70208365114583
 20
-79.82334875748726
 30
0.0
 11
49.45960263458972
 21
-81.60671032186762
 31
0.0
  0
LINE
  5
11C
330
70
100
AcDbEntity
  8
0
370
     9
100
AcDbLine
 10
48.03807883190345
 20
-80.65041432342376
 30
0.0
 11
49.25283569536077
 21
-81.86516899590365
 31
0.0
  0
LINE
  5
11D
330
70
100
AcDbEntity
  8
0
370
     9
100
AcDbLine
 10
48.19315622730275
 20
-81.27071514110999
 30
0.0
 11
48.787607891119
 21
-81.86516899590365
 31
0.0
  0
LINE
  5
11E
330
70
100
AcDbEntity
  8
0
370
     9
100
AcDbLine
 10
48.27069492500239
 20
-81.81347726109658
 30
0.0
 11
48.32238446883206
 21
-81.86516899590365
 31
0.0
  0
LINE
  5
11F
330
70
100
AcDbEntity
  8
0
370
     9
100
AcDbLine
 10
49.45960263458972
 20
-81.50332685225347
 30
0.0
 11
49.09775829996211
 21
-81.86516899590365
 31
0.0
  0
LINE
  5
120
330
70
100
AcDbEntity
  8
0
370
     9
100
AcDbLine
 10
49.40790870880459
 20
-81.08979297379619
 30
0.0
 11
48.63253487767518
 21
-81.86516899590365
 31
0.0
  0
LINE
  5
121
330
70
100
AcDbEntity
  8
0
370
     9
100
AcDbLine
 10
49.33037001110558
 20
-80.70210605823147
 30
0.0
 11
48.27069492500239
 21
-81.7617855262895
 31
0.0
  0
LINE
  5
122
330
70
100
AcDbEntity
  8
0
370
     9
100
AcDbLine
 10
49.22698654149078
 20
-80.34026391458128
 30
0.0
 11
48.21900099921727
 21
-81.34825164783222
 31
0.0
  0
LINE
  5
123
330
70
100
AcDbEntity
  8
0
370
     9
100
AcDbLine
 10
49.09775829996211
 20
-80.00426873382302
 30
0.0
 11
48.14146230151826
 21
-80.96056473226687
 31
0.0
  0
LINE
  5
124
330
70
100
AcDbEntity
  8
0
370
     9
100
AcDbLine
 10
48.94268528651765
 20
-79.66827355306539
 30
0.0
 11
48.01223405998895
 21
-80.59872258861668
 31
0.0
  0
LINE
  5
125
330
70
100
AcDbEntity
  8
0
370
     9
100
AcDbLine
 10
48.76176311920385
 20
-79.38397010711485
 30
0.0
 11
47.88300581845963
 21
-80.26272740785906
 31
0.0
  0
LINE
  5
126
330
70
100
AcDbEntity
  8
0
370
     9
100
AcDbLine
 10
48.58084095189004
 20
-79.09966447018688
 30
0.0
 11
47.75377757693032
 21
-79.92673222710142
 31
0.0
  0
LINE
  5
127
330
70
100
AcDbEntity
  8
0
370
     9
100
AcDbLine
 10
48.37407839461655
 20
-78.8153610242357
 30
0.0
 11
47.57285540961652
 21
-79.61658181825831
 31
0.0
  0
LINE
  5
128
330
70
100
AcDbEntity
  8
0
370
     9
100
AcDbLine
 10
48.16731145538824
 20
-78.58274931309222
 30
0.0
 11
47.4177823961727
 21
-79.33227837230777
 31
0.0
  0
LINE
  5
129
330
70
100
AcDbEntity
  8
0
370
     9
100
AcDbLine
 10
47.93469536228929
 20
-78.32429063905682
 30
0.0
 11
47.23686022885889
 21
-79.02212796346465
 31
0.0
  0
LINE
  5
12A
330
70
100
AcDbEntity
  8
0
370
     9
100
AcDbLine
 10
47.70208365114583
 20
-78.09167892791336
 30
0.0
 11
47.03009328962994
 21
-78.76366928942862
 31
0.0
  0
LINE
  5
12B
330
70
100
AcDbEntity
  8
0
370
     9
100
AcDbLine
 10
47.46947194000236
 20
-77.85906502579184
 30
0.0
 11
46.82332635040162
 21
-78.47936584347806
 31
0.0
  0
LINE
  5
12C
330
70
100
AcDbEntity
  8
0
370
     9
100
AcDbLine
 10
47.21101545694438
 20
-77.62645331464837
 30
0.0
 11
46.61655941117266
 21
-78.22090716944202
 31
0.0
  0
LINE
  5
12D
330
70
100
AcDbEntity
  8
0
370
     9
100
AcDbLine
 10
46.95255459193093
 20
-77.41968637542005
 30
0.0
 11
46.38394770002919
 21
-77.98829545829857
 31
0.0
  0
LINE
  5
12E
330
70
100
AcDbEntity
  8
0
370
     9
100
AcDbLine
 10
46.69409810887231
 20
-77.2129194361911
 30
0.0
 11
46.15133598888572
 21
-77.75568155617768
 31
0.0
  0
LINE
  5
12F
330
70
100
AcDbEntity
  8
0
370
     9
100
AcDbLine
 10
46.40979247194435
 20
-77.0319994598547
 30
0.0
 11
45.91872427774226
 21
-77.52306984503421
 31
0.0
  0
LINE
  5
130
330
70
100
AcDbEntity
  8
0
370
     9
100
AcDbLine
 10
46.12549121697089
 20
-76.85107948351896
 30
0.0
 11
45.68611256659878
 21
-77.29045813389075
 31
0.0
  0
LINE
  5
131
330
70
100
AcDbEntity
  8
0
370
     9
100
AcDbLine
 10
45.84118558004261
 20
-76.67015731620451
 30
0.0
 11
45.42765170158534
 21
-77.08369119466244
 31
0.0
  0
LINE
  5
132
330
70
100
AcDbEntity
  8
0
370
     9
100
AcDbLine
 10
45.53103517120013
 20
-76.51508211178327
 30
0.0
 11
45.16919521852735
 21
-76.85107948351896
 31
0.0
  0
LINE
  5
133
330
70
100
AcDbEntity
  8
0
370
     9
100
AcDbLine
 10
45.19503999044187
 20
-76.36000909833946
 30
0.0
 11
44.91073435351391
 21
-76.64431254429
 31
0.0
  0
LINE
  5
134
330
70
100
AcDbEntity
  8
0
370
     9
100
AcDbLine
 10
44.88488958159876
 20
-76.20493389391758
 30
0.0
 11
44.65227787045592
 21
-76.43754560506105
 31
0.0
  0
LINE
  5
135
330
70
100
AcDbEntity
  8
0
370
     9
100
AcDbLine
 10
44.54889440084112
 20
-76.07570346141085
 30
0.0
 11
44.3938213873973
 21
-76.23077866583273
 31
0.0
  0
LINE
  5
136
330
70
100
AcDbEntity
  8
0
370
     9
100
AcDbLine
 10
44.18705444816867
 20
-75.97231999179669
 30
0.0
 11
44.10951575046934
 21
-76.02401172660377
 31
0.0
  0
LINE
  5
137
330
70
100
AcDbEntity
  8
0
370
     9
100
AcDbLine
 10
39.14711797289109
 20
-75.99816695468927
 30
0.0
 11
39.25050144250525
 21
-76.07570346141085
 31
0.0
  0
LINE
  5
138
330
70
100
AcDbEntity
  8
0
370
     9
100
AcDbLine
 10
38.81112279213346
 20
-76.12739519621857
 30
0.0
 11
38.96619580557729
 21
-76.28247040063981
 31
0.0
  0
LINE
  5
139
330
70
100
AcDbEntity
  8
0
370
     9
100
AcDbLine
 10
38.47512761137583
 20
-76.2566256287253
 30
0.0
 11
38.70773932251866
 21
-76.48923733986876
 31
0.0
  0
LINE
  5
13A
330
70
100
AcDbEntity
  8
0
370
     9
100
AcDbLine
 10
38.13912804866274
 20
-76.38585387025397
 30
0.0
 11
38.44927845750521
 21
-76.69600427909708
 31
0.0
  0
LINE
  5
13B
330
70
100
AcDbEntity
  8
0
370
     9
100
AcDbLine
 10
37.82898202177445
 20
-76.54092907467584
 30
0.0
 11
38.19082197444723
 21
-76.92861599024054
 31
0.0
  0
LINE
  5
13C
330
70
100
AcDbEntity
  8
0
370
     9
100
AcDbLine
 10
37.51883161293198
 20
-76.72184905101224
 30
0.0
 11
37.93236549138925
 21
-77.13538292946951
 31
0.0
  0
LINE
  5
13D
330
70
100
AcDbEntity
  8
0
370
     9
100
AcDbLine
 10
37.23452597600306
 20
-76.90277121832604
 30
0.0
 11
37.69974939829031
 21
-77.36799464061298
 31
0.0
  0
LINE
  5
13E
330
70
100
AcDbEntity
  8
0
370
     9
100
AcDbLine
 10
36.95022033907541
 20
-77.08369119466244
 30
0.0
 11
37.44129291523233
 21
-77.57476157984129
 31
0.0
  0
LINE
  5
13F
330
70
100
AcDbEntity
  8
0
370
     9
100
AcDbLine
 10
36.66591908410228
 20
-77.29045813389075
 30
0.0
 11
37.20868120408886
 21
-77.80737329098475
 31
0.0
  0
LINE
  5
140
330
70
100
AcDbEntity
  8
0
370
     9
100
AcDbLine
 10
36.40745821908883
 20
-77.49722507311971
 30
0.0
 11
36.97606949294539
 21
-78.06583196502079
 31
0.0
  0
LINE
  5
141
330
70
100
AcDbEntity
  8
0
370
     9
100
AcDbLine
 10
36.14900173603053
 20
-77.70399201234802
 30
0.0
 11
36.74345778180193
 21
-78.29844586714168
 31
0.0
  0
LINE
  5
142
330
70
100
AcDbEntity
  8
0
370
     9
100
AcDbLine
 10
35.89054306199481
 20
-77.91075676059955
 30
0.0
 11
36.53669084257297
 21
-78.55690235020031
 31
0.0
  0
LINE
  5
143
330
70
100
AcDbEntity
  8
0
370
     9
100
AcDbLine
 10
35.65793135085134
 20
-78.14337066272044
 30
0.0
 11
36.3299217123666
 21
-78.84120798712825
 31
0.0
  0
LINE
  5
144
330
70
100
AcDbEntity
  8
0
370
     9
100
AcDbLine
 10
35.42531963970787
 20
-78.40182714577842
 30
0.0
 11
36.14900173603053
 21
-79.12551143307881
 31
0.0
  0
LINE
  5
145
330
70
100
AcDbEntity
  8
0
370
     9
100
AcDbLine
 10
35.21855270047892
 20
-78.63444104789995
 30
0.0
 11
35.96808175969446
 21
-79.40981487902935
 31
0.0
  0
LINE
  5
146
330
70
100
AcDbEntity
  8
0
370
     9
100
AcDbLine
 10
34.98593879835804
 20
-78.89289972193534
 30
0.0
 11
35.81300655527258
 21
-79.71996528787247
 31
0.0
  0
LINE
  5
147
330
70
100
AcDbEntity
  8
0
370
     9
100
AcDbLine
 10
34.80501882202164
 20
-79.17720316788589
 30
0.0
 11
35.65793135085134
 21
-80.03011569671558
 31
0.0
  0
LINE
  5
148
330
70
100
AcDbEntity
  8
0
370
     9
100
AcDbLine
 10
34.62409884568526
 20
-79.46150661383708
 30
0.0
 11
35.50285614642947
 21
-80.36611087747322
 31
0.0
  0
LINE
  5
149
330
70
100
AcDbEntity
  8
0
370
     9
100
AcDbLine
 10
34.44317667837145
 20
-79.77165702267955
 30
0.0
 11
35.3736279049008
 21
-80.70210605823147
 31
0.0
  0
LINE
  5
14A
330
70
100
AcDbEntity
  8
0
370
     9
100
AcDbLine
 10
34.31394843684214
 20
-80.10765220343783
 30
0.0
 11
35.270244435286
 21
-81.06394820188167
 31
0.0
  0
LINE
  5
14B
330
70
100
AcDbEntity
  8
0
370
     9
100
AcDbLine
 10
34.18472019531348
 20
-80.44364738419544
 30
0.0
 11
35.21855270047892
 21
-81.47748208033894
 31
0.0
  0
LINE
  5
14C
330
70
100
AcDbEntity
  8
0
370
     9
100
AcDbLine
 10
34.08133672569867
 20
-80.80548952784564
 30
0.0
 11
35.14101400277927
 21
-81.86516899590365
 31
0.0
  0
LINE
  5
14D
330
70
100
AcDbEntity
  8
0
370
     9
100
AcDbLine
 10
34.00379802799903
 20
-81.2190234063029
 30
0.0
 11
34.67579058049234
 21
-81.86516899590365
 31
0.0
  0
LINE
  5
14E
330
70
100
AcDbEntity
  8
0
370
     9
100
AcDbLine
 10
33.97795325608451
 20
-81.63255509378277
 30
0.0
 11
34.18472019531348
 21
-81.86516899590365
 31
0.0
  0
LINE
  5
14F
330
70
100
AcDbEntity
  8
0
370
     9
100
AcDbLine
 10
35.19270573758635
 20
-81.65840205667533
 30
0.0
 11
34.98593879835804
 21
-81.86516899590365
 31
0.0
  0
LINE
  5
150
330
70
100
AcDbEntity
  8
0
370
     9
100
AcDbLine
 10
35.270244435286
 20
-81.11563993668875
 30
0.0
 11
34.5207153760711
 21
-81.86516899590365
 31
0.0
  0
LINE
  5
151
330
70
100
AcDbEntity
  8
0
370
     9
100
AcDbLine
 10
35.47701137451495
 20
-80.4178026122803
 30
0.0
 11
34.05548976280674
 21
-81.86516899590365
 31
0.0
  0
LINE
  5
152
330
70
100
AcDbEntity
  8
0
370
     9
100
AcDbLine
 10
35.89054306199481
 20
-79.53904531153608
 30
0.0
 11
33.97795325608451
 21
-81.45163511744639
 31
0.0
  0
LINE
  5
153
330
70
100
AcDbEntity
  8
0
370
     9
100
AcDbLine
 10
38.88865710787764
 20
-76.07570346141085
 30
0.0
 11
34.05548976280674
 21
-80.90887299745979
 31
0.0
  0
LINE
  5
154
330
70
100
AcDbEntity
  8
0
370
     9
100
AcDbLine
 10
38.06159373291792
 20
-76.43754560506105
 30
0.0
 11
34.23640973914249
 21
-80.26272740785906
 31
0.0
  0
LINE
  5
155
330
70
100
AcDbEntity
  8
0
370
     9
100
AcDbLine
 10
36.95022033907541
 20
-77.08369119466244
 30
0.0
 11
34.70163535240749
 21
-79.33227837230777
 31
0.0
  0
LINE
  5
156
330
70
100
AcDbEntity
  8
0
370
     9
100
AcDbLine
 10
43.28244799355384
 20
-75.89478348507511
 30
0.0
 11
43.79936534162623
 21
-76.41170083314654
 31
0.0
  0
LINE
  5
157
330
70
100
AcDbEntity
  8
0
370
     9
100
AcDbLine
 10
42.81722457126721
 20
-75.89478348507511
 30
0.0
 11
44.36797223352733
 21
-77.44553333831262
 31
0.0
  0
LINE
  5
158
330
70
100
AcDbEntity
  8
0
370
     9
100
AcDbLine
 10
42.32615199511029
 20
-75.89478348507511
 30
0.0
 11
44.75566134007008
 21
-78.29844586714168
 31
0.0
  0
LINE
  5
159
330
70
100
AcDbEntity
  8
0
370
     9
100
AcDbLine
 10
41.86092857282336
 20
-75.89478348507511
 30
0.0
 11
45.01411782312806
 21
-79.04797273537916
 31
0.0
  0
LINE
  5
15A
330
70
100
AcDbEntity
  8
0
370
     9
100
AcDbLine
 10
41.39570515053643
 20
-75.89478348507511
 30
0.0
 11
45.24672953427153
 21
-79.71996528787247
 31
0.0
  0
LINE
  5
15B
330
70
100
AcDbEntity
  8
0
370
     9
100
AcDbLine
 10
40.93047734629466
 20
-75.89478348507511
 30
0.0
 11
45.40180692967083
 21
-80.36611087747322
 31
0.0
  0
LINE
  5
15C
330
70
100
AcDbEntity
  8
0
370
     9
100
AcDbLine
 10
40.46525392400773
 20
-75.89478348507511
 30
0.0
 11
45.50519039928498
 21
-80.96056473226687
 31
0.0
  0
LINE
  5
15D
330
70
100
AcDbEntity
  8
0
370
     9
100
AcDbLine
 10
39.97418572980627
 20
-75.89478348507511
 30
0.0
 11
45.60857386889914
 21
-81.50332685225347
 31
0.0
  0
LINE
  5
15E
330
70
100
AcDbEntity
  8
0
370
     9
100
AcDbLine
 10
39.79326356249183
 20
-76.17908693102565
 30
0.0
 11
45.47934562737047
 21
-81.86516899590365
 31
0.0
  0
LINE
  5
15F
330
70
100
AcDbEntity
  8
0
370
     9
100
AcDbLine
 10
39.61234139517803
 20
-76.46339037697619
 30
0.0
 11
45.01411782312806
 21
-81.86516899590365
 31
0.0
  0
LINE
  5
160
330
70
100
AcDbEntity
  8
0
370
     9
100
AcDbLine
 10
39.43141922786422
 20
-76.74769601390416
 30
0.0
 11
44.54889440084112
 21
-81.86516899590365
 31
0.0
  0
LINE
  5
161
330
70
100
AcDbEntity
  8
0
370
     9
100
AcDbLine
 10
39.2763462144204
 20
-77.05784642274728
 30
0.0
 11
44.08367097855419
 21
-81.86516899590365
 31
0.0
  0
LINE
  5
162
330
70
100
AcDbEntity
  8
0
370
     9
100
AcDbLine
 10
39.12127320097658
 20
-77.36799464061298
 30
0.0
 11
43.61844317431242
 21
-81.86516899590365
 31
0.0
  0
LINE
  5
163
330
70
100
AcDbEntity
  8
0
370
     9
100
AcDbLine
 10
38.96619580557729
 20
-77.67814504945609
 30
0.0
 11
43.12737498011033
 21
-81.86516899590365
 31
0.0
  0
LINE
  5
164
330
70
100
AcDbEntity
  8
0
370
     9
100
AcDbLine
 10
38.81112279213346
 20
-78.01414023021371
 30
0.0
 11
42.66214717586857
 21
-81.86516899590365
 31
0.0
  0
LINE
  5
165
330
70
100
AcDbEntity
  8
0
370
     9
100
AcDbLine
 10
38.68189455060415
 20
-78.35013760194875
 30
0.0
 11
42.19692375358163
 21
-81.86516899590365
 31
0.0
  0
LINE
  5
166
330
70
100
AcDbEntity
  8
0
370
     9
100
AcDbLine
 10
38.55266192712001
 20
-78.68613278270704
 30
0.0
 11
41.73170033129469
 21
-81.86516899590365
 31
0.0
  0
LINE
  5
167
330
70
100
AcDbEntity
  8
0
370
     9
100
AcDbLine
 10
38.4234336855907
 20
-79.02212796346465
 30
0.0
 11
41.26647690900775
 21
-81.86516899590365
 31
0.0
  0
LINE
  5
168
330
70
100
AcDbEntity
  8
0
370
     9
100
AcDbLine
 10
38.29420544406139
 20
-79.38397010711485
 30
0.0
 11
40.77540433285084
 21
-81.86516899590365
 31
0.0
  0
LINE
  5
169
330
70
100
AcDbEntity
  8
0
370
     9
100
AcDbLine
 10
38.19082197444723
 20
-79.74581005978762
 30
0.0
 11
40.3101809105639
 21
-81.86516899590365
 31
0.0
  0
LINE
  5
16A
330
70
100
AcDbEntity
  8
0
370
     9
100
AcDbLine
 10
38.11328327674759
 20
-80.13349916632973
 30
0.0
 11
39.84495310632149
 21
-81.86516899590365
 31
0.0
  0
LINE
  5
16B
330
70
100
AcDbEntity
  8
0
370
     9
100
AcDbLine
 10
38.00989980713343
 20
-80.49533911900253
 30
0.0
 11
39.37972968403456
 21
-81.86516899590365
 31
0.0
  0
LINE
  5
16C
330
70
100
AcDbEntity
  8
0
370
     9
100
AcDbLine
 10
37.93236549138925
 20
-80.90887299745979
 30
0.0
 11
38.88865710787764
 21
-81.86516899590365
 31
0.0
  0
LINE
  5
16D
330
70
100
AcDbEntity
  8
0
370
     9
100
AcDbLine
 10
37.85482679368961
 20
-81.29655991302515
 30
0.0
 11
38.4234336855907
 21
-81.86516899590365
 31
0.0
  0
LINE
  5
16E
330
70
100
AcDbEntity
  8
0
370
     9
100
AcDbLine
 10
37.80313286790447
 20
-81.71009379148243
 30
0.0
 11
37.95821026330376
 21
-81.86516899590365
 31
0.0
  0
LINE
  5
16F
330
70
100
AcDbEntity
  8
0
370
     9
100
AcDbLine
 10
45.60857386889914
 20
-81.5808655499531
 30
0.0
 11
45.35011300388569
 21
-81.86516899590365
 31
0.0
  0
LINE
  5
170
330
70
100
AcDbEntity
  8
0
370
     9
100
AcDbLine
 10
45.55687994311464
 20
-81.19317644341036
 30
0.0
 11
44.85904480968424
 21
-81.86516899590365
 31
0.0
  0
LINE
  5
171
330
70
100
AcDbEntity
  8
0
370
     9
100
AcDbLine
 10
45.47934562737047
 20
-80.77964475593049
 30
0.0
 11
44.3938213873973
 21
-81.86516899590365
 31
0.0
  0
LINE
  5
172
330
70
100
AcDbEntity
  8
0
370
     9
100
AcDbLine
 10
45.40180692967083
 20
-80.39195564938836
 30
0.0
 11
43.92859358315553
 21
-81.86516899590365
 31
0.0
  0
LINE
  5
173
330
70
100
AcDbEntity
  8
0
370
     9
100
AcDbLine
 10
45.29842346005667
 20
-80.00426873382302
 30
0.0
 11
43.4633701608686
 21
-81.86516899590365
 31
0.0
  0
LINE
  5
174
330
70
100
AcDbEntity
  8
0
370
     9
100
AcDbLine
 10
45.22088476235702
 20
-79.64242878115088
 30
0.0
 11
42.99814673858167
 21
-81.86516899590365
 31
0.0
  0
LINE
  5
175
330
70
100
AcDbEntity
  8
0
370
     9
100
AcDbLine
 10
45.09165652082803
 20
-79.28058663750069
 30
0.0
 11
42.50707416242475
 21
-81.86516899590365
 31
0.0
  0
LINE
  5
176
330
70
100
AcDbEntity
  8
0
370
     9
100
AcDbLine
 10
44.98827305121355
 20
-78.91874449385049
 30
0.0
 11
42.04185074013781
 21
-81.86516899590365
 31
0.0
  0
LINE
  5
177
330
70
100
AcDbEntity
  8
0
370
     9
100
AcDbLine
 10
44.85904480968424
 20
-78.58274931309222
 30
0.0
 11
41.5766229358954
 21
-81.86516899590365
 31
0.0
  0
LINE
  5
178
330
70
100
AcDbEntity
  8
0
370
     9
100
AcDbLine
 10
44.72981656815493
 20
-78.2467541323346
 30
0.0
 11
41.11139951360846
 21
-81.86516899590365
 31
0.0
  0
LINE
  5
179
330
70
100
AcDbEntity
  8
0
370
     9
100
AcDbLine
 10
44.57473917275628
 20
-77.91075676059955
 30
0.0
 11
40.64617609132152
 21
-81.86516899590365
 31
0.0
  0
LINE
  5
17A
330
70
100
AcDbEntity
  8
0
370
     9
100
AcDbLine
 10
44.44551093122696
 20
-77.60060854273387
 30
0.0
 11
40.1551035151646
 21
-81.86516899590365
 31
0.0
  0
LINE
  5
17B
330
70
100
AcDbEntity
  8
0
370
     9
100
AcDbLine
 10
44.29043791778314
 20
-77.29045813389075
 30
0.0
 11
39.68988009287767
 21
-81.86516899590365
 31
0.0
  0
LINE
  5
17C
330
70
100
AcDbEntity
  8
0
370
     9
100
AcDbLine
 10
44.10951575046934
 20
-76.98030772504762
 30
0.0
 11
39.22465667059073
 21
-81.86516899590365
 31
0.0
  0
LINE
  5
17D
330
70
100
AcDbEntity
  8
0
370
     9
100
AcDbLine
 10
43.95443835507005
 20
-76.67015731620451
 30
0.0
 11
38.75942886634832
 21
-81.86516899590365
 31
0.0
  0
LINE
  5
17E
330
70
100
AcDbEntity
  8
0
370
     9
100
AcDbLine
 10
43.77352056971107
 20
-76.36000909833946
 30
0.0
 11
38.26836067214688
 21
-81.86516899590365
 31
0.0
  0
LINE
  5
17F
330
70
100
AcDbEntity
  8
0
370
     9
100
AcDbLine
 10
43.59259840239727
 20
-76.07570346141085
 30
0.0
 11
37.80313286790447
 21
-81.86516899590365
 31
0.0
  0
LINE
  5
180
330
70
100
AcDbEntity
  8
0
370
     9
100
AcDbLine
 10
43.30829276546931
 20
-75.89478348507511
 30
0.0
 11
37.85482679368961
 21
-81.34825164783222
 31
0.0
  0
LINE
  5
181
330
70
100
AcDbEntity
  8
0
370
     9
100
AcDbLine
 10
42.84306934318236
 20
-75.89478348507511
 30
0.0
 11
37.95821026330376
 21
-80.77964475593049
 31
0.0
  0
LINE
  5
182
330
70
100
AcDbEntity
  8
0
370
     9
100
AcDbLine
 10
42.37784592089544
 20
-75.89478348507511
 30
0.0
 11
38.08743850483308
 21
-80.18519090113683
 31
0.0
  0
LINE
  5
183
330
70
100
AcDbEntity
  8
0
370
     9
100
AcDbLine
 10
41.9126224986085
 20
-75.89478348507511
 30
0.0
 11
38.26836067214688
 21
-79.53904531153608
 31
0.0
  0
LINE
  5
184
330
70
100
AcDbEntity
  8
0
370
     9
100
AcDbLine
 10
41.42154992245158
 20
-75.89478348507511
 30
0.0
 11
38.50097238329034
 21
-78.84120798712825
 31
0.0
  0
LINE
  5
185
330
70
100
AcDbEntity
  8
0
370
     9
100
AcDbLine
 10
40.95632650016464
 20
-75.89478348507511
 30
0.0
 11
38.78527363826348
 21
-78.06583196502079
 31
0.0
  0
LINE
  5
186
330
70
100
AcDbEntity
  8
0
370
     9
100
AcDbLine
 10
40.49109869592223
 20
-75.89478348507511
 30
0.0
 11
39.22465667059073
 21
-77.16122770138402
 31
0.0
  0
LINE
  5
187
330
70
100
AcDbEntity
  8
0
370
     9
100
AcDbLine
 10
40.02587527363529
 20
-75.89478348507511
 30
0.0
 11
39.87080226019148
 21
-76.02401172660377
 31
0.0
  0
LINE
  5
196
330
70
100
AcDbEntity
  8
0
370
     9
100
AcDbLine
 10
33.95210629319195
 20
-93.51224277497676
 30
0.0
 11
49.48544740650423
 21
-93.51224277497676
 31
0.0
  0
LINE
  5
197
330
70
100
AcDbEntity
  8
0
370
     9
100
AcDbLine
 10
51.59701644800605
 20
-9.209867244682238
 30
0.0
 11
51.59701644800605
 21
-90.16167819109979
 31
0.0
  0
LINE
  5
198
330
70
100
AcDbEntity
  8
0
370
     9
100
AcDbLine
 10
38.00989980713343
 20
-6.85956789951964
 30
0.0
 11
45.42765170158534
 21
-6.85956789951964
 31
0.0
  0
LINE
  5
1DC
330
70
100
AcDbEntity
  8
0
370
     9
100
AcDbLine
 10
38.06159373291792
 20
-22.10693426478384
 30
0.0
 11
38.11328327674759
 21
-22.26201166018313
 31
0.0
  0
LINE
  5
1DD
330
70
100
AcDbEntity
  8
0
370
     9
100
AcDbLine
 10
38.11328327674759
 20
-22.26201166018313
 30
0.0
 11
38.26836067214688
 21
-22.3137012040128
 31
0.0
  0
LINE
  5
1DE
330
70
100
AcDbEntity
  8
0
370
     9
100
AcDbLine
 10
45.37596215775631
 20
-22.10693426478384
 30
0.0
 11
45.37596215775631
 21
-9.209867244682238
 31
0.0
  0
LINE
  5
1DF
330
70
100
AcDbEntity
  8
0
370
     9
100
AcDbLine
 10
45.37596215775631
 20
-9.209867244682238
 30
0.0
 11
38.06159373291792
 21
-9.209867244682238
 31
0.0
  0
LINE
  5
1E0
330
70
100
AcDbEntity
  8
0
370
     9
100
AcDbLine
 10
38.06159373291792
 20
-9.209867244682238
 30
0.0
 11
38.06159373291792
 21
-22.10693426478384
 31
0.0
  0
LINE
  5
1E1
330
70
100
AcDbEntity
  8
0
370
     9
100
AcDbLine
 10
45.16919521852735
 20
-22.3137012040128
 30
0.0
 11
45.32426823197118
 21
-22.26201166018313
 31
0.0
  0
LINE
  5
1E2
330
70
100
AcDbEntity
  8
0
370
     9
100
AcDbLine
 10
45.32426823197118
 20
-22.26201166018313
 30
0.0
 11
45.37596215775631
 21
-22.10693426478384
 31
0.0
  0
LINE
  5
1E3
330
70
100
AcDbEntity
  8
0
370
     9
100
AcDbLine
 10
37.80313286790447
 20
-81.86516899590365
 30
0.0
 11
37.95821026330376
 21
-82.89900150106975
 31
0.0
  0
LINE
  5
1E4
330
70
100
AcDbEntity
  8
0
370
     9
100
AcDbLine
 10
37.95821026330376
 20
-82.89900150106975
 30
0.0
 11
38.21666674636175
 21
-83.95868096912776
 31
0.0
  0
LINE
  5
1E5
330
70
100
AcDbEntity
  8
0
370
     9
100
AcDbLine
 10
38.21666674636175
 20
-83.95868096912776
 30
0.0
 11
38.52681715520486
 21
-84.96666651140127
 31
0.0
  0
LINE
  5
1E6
330
70
100
AcDbEntity
  8
0
370
     9
100
AcDbLine
 10
38.52681715520486
 20
-84.96666651140127
 30
0.0
 11
38.94035103366213
 21
-85.94880947273706
 31
0.0
  0
LINE
  5
1E7
330
70
100
AcDbEntity
  8
0
370
     9
100
AcDbLine
 10
38.94035103366213
 20
-85.94880947273706
 30
0.0
 11
39.43141922786422
 21
-86.9051032802035
 31
0.0
  0
LINE
  5
1E8
330
70
100
AcDbEntity
  8
0
370
     9
100
AcDbLine
 10
39.43141922786422
 20
-86.9051032802035
 30
0.0
 11
40.00003050172078
 21
-87.80970754384027
 31
0.0
  0
LINE
  5
1E9
330
70
100
AcDbEntity
  8
0
370
     9
100
AcDbLine
 10
37.05360380868957
 20
-81.86516899590365
 30
0.0
 11
37.23452597600306
 21
-82.71808152473335
 31
0.0
  0
LINE
  5
1EA
330
70
100
AcDbEntity
  8
0
370
     9
100
AcDbLine
 10
37.23452597600306
 20
-82.71808152473335
 30
0.0
 11
37.49298245906135
 21
-83.54514709067048
 31
0.0
  0
LINE
  5
1EB
330
70
100
AcDbEntity
  8
0
370
     9
100
AcDbLine
 10
37.49298245906135
 20
-83.54514709067048
 30
0.0
 11
37.77728809598964
 21
-84.34636788469246
 31
0.0
  0
LINE
  5
1EC
330
70
100
AcDbEntity
  8
0
370
     9
100
AcDbLine
 10
37.77728809598964
 20
-84.34636788469246
 30
0.0
 11
38.13912804866274
 21
-85.1217417158225
 31
0.0
  0
LINE
  5
1ED
330
70
100
AcDbEntity
  8
0
370
     9
100
AcDbLine
 10
38.13912804866274
 20
-85.1217417158225
 30
0.0
 11
38.55266192712001
 21
-85.89711773792998
 31
0.0
  0
LINE
  5
1EE
330
70
100
AcDbEntity
  8
0
370
     9
100
AcDbLine
 10
38.55266192712001
 20
-85.89711773792998
 30
0.0
 11
39.04373450327693
 21
-86.62079983425295
 31
0.0
  0
LINE
  5
1EF
330
70
100
AcDbEntity
  8
0
370
     9
100
AcDbLine
 10
39.04373450327693
 20
-86.62079983425295
 30
0.0
 11
39.56065185134836
 21
-87.29279238674626
 31
0.0
  0
LINE
  5
1F0
330
70
100
AcDbEntity
  8
0
370
     9
100
AcDbLine
 10
36.38161344717368
 20
-81.86516899590365
 30
0.0
 11
36.6400743121868
 21
-82.8214649943475
 31
0.0
  0
LINE
  5
1F1
330
70
100
AcDbEntity
  8
0
370
     9
100
AcDbLine
 10
36.6400743121868
 20
-82.8214649943475
 30
0.0
 11
36.95022033907541
 21
-83.7519140298988
 31
0.0
  0
LINE
  5
1F2
330
70
100
AcDbEntity
  8
0
370
     9
100
AcDbLine
 10
36.95022033907541
 20
-83.7519140298988
 30
0.0
 11
37.36375421753269
 21
-84.63067133064365
 31
0.0
  0
LINE
  5
1F3
330
70
100
AcDbEntity
  8
0
370
     9
100
AcDbLine
 10
37.36375421753269
 20
-84.63067133064365
 30
0.0
 11
37.85482679368961
 21
-85.4835838594727
 31
0.0
  0
LINE
  5
1F4
330
70
100
AcDbEntity
  8
0
370
     9
100
AcDbLine
 10
37.85482679368961
 20
-85.4835838594727
 30
0.0
 11
38.39758891367619
 21
-86.31064942540984
 31
0.0
  0
LINE
  5
1F5
330
70
100
AcDbEntity
  8
0
370
     9
100
AcDbLine
 10
38.39758891367619
 20
-86.31064942540984
 30
0.0
 11
39.01788973136178
 21
-87.06017848462538
 31
0.0
  0
LINE
  5
1F6
330
70
100
AcDbEntity
  8
0
370
     9
100
AcDbLine
 10
35.7613148204655
 20
-81.86516899590365
 30
0.0
 11
35.96808175969446
 21
-82.64054282703371
 31
0.0
  0
LINE
  5
1F7
330
70
100
AcDbEntity
  8
0
370
     9
100
AcDbLine
 10
35.96808175969446
 20
-82.64054282703371
 30
0.0
 11
36.22653824275244
 21
-83.41591884914118
 31
0.0
  0
LINE
  5
1F8
330
70
100
AcDbEntity
  8
0
370
     9
100
AcDbLine
 10
36.22653824275244
 20
-83.41591884914118
 30
0.0
 11
36.56253561448812
 21
-84.1654479083567
 31
0.0
  0
LINE
  5
1F9
330
70
100
AcDbEntity
  8
0
370
     9
100
AcDbLine
 10
36.56253561448812
 20
-84.1654479083567
 30
0.0
 11
36.95022033907541
 21
-84.88913000467904
 31
0.0
  0
LINE
  5
1FA
330
70
100
AcDbEntity
  8
0
370
     9
100
AcDbLine
 10
36.95022033907541
 20
-84.88913000467904
 30
0.0
 11
37.41544814331718
 21
-85.56112036619493
 31
0.0
  0
LINE
  5
1FB
330
70
100
AcDbEntity
  8
0
370
     9
100
AcDbLine
 10
37.41544814331718
 20
-85.56112036619493
 30
0.0
 11
37.93236549138925
 21
-86.20726595579567
 31
0.0
  0
LINE
  5
1FC
330
70
100
AcDbEntity
  8
0
370
     9
100
AcDbLine
 10
37.93236549138925
 20
-86.20726595579567
 30
0.0
 11
38.50097238329034
 21
-86.80171981058935
 31
0.0
  0
LINE
  5
1FD
330
70
100
AcDbEntity
  8
0
370
     9
100
AcDbLine
 10
33.97795325608451
 20
-81.86516899590365
 30
0.0
 11
34.02964499089159
 21
-82.48546762261247
 31
0.0
  0
LINE
  5
1FE
330
70
100
AcDbEntity
  8
0
370
     9
100
AcDbLine
 10
34.02964499089159
 20
-82.48546762261247
 30
0.0
 11
34.1330284605064
 21
-83.07992147740613
 31
0.0
  0
LINE
  5
1FF
330
70
100
AcDbEntity
  8
0
370
     9
100
AcDbLine
 10
34.1330284605064
 20
-83.07992147740613
 30
0.0
 11
34.33979320875729
 21
-83.6743753321998
 31
0.0
  0
LINE
  5
200
330
70
100
AcDbEntity
  8
0
370
     9
100
AcDbLine
 10
34.33979320875729
 20
-83.6743753321998
 30
0.0
 11
34.62409884568526
 21
-84.24298441507831
 31
0.0
  0
LINE
  5
201
330
70
100
AcDbEntity
  8
0
370
     9
100
AcDbLine
 10
34.62409884568526
 20
-84.24298441507831
 30
0.0
 11
34.96009402644288
 21
-84.7340548002578
 31
0.0
  0
LINE
  5
202
330
70
100
AcDbEntity
  8
0
370
     9
100
AcDbLine
 10
34.96009402644288
 20
-84.7340548002578
 30
0.0
 11
35.47701137451495
 21
-85.35435561794404
 31
0.0
  0
LINE
  5
203
330
70
100
AcDbEntity
  8
0
370
     9
100
AcDbLine
 10
35.47701137451495
 20
-85.35435561794404
 30
0.0
 11
36.04561826641605
 21
-85.89711773792998
 31
0.0
  0
LINE
  5
204
330
70
100
AcDbEntity
  8
0
370
     9
100
AcDbLine
 10
36.04561826641605
 20
-85.89711773792998
 30
0.0
 11
36.6400743121868
 21
-86.41403289502399
 31
0.0
  0
LINE
  5
205
330
70
100
AcDbEntity
  8
0
370
     9
100
AcDbLine
 10
36.6400743121868
 20
-86.41403289502399
 30
0.0
 11
37.31206467370302
 21
-86.85341154539642
 31
0.0
  0
LINE
  5
206
330
70
100
AcDbEntity
  8
0
370
     9
100
AcDbLine
 10
37.31206467370302
 20
-86.85341154539642
 30
0.0
 11
38.00989980713343
 21
-87.24110065193919
 31
0.0
  0
LINE
  5
207
330
70
100
AcDbEntity
  8
0
370
     9
100
AcDbLine
 10
38.00989980713343
 20
-87.24110065193919
 30
0.0
 11
38.73358409443382
 21
-87.57709583269681
 31
0.0
  0
LINE
  5
208
330
70
100
AcDbEntity
  8
0
370
     9
100
AcDbLine
 10
38.73358409443382
 20
-87.57709583269681
 30
0.0
 11
39.48311315364872
 21
-87.80970754384027
 31
0.0
  0
LINE
  5
209
330
70
100
AcDbEntity
  8
0
370
     9
100
AcDbLine
 10
39.48311315364872
 20
-87.83555450673285
 30
0.0
 11
39.0954240471066
 21
-87.55124886980423
 31
0.0
  0
LINE
  5
20A
330
70
100
AcDbEntity
  8
0
370
     9
100
AcDbLine
 10
39.0954240471066
 20
-87.55124886980423
 30
0.0
 11
38.91450626174762
 21
-87.39617585636043
 31
0.0
  0
LINE
  5
20B
330
70
100
AcDbEntity
  8
0
370
     9
100
AcDbLine
 10
38.91450626174762
 20
-87.39617585636043
 30
0.0
 11
38.73358409443382
 21
-87.24110065193919
 31
0.0
  0
LINE
  5
20C
330
70
100
AcDbEntity
  8
0
370
     9
100
AcDbLine
 10
38.73358409443382
 20
-87.24110065193919
 30
0.0
 11
38.52681715520486
 21
-87.0860254475173
 31
0.0
  0
LINE
  5
20D
330
70
100
AcDbEntity
  8
0
370
     9
100
AcDbLine
 10
38.52681715520486
 20
-87.0860254475173
 30
0.0
 11
38.34589498789105
 21
-86.93095024309606
 31
0.0
  0
LINE
  5
20E
330
70
100
AcDbEntity
  8
0
370
     9
100
AcDbLine
 10
38.34589498789105
 20
-86.93095024309606
 30
0.0
 11
38.16497720253272
 21
-86.80171981058935
 31
0.0
  0
LINE
  5
20F
330
70
100
AcDbEntity
  8
0
370
     9
100
AcDbLine
 10
38.16497720253272
 20
-86.80171981058935
 30
0.0
 11
37.98405503521891
 21
-86.64664679714553
 31
0.0
  0
LINE
  5
210
330
70
100
AcDbEntity
  8
0
370
     9
100
AcDbLine
 10
37.98405503521891
 20
-86.64664679714553
 30
0.0
 11
37.80313286790447
 21
-86.4657246298317
 31
0.0
  0
LINE
  5
211
330
70
100
AcDbEntity
  8
0
370
     9
100
AcDbLine
 10
37.80313286790447
 20
-86.4657246298317
 30
0.0
 11
37.62221508254614
 21
-86.31064942540984
 31
0.0
  0
LINE
  5
212
330
70
100
AcDbEntity
  8
0
370
     9
100
AcDbLine
 10
37.62221508254614
 20
-86.31064942540984
 30
0.0
 11
37.44129291523233
 21
-86.15557422098859
 31
0.0
  0
LINE
  5
213
330
70
100
AcDbEntity
  8
0
370
     9
100
AcDbLine
 10
37.44129291523233
 20
-86.15557422098859
 30
0.0
 11
37.36375421753269
 21
-86.07803771426636
 31
0.0
  0
LINE
  5
214
330
70
100
AcDbEntity
  8
0
370
     9
100
AcDbLine
 10
37.36375421753269
 20
-86.07803771426636
 30
0.0
 11
37.28621990178851
 21
-86.00050120754479
 31
0.0
  0
LINE
  5
215
330
70
100
AcDbEntity
  8
0
370
     9
100
AcDbLine
 10
37.28621990178851
 20
-86.00050120754479
 30
0.0
 11
37.18283643217371
 21
-85.89711773792998
 31
0.0
  0
LINE
  5
216
330
70
100
AcDbEntity
  8
0
370
     9
100
AcDbLine
 10
37.18283643217371
 20
-85.89711773792998
 30
0.0
 11
37.10529773447407
 21
-85.81957904023033
 31
0.0
  0
LINE
  5
217
330
70
100
AcDbEntity
  8
0
370
     9
100
AcDbLine
 10
37.10529773447407
 20
-85.81957904023033
 30
0.0
 11
37.02775903677506
 21
-85.74204253350876
 31
0.0
  0
LINE
  5
218
330
70
100
AcDbEntity
  8
0
370
     9
100
AcDbLine
 10
37.02775903677506
 20
-85.74204253350876
 30
0.0
 11
36.95022033907541
 21
-85.63865906389459
 31
0.0
  0
LINE
  5
219
330
70
100
AcDbEntity
  8
0
370
     9
100
AcDbLine
 10
36.95022033907541
 20
-85.63865906389459
 30
0.0
 11
36.87268602333059
 21
-85.56112036619493
 31
0.0
  0
LINE
  5
21A
330
70
100
AcDbEntity
  8
0
370
     9
100
AcDbLine
 10
36.87268602333059
 20
-85.56112036619493
 30
0.0
 11
36.79514732563159
 21
-85.4835838594727
 31
0.0
  0
LINE
  5
21B
330
70
100
AcDbEntity
  8
0
370
     9
100
AcDbLine
 10
36.79514732563159
 20
-85.4835838594727
 30
0.0
 11
36.71760862793195
 21
-85.38020038985855
 31
0.0
  0
LINE
  5
21C
330
70
100
AcDbEntity
  8
0
370
     9
100
AcDbLine
 10
36.71760862793195
 20
-85.38020038985855
 30
0.0
 11
36.6400743121868
 21
-85.30266388313632
 31
0.0
  0
LINE
  5
21D
330
70
100
AcDbEntity
  8
0
370
     9
100
AcDbLine
 10
36.6400743121868
 20
-85.30266388313632
 30
0.0
 11
36.56253561448812
 21
-85.19928041352216
 31
0.0
  0
LINE
  5
21E
330
70
100
AcDbEntity
  8
0
370
     9
100
AcDbLine
 10
36.56253561448812
 20
-85.19928041352216
 30
0.0
 11
36.48499691678848
 21
-85.095896943908
 31
0.0
  0
LINE
  5
21F
330
70
100
AcDbEntity
  8
0
370
     9
100
AcDbLine
 10
36.48499691678848
 20
-85.095896943908
 30
0.0
 11
36.43330737295881
 21
-85.01835824620835
 31
0.0
  0
LINE
  5
220
330
70
100
AcDbEntity
  8
0
370
     9
100
AcDbLine
 10
36.43330737295881
 20
-85.01835824620835
 30
0.0
 11
36.35576867525916
 21
-84.9149747765942
 31
0.0
  0
LINE
  5
221
330
70
100
AcDbEntity
  8
0
370
     9
100
AcDbLine
 10
36.35576867525916
 20
-84.9149747765942
 30
0.0
 11
36.27822997755952
 21
-84.83743826987197
 31
0.0
  0
LINE
  5
222
330
70
100
AcDbEntity
  8
0
370
     9
100
AcDbLine
 10
36.27822997755952
 20
-84.83743826987197
 30
0.0
 11
36.22653824275244
 21
-84.7340548002578
 31
0.0
  0
LINE
  5
223
330
70
100
AcDbEntity
  8
0
370
     9
100
AcDbLine
 10
36.22653824275244
 20
-84.7340548002578
 30
0.0
 11
36.14900173603053
 21
-84.63067133064365
 31
0.0
  0
LINE
  5
224
330
70
100
AcDbEntity
  8
0
370
     9
100
AcDbLine
 10
36.14900173603053
 20
-84.63067133064365
 30
0.0
 11
36.09731000122313
 21
-84.52728786102886
 31
0.0
  0
LINE
  5
225
330
70
100
AcDbEntity
  8
0
370
     9
100
AcDbLine
 10
36.09731000122313
 20
-84.52728786102886
 30
0.0
 11
36.04561826641605
 21
-84.42390439141469
 31
0.0
  0
LINE
  5
226
330
70
100
AcDbEntity
  8
0
370
     9
100
AcDbLine
 10
36.04561826641605
 20
-84.42390439141469
 30
0.0
 11
35.96808175969446
 21
-84.32052092180054
 31
0.0
  0
LINE
  5
227
330
70
100
AcDbEntity
  8
0
370
     9
100
AcDbLine
 10
35.96808175969446
 20
-84.32052092180054
 30
0.0
 11
35.91639002488674
 21
-84.21713745218573
 31
0.0
  0
LINE
  5
228
330
70
100
AcDbEntity
  8
0
370
     9
100
AcDbLine
 10
35.91639002488674
 20
-84.21713745218573
 30
0.0
 11
35.86469829007966
 21
-84.11375617354899
 31
0.0
  0
LINE
  5
229
330
70
100
AcDbEntity
  8
0
370
     9
100
AcDbLine
 10
35.86469829007966
 20
-84.11375617354899
 30
0.0
 11
35.81300655527258
 21
-84.01037270393484
 31
0.0
  0
LINE
  5
22A
330
70
100
AcDbEntity
  8
0
370
     9
100
AcDbLine
 10
35.81300655527258
 20
-84.01037270393484
 30
0.0
 11
35.7613148204655
 21
-83.90698923432067
 31
0.0
  0
LINE
  5
22B
330
70
100
AcDbEntity
  8
0
370
     9
100
AcDbLine
 10
35.7613148204655
 20
-83.90698923432067
 30
0.0
 11
35.70962308565842
 21
-83.80360576470652
 31
0.0
  0
LINE
  5
22C
330
70
100
AcDbEntity
  8
0
370
     9
100
AcDbLine
 10
35.70962308565842
 20
-83.80360576470652
 30
0.0
 11
35.65793135085134
 21
-83.70022229509173
 31
0.0
  0
LINE
  5
22D
330
70
100
AcDbEntity
  8
0
370
     9
100
AcDbLine
 10
35.65793135085134
 20
-83.70022229509173
 30
0.0
 11
35.60623961604426
 21
-83.59683882547756
 31
0.0
  0
LINE
  5
22E
330
70
100
AcDbEntity
  8
0
370
     9
100
AcDbLine
 10
35.60623961604426
 20
-83.59683882547756
 30
0.0
 11
35.55454788123654
 21
-83.46761058394825
 31
0.0
  0
LINE
  5
22F
330
70
100
AcDbEntity
  8
0
370
     9
100
AcDbLine
 10
35.55454788123654
 20
-83.46761058394825
 30
0.0
 11
35.50285614642947
 21
-83.3642271143341
 31
0.0
  0
LINE
  5
230
330
70
100
AcDbEntity
  8
0
370
     9
100
AcDbLine
 10
35.50285614642947
 20
-83.3642271143341
 30
0.0
 11
35.47701137451495
 21
-83.26084364471993
 31
0.0
  0
LINE
  5
231
330
70
100
AcDbEntity
  8
0
370
     9
100
AcDbLine
 10
35.47701137451495
 20
-83.26084364471993
 30
0.0
 11
35.42531963970787
 21
-83.1316132122132
 31
0.0
  0
LINE
  5
232
330
70
100
AcDbEntity
  8
0
370
     9
100
AcDbLine
 10
35.42531963970787
 20
-83.1316132122132
 30
0.0
 11
35.3736279049008
 21
-83.02822974259841
 31
0.0
  0
LINE
  5
233
330
70
100
AcDbEntity
  8
0
370
     9
100
AcDbLine
 10
35.3736279049008
 20
-83.02822974259841
 30
0.0
 11
35.34778094200823
 21
-82.92484627298426
 31
0.0
  0
LINE
  5
234
330
70
100
AcDbEntity
  8
0
370
     9
100
AcDbLine
 10
35.34778094200823
 20
-82.92484627298426
 30
0.0
 11
35.32193617009308
 21
-82.79561803145496
 31
0.0
  0
LINE
  5
235
330
70
100
AcDbEntity
  8
0
370
     9
100
AcDbLine
 10
35.32193617009308
 20
-82.79561803145496
 30
0.0
 11
35.29608920720083
 21
-82.69223456184079
 31
0.0
  0
LINE
  5
236
330
70
100
AcDbEntity
  8
0
370
     9
100
AcDbLine
 10
35.29608920720083
 20
-82.69223456184079
 30
0.0
 11
35.270244435286
 21
-82.56300632031146
 31
0.0
  0
LINE
  5
237
330
70
100
AcDbEntity
  8
0
370
     9
100
AcDbLine
 10
35.270244435286
 20
-82.56300632031146
 30
0.0
 11
35.24439747239407
 21
-82.45962285069731
 31
0.0
  0
LINE
  5
238
330
70
100
AcDbEntity
  8
0
370
     9
100
AcDbLine
 10
35.24439747239407
 20
-82.45962285069731
 30
0.0
 11
35.21855270047892
 21
-82.3303924181906
 31
0.0
  0
LINE
  5
239
330
70
100
AcDbEntity
  8
0
370
     9
100
AcDbLine
 10
35.21855270047892
 20
-82.3303924181906
 30
0.0
 11
35.19270573758635
 21
-82.22701113955386
 31
0.0
  0
LINE
  5
23A
330
70
100
AcDbEntity
  8
0
370
     9
100
AcDbLine
 10
35.19270573758635
 20
-82.22701113955386
 30
0.0
 11
35.19270573758635
 21
-82.09778070704713
 31
0.0
  0
LINE
  5
23B
330
70
100
AcDbEntity
  8
0
370
     9
100
AcDbLine
 10
35.19270573758635
 20
-82.09778070704713
 30
0.0
 11
35.16686096567184
 21
-81.86516899590365
 31
0.0
  0
LINE
  5
23C
330
70
100
AcDbEntity
  8
0
370
     9
100
AcDbLine
 10
43.95443835507005
 20
-87.80970754384027
 30
0.0
 11
44.70396741428495
 21
-87.57709583269681
 31
0.0
  0
LINE
  5
23D
330
70
100
AcDbEntity
  8
0
370
     9
100
AcDbLine
 10
44.70396741428495
 20
-87.57709583269681
 30
0.0
 11
45.42765170158534
 21
-87.24110065193919
 31
0.0
  0
LINE
  5
23E
330
70
100
AcDbEntity
  8
0
370
     9
100
AcDbLine
 10
45.42765170158534
 20
-87.24110065193919
 30
0.0
 11
46.12549121697089
 21
-86.85341154539642
 31
0.0
  0
LINE
  5
23F
330
70
100
AcDbEntity
  8
0
370
     9
100
AcDbLine
 10
46.12549121697089
 20
-86.85341154539642
 30
0.0
 11
46.79748157848647
 21
-86.41403289502399
 31
0.0
  0
LINE
  5
240
330
70
100
AcDbEntity
  8
0
370
     9
100
AcDbLine
 10
46.79748157848647
 20
-86.41403289502399
 30
0.0
 11
47.39193324230271
 21
-85.89711773792998
 31
0.0
  0
LINE
  5
241
330
70
100
AcDbEntity
  8
0
370
     9
100
AcDbLine
 10
47.39193324230271
 20
-85.89711773792998
 30
0.0
 11
47.96054451615928
 21
-85.35435561794404
 31
0.0
  0
LINE
  5
242
330
70
100
AcDbEntity
  8
0
370
     9
100
AcDbLine
 10
47.96054451615928
 20
-85.35435561794404
 30
0.0
 11
48.47745748227588
 21
-84.7340548002578
 31
0.0
  0
LINE
  5
243
330
70
100
AcDbEntity
  8
0
370
     9
100
AcDbLine
 10
48.47745748227588
 20
-84.7340548002578
 30
0.0
 11
48.81345704498897
 21
-84.24298441507831
 31
0.0
  0
LINE
  5
244
330
70
100
AcDbEntity
  8
0
370
     9
100
AcDbLine
 10
48.81345704498897
 20
-84.24298441507831
 30
0.0
 11
49.09775829996211
 21
-83.6743753321998
 31
0.0
  0
LINE
  5
245
330
70
100
AcDbEntity
  8
0
370
     9
100
AcDbLine
 10
49.09775829996211
 20
-83.6743753321998
 30
0.0
 11
49.30452523919043
 21
-83.07992147740613
 31
0.0
  0
LINE
  5
246
330
70
100
AcDbEntity
  8
0
370
     9
100
AcDbLine
 10
49.30452523919043
 20
-83.07992147740613
 30
0.0
 11
49.40790870880459
 21
-82.48546762261247
 31
0.0
  0
LINE
  5
247
330
70
100
AcDbEntity
  8
0
370
     9
100
AcDbLine
 10
49.40790870880459
 20
-82.48546762261247
 30
0.0
 11
49.45960263458972
 21
-81.86516899590365
 31
0.0
  0
LINE
  5
248
330
70
100
AcDbEntity
  8
0
370
     9
100
AcDbLine
 10
41.03386081590882
 20
-75.58463307623199
 30
0.0
 11
42.40369069280994
 21
-75.58463307623199
 31
0.0
  0
LINE
  5
249
330
70
100
AcDbEntity
  8
0
370
     9
100
AcDbLine
 10
42.40369069280994
 20
-75.58463307623199
 30
0.0
 11
42.40369069280994
 21
-65.09123062917502
 31
0.0
  0
LINE
  5
24A
330
70
100
AcDbEntity
  8
0
370
     9
100
AcDbLine
 10
42.40369069280994
 20
-65.09123062917502
 30
0.0
 11
41.03386081590882
 21
-65.09123062917502
 31
0.0
  0
LINE
  5
24B
330
70
100
AcDbEntity
  8
0
370
     9
100
AcDbLine
 10
41.03386081590882
 20
-65.09123062917502
 30
0.0
 11
41.03386081590882
 21
-75.58463307623199
 31
0.0
  0
LINE
  5
24C
330
70
100
AcDbEntity
  8
0
370
     9
100
AcDbLine
 10
43.61844317431242
 20
-75.58463307623199
 30
0.0
 11
43.61844317431242
 21
-75.68801654584615
 31
0.0
  0
LINE
  5
24D
330
70
100
AcDbEntity
  8
0
370
     9
100
AcDbLine
 10
43.61844317431242
 20
-75.68801654584615
 30
0.0
 11
43.95443835507005
 21
-75.68801654584615
 31
0.0
  0
LINE
  5
24E
330
70
100
AcDbEntity
  8
0
370
     9
100
AcDbLine
 10
43.95443835507005
 20
-75.68801654584615
 30
0.0
 11
43.95443835507005
 21
-75.89478348507511
 31
0.0
  0
LINE
  5
24F
330
70
100
AcDbEntity
  8
0
370
     9
100
AcDbLine
 10
39.84495310632149
 20
-75.58463307623199
 30
0.0
 11
39.84495310632149
 21
-75.68801654584615
 31
0.0
  0
LINE
  5
250
330
70
100
AcDbEntity
  8
0
370
     9
100
AcDbLine
 10
39.84495310632149
 20
-75.68801654584615
 30
0.0
 11
39.48311315364872
 21
-75.68801654584615
 31
0.0
  0
LINE
  5
251
330
70
100
AcDbEntity
  8
0
370
     9
100
AcDbLine
 10
39.48311315364872
 20
-75.68801654584615
 30
0.0
 11
39.48311315364872
 21
-75.89478348507511
 31
0.0
  0
LINE
  5
252
330
70
100
AcDbEntity
  8
0
370
     9
100
AcDbLine
 10
43.43752538895345
 20
-87.80970754384027
 30
0.0
 11
44.00613228085454
 21
-86.9051032802035
 31
0.0
  0
LINE
  5
253
330
70
100
AcDbEntity
  8
0
370
     9
100
AcDbLine
 10
44.00613228085454
 20
-86.9051032802035
 30
0.0
 11
44.49720485701178
 21
-85.94880947273706
 31
0.0
  0
LINE
  5
254
330
70
100
AcDbEntity
  8
0
370
     9
100
AcDbLine
 10
44.49720485701178
 20
-85.94880947273706
 30
0.0
 11
44.91073435351391
 21
-84.96666651140127
 31
0.0
  0
LINE
  5
255
330
70
100
AcDbEntity
  8
0
370
     9
100
AcDbLine
 10
44.91073435351391
 20
-84.96666651140127
 30
0.0
 11
45.22088476235702
 21
-83.95868096912776
 31
0.0
  0
LINE
  5
256
330
70
100
AcDbEntity
  8
0
370
     9
100
AcDbLine
 10
45.22088476235702
 20
-83.95868096912776
 30
0.0
 11
45.47934562737047
 21
-82.89900150106975
 31
0.0
  0
LINE
  5
257
330
70
100
AcDbEntity
  8
0
370
     9
100
AcDbLine
 10
45.47934562737047
 20
-82.89900150106975
 30
0.0
 11
45.63441864081461
 21
-81.86516899590365
 31
0.0
  0
LINE
  5
258
330
70
100
AcDbEntity
  8
0
370
     9
100
AcDbLine
 10
43.87690403932587
 20
-87.29279238674626
 30
0.0
 11
44.3938213873973
 21
-86.62079983425295
 31
0.0
  0
LINE
  5
259
330
70
100
AcDbEntity
  8
0
370
     9
100
AcDbLine
 10
44.3938213873973
 20
-86.62079983425295
 30
0.0
 11
44.88488958159876
 21
-85.89711773792998
 31
0.0
  0
LINE
  5
25A
330
70
100
AcDbEntity
  8
0
370
     9
100
AcDbLine
 10
44.88488958159876
 20
-85.89711773792998
 30
0.0
 11
45.29842346005667
 21
-85.1217417158225
 31
0.0
  0
LINE
  5
25B
330
70
100
AcDbEntity
  8
0
370
     9
100
AcDbLine
 10
45.29842346005667
 20
-85.1217417158225
 30
0.0
 11
45.6602634127288
 21
-84.34636788469246
 31
0.0
  0
LINE
  5
25C
330
70
100
AcDbEntity
  8
0
370
     9
100
AcDbLine
 10
45.6602634127288
 20
-84.34636788469246
 30
0.0
 11
45.94456904965741
 21
-83.54514709067048
 31
0.0
  0
LINE
  5
25D
330
70
100
AcDbEntity
  8
0
370
     9
100
AcDbLine
 10
45.94456904965741
 20
-83.54514709067048
 30
0.0
 11
46.20302553271539
 21
-82.71808152473335
 31
0.0
  0
LINE
  5
25E
330
70
100
AcDbEntity
  8
0
370
     9
100
AcDbLine
 10
46.20302553271539
 20
-82.71808152473335
 30
0.0
 11
46.38394770002919
 21
-81.86516899590365
 31
0.0
  0
LINE
  5
25F
330
70
100
AcDbEntity
  8
0
370
     9
100
AcDbLine
 10
44.41966615931246
 20
-87.06017848462538
 30
0.0
 11
45.03996697699837
 21
-86.31064942540984
 31
0.0
  0
LINE
  5
260
330
70
100
AcDbEntity
  8
0
370
     9
100
AcDbLine
 10
45.03996697699837
 20
-86.31064942540984
 30
0.0
 11
45.5827290969843
 21
-85.4835838594727
 31
0.0
  0
LINE
  5
261
330
70
100
AcDbEntity
  8
0
370
     9
100
AcDbLine
 10
45.5827290969843
 20
-85.4835838594727
 30
0.0
 11
46.07379729118608
 21
-84.63067133064365
 31
0.0
  0
LINE
  5
262
330
70
100
AcDbEntity
  8
0
370
     9
100
AcDbLine
 10
46.07379729118608
 20
-84.63067133064365
 30
0.0
 11
46.48733116964399
 21
-83.7519140298988
 31
0.0
  0
LINE
  5
263
330
70
100
AcDbEntity
  8
0
370
     9
100
AcDbLine
 10
46.48733116964399
 20
-83.7519140298988
 30
0.0
 11
46.79748157848647
 21
-82.8214649943475
 31
0.0
  0
LINE
  5
264
330
70
100
AcDbEntity
  8
0
370
     9
100
AcDbLine
 10
46.79748157848647
 20
-82.8214649943475
 30
0.0
 11
47.05593806154509
 21
-81.86516899590365
 31
0.0
  0
LINE
  5
265
330
70
100
AcDbEntity
  8
0
370
     9
100
AcDbLine
 10
44.96242827929839
 20
-86.80171981058935
 30
0.0
 11
45.53103517120013
 21
-86.20726595579567
 31
0.0
  0
LINE
  5
266
330
70
100
AcDbEntity
  8
0
370
     9
100
AcDbLine
 10
45.53103517120013
 20
-86.20726595579567
 30
0.0
 11
46.04795251927156
 21
-85.56112036619493
 31
0.0
  0
LINE
  5
267
330
70
100
AcDbEntity
  8
0
370
     9
100
AcDbLine
 10
46.04795251927156
 20
-85.56112036619493
 30
0.0
 11
46.51317594155851
 21
-84.88913000467904
 31
0.0
  0
LINE
  5
268
330
70
100
AcDbEntity
  8
0
370
     9
100
AcDbLine
 10
46.51317594155851
 20
-84.88913000467904
 30
0.0
 11
46.90086504810127
 21
-84.1654479083567
 31
0.0
  0
LINE
  5
269
330
70
100
AcDbEntity
  8
0
370
     9
100
AcDbLine
 10
46.90086504810127
 20
-84.1654479083567
 30
0.0
 11
47.23686022885889
 21
-83.41591884914118
 31
0.0
  0
LINE
  5
26A
330
70
100
AcDbEntity
  8
0
370
     9
100
AcDbLine
 10
47.23686022885889
 20
-83.41591884914118
 30
0.0
 11
47.49531671191687
 21
-82.64054282703371
 31
0.0
  0
LINE
  5
26B
330
70
100
AcDbEntity
  8
0
370
     9
100
AcDbLine
 10
47.49531671191687
 20
-82.64054282703371
 30
0.0
 11
47.70208365114583
 21
-81.86516899590365
 31
0.0
  0
LINE
  5
26C
330
70
100
AcDbEntity
  8
0
370
     9
100
AcDbLine
 10
43.95443835507005
 20
-87.83555450673285
 30
0.0
 11
44.34212746161281
 21
-87.55124886980423
 31
0.0
  0
LINE
  5
26D
330
70
100
AcDbEntity
  8
0
370
     9
100
AcDbLine
 10
44.34212746161281
 20
-87.55124886980423
 30
0.0
 11
44.52304962892662
 21
-87.39617585636043
 31
0.0
  0
LINE
  5
26E
330
70
100
AcDbEntity
  8
0
370
     9
100
AcDbLine
 10
44.52304962892662
 20
-87.39617585636043
 30
0.0
 11
44.70396741428495
 21
-87.24110065193919
 31
0.0
  0
LINE
  5
26F
330
70
100
AcDbEntity
  8
0
370
     9
100
AcDbLine
 10
44.70396741428495
 20
-87.24110065193919
 30
0.0
 11
44.91073435351391
 21
-87.0860254475173
 31
0.0
  0
LINE
  5
270
330
70
100
AcDbEntity
  8
0
370
     9
100
AcDbLine
 10
44.91073435351391
 20
-87.0860254475173
 30
0.0
 11
45.09165652082803
 21
-86.93095024309606
 31
0.0
  0
LINE
  5
271
330
70
100
AcDbEntity
  8
0
370
     9
100
AcDbLine
 10
45.09165652082803
 20
-86.93095024309606
 30
0.0
 11
45.27257868814151
 21
-86.80171981058935
 31
0.0
  0
LINE
  5
272
330
70
100
AcDbEntity
  8
0
370
     9
100
AcDbLine
 10
45.27257868814151
 20
-86.80171981058935
 30
0.0
 11
45.45349647350049
 21
-86.64664679714553
 31
0.0
  0
LINE
  5
273
330
70
100
AcDbEntity
  8
0
370
     9
100
AcDbLine
 10
45.45349647350049
 20
-86.64664679714553
 30
0.0
 11
45.63441864081461
 21
-86.4657246298317
 31
0.0
  0
LINE
  5
274
330
70
100
AcDbEntity
  8
0
370
     9
100
AcDbLine
 10
45.63441864081461
 20
-86.4657246298317
 30
0.0
 11
45.8153408081281
 21
-86.31064942540984
 31
0.0
  0
LINE
  5
275
330
70
100
AcDbEntity
  8
0
370
     9
100
AcDbLine
 10
45.8153408081281
 20
-86.31064942540984
 30
0.0
 11
45.99625859348708
 21
-86.15557422098859
 31
0.0
  0
LINE
  5
276
330
70
100
AcDbEntity
  8
0
370
     9
100
AcDbLine
 10
45.99625859348708
 20
-86.15557422098859
 30
0.0
 11
46.07379729118608
 21
-86.07803771426636
 31
0.0
  0
LINE
  5
277
330
70
100
AcDbEntity
  8
0
370
     9
100
AcDbLine
 10
46.07379729118608
 20
-86.07803771426636
 30
0.0
 11
46.15133598888572
 21
-86.00050120754479
 31
0.0
  0
LINE
  5
278
330
70
100
AcDbEntity
  8
0
370
     9
100
AcDbLine
 10
46.15133598888572
 20
-86.00050120754479
 30
0.0
 11
46.25471945850052
 21
-85.89711773792998
 31
0.0
  0
LINE
  5
279
330
70
100
AcDbEntity
  8
0
370
     9
100
AcDbLine
 10
46.25471945850052
 20
-85.89711773792998
 30
0.0
 11
46.33225815619953
 21
-85.81957904023033
 31
0.0
  0
LINE
  5
27A
330
70
100
AcDbEntity
  8
0
370
     9
100
AcDbLine
 10
46.33225815619953
 20
-85.81957904023033
 30
0.0
 11
46.40979247194435
 21
-85.74204253350876
 31
0.0
  0
LINE
  5
27B
330
70
100
AcDbEntity
  8
0
370
     9
100
AcDbLine
 10
46.40979247194435
 20
-85.74204253350876
 30
0.0
 11
46.48733116964399
 21
-85.63865906389459
 31
0.0
  0
LINE
  5
27C
330
70
100
AcDbEntity
  8
0
370
     9
100
AcDbLine
 10
46.48733116964399
 20
-85.63865906389459
 30
0.0
 11
46.56486986734299
 21
-85.56112036619493
 31
0.0
  0
LINE
  5
27D
330
70
100
AcDbEntity
  8
0
370
     9
100
AcDbLine
 10
46.56486986734299
 20
-85.56112036619493
 30
0.0
 11
46.64240418308781
 21
-85.4835838594727
 31
0.0
  0
LINE
  5
27E
330
70
100
AcDbEntity
  8
0
370
     9
100
AcDbLine
 10
46.64240418308781
 20
-85.4835838594727
 30
0.0
 11
46.71994288078778
 21
-85.38020038985855
 31
0.0
  0
LINE
  5
27F
330
70
100
AcDbEntity
  8
0
370
     9
100
AcDbLine
 10
46.71994288078778
 20
-85.38020038985855
 30
0.0
 11
46.79748157848647
 21
-85.30266388313632
 31
0.0
  0
LINE
  5
280
330
70
100
AcDbEntity
  8
0
370
     9
100
AcDbLine
 10
46.79748157848647
 20
-85.30266388313632
 30
0.0
 11
46.87502027618611
 21
-85.19928041352216
 31
0.0
  0
LINE
  5
281
330
70
100
AcDbEntity
  8
0
370
     9
100
AcDbLine
 10
46.87502027618611
 20
-85.19928041352216
 30
0.0
 11
46.95255459193093
 21
-85.095896943908
 31
0.0
  0
LINE
  5
282
330
70
100
AcDbEntity
  8
0
370
     9
100
AcDbLine
 10
46.95255459193093
 20
-85.095896943908
 30
0.0
 11
47.00424851771543
 21
-85.01835824620835
 31
0.0
  0
LINE
  5
283
330
70
100
AcDbEntity
  8
0
370
     9
100
AcDbLine
 10
47.00424851771543
 20
-85.01835824620835
 30
0.0
 11
47.08178721541506
 21
-84.9149747765942
 31
0.0
  0
LINE
  5
284
330
70
100
AcDbEntity
  8
0
370
     9
100
AcDbLine
 10
47.08178721541506
 20
-84.9149747765942
 30
0.0
 11
47.15932153115924
 21
-84.83743826987197
 31
0.0
  0
LINE
  5
285
330
70
100
AcDbEntity
  8
0
370
     9
100
AcDbLine
 10
47.15932153115924
 20
-84.83743826987197
 30
0.0
 11
47.21101545694438
 21
-84.7340548002578
 31
0.0
  0
LINE
  5
286
330
70
100
AcDbEntity
  8
0
370
     9
100
AcDbLine
 10
47.21101545694438
 20
-84.7340548002578
 30
0.0
 11
47.28854977268856
 21
-84.63067133064365
 31
0.0
  0
LINE
  5
287
330
70
100
AcDbEntity
  8
0
370
     9
100
AcDbLine
 10
47.28854977268856
 20
-84.63067133064365
 30
0.0
 11
47.34024369847305
 21
-84.52728786102886
 31
0.0
  0
LINE
  5
288
330
70
100
AcDbEntity
  8
0
370
     9
100
AcDbLine
 10
47.34024369847305
 20
-84.52728786102886
 30
0.0
 11
47.4177823961727
 21
-84.42390439141469
 31
0.0
  0
LINE
  5
289
330
70
100
AcDbEntity
  8
0
370
     9
100
AcDbLine
 10
47.4177823961727
 20
-84.42390439141469
 30
0.0
 11
47.46947194000236
 21
-84.32052092180054
 31
0.0
  0
LINE
  5
28A
330
70
100
AcDbEntity
  8
0
370
     9
100
AcDbLine
 10
47.46947194000236
 20
-84.32052092180054
 30
0.0
 11
47.52116586578718
 21
-84.21713745218573
 31
0.0
  0
LINE
  5
28B
330
70
100
AcDbEntity
  8
0
370
     9
100
AcDbLine
 10
47.52116586578718
 20
-84.21713745218573
 30
0.0
 11
47.57285540961652
 21
-84.11375617354899
 31
0.0
  0
LINE
  5
28C
330
70
100
AcDbEntity
  8
0
370
     9
100
AcDbLine
 10
47.57285540961652
 20
-84.11375617354899
 30
0.0
 11
47.62454933540165
 21
-84.01037270393484
 31
0.0
  0
LINE
  5
28D
330
70
100
AcDbEntity
  8
0
370
     9
100
AcDbLine
 10
47.62454933540165
 20
-84.01037270393484
 30
0.0
 11
47.67623887923131
 21
-83.90698923432067
 31
0.0
  0
LINE
  5
28E
330
70
100
AcDbEntity
  8
0
370
     9
100
AcDbLine
 10
47.67623887923131
 20
-83.90698923432067
 30
0.0
 11
47.72793280501581
 21
-83.80360576470652
 31
0.0
  0
LINE
  5
28F
330
70
100
AcDbEntity
  8
0
370
     9
100
AcDbLine
 10
47.72793280501581
 20
-83.80360576470652
 30
0.0
 11
47.77962234884547
 21
-83.70022229509173
 31
0.0
  0
LINE
  5
290
330
70
100
AcDbEntity
  8
0
370
     9
100
AcDbLine
 10
47.77962234884547
 20
-83.70022229509173
 30
0.0
 11
47.83131189267513
 21
-83.59683882547756
 31
0.0
  0
LINE
  5
291
330
70
100
AcDbEntity
  8
0
370
     9
100
AcDbLine
 10
47.83131189267513
 20
-83.59683882547756
 30
0.0
 11
47.88300581845963
 21
-83.46761058394825
 31
0.0
  0
LINE
  5
292
330
70
100
AcDbEntity
  8
0
370
     9
100
AcDbLine
 10
47.88300581845963
 20
-83.46761058394825
 30
0.0
 11
47.93469536228929
 21
-83.3642271143341
 31
0.0
  0
LINE
  5
293
330
70
100
AcDbEntity
  8
0
370
     9
100
AcDbLine
 10
47.93469536228929
 20
-83.3642271143341
 30
0.0
 11
47.98638928807379
 21
-83.26084364471993
 31
0.0
  0
LINE
  5
294
330
70
100
AcDbEntity
  8
0
370
     9
100
AcDbLine
 10
47.98638928807379
 20
-83.26084364471993
 30
0.0
 11
48.01223405998895
 21
-83.1316132122132
 31
0.0
  0
LINE
  5
295
330
70
100
AcDbEntity
  8
0
370
     9
100
AcDbLine
 10
48.01223405998895
 20
-83.1316132122132
 30
0.0
 11
48.06392798577376
 21
-83.02822974259841
 31
0.0
  0
LINE
  5
296
330
70
100
AcDbEntity
  8
0
370
     9
100
AcDbLine
 10
48.06392798577376
 20
-83.02822974259841
 30
0.0
 11
48.08977275768859
 21
-82.92484627298426
 31
0.0
  0
LINE
  5
297
330
70
100
AcDbEntity
  8
0
370
     9
100
AcDbLine
 10
48.08977275768859
 20
-82.92484627298426
 30
0.0
 11
48.11561752960343
 21
-82.79561803145496
 31
0.0
  0
LINE
  5
298
330
70
100
AcDbEntity
  8
0
370
     9
100
AcDbLine
 10
48.11561752960343
 20
-82.79561803145496
 30
0.0
 11
48.14146230151826
 21
-82.69223456184079
 31
0.0
  0
LINE
  5
299
330
70
100
AcDbEntity
  8
0
370
     9
100
AcDbLine
 10
48.14146230151826
 20
-82.69223456184079
 30
0.0
 11
48.16731145538824
 21
-82.56300632031146
 31
0.0
  0
LINE
  5
29A
330
70
100
AcDbEntity
  8
0
370
     9
100
AcDbLine
 10
48.16731145538824
 20
-82.56300632031146
 30
0.0
 11
48.19315622730275
 21
-82.45962285069731
 31
0.0
  0
LINE
  5
29B
330
70
100
AcDbEntity
  8
0
370
     9
100
AcDbLine
 10
48.19315622730275
 20
-82.45962285069731
 30
0.0
 11
48.21900099921727
 21
-82.3303924181906
 31
0.0
  0
LINE
  5
29C
330
70
100
AcDbEntity
  8
0
370
     9
100
AcDbLine
 10
48.21900099921727
 20
-82.3303924181906
 30
0.0
 11
48.24484577113242
 21
-82.22701113955386
 31
0.0
  0
LINE
  5
29D
330
70
100
AcDbEntity
  8
0
370
     9
100
AcDbLine
 10
48.24484577113242
 20
-82.22701113955386
 30
0.0
 11
48.24484577113242
 21
-82.09778070704713
 31
0.0
  0
LINE
  5
29E
330
70
100
AcDbEntity
  8
0
370
     9
100
AcDbLine
 10
48.24484577113242
 20
-82.09778070704713
 30
0.0
 11
48.27069492500239
 21
-81.86516899590365
 31
0.0
  0
LINE
  5
29F
330
70
100
AcDbEntity
  8
0
370
     9
100
AcDbLine
 10
40.00003050172078
 20
-75.92062825698961
 30
0.0
 11
39.43141922786422
 21
-76.82523252062638
 31
0.0
  0
LINE
  5
2A0
330
70
100
AcDbEntity
  8
0
370
     9
100
AcDbLine
 10
39.43141922786422
 20
-76.82523252062638
 30
0.0
 11
38.94035103366213
 21
-77.78152851907025
 31
0.0
  0
LINE
  5
2A1
330
70
100
AcDbEntity
  8
0
370
     9
100
AcDbLine
 10
38.94035103366213
 20
-77.78152851907025
 30
0.0
 11
38.52681715520486
 21
-78.76366928942862
 31
0.0
  0
LINE
  5
2A2
330
70
100
AcDbEntity
  8
0
370
     9
100
AcDbLine
 10
38.52681715520486
 20
-78.76366928942862
 30
0.0
 11
38.21666674636175
 21
-79.77165702267955
 31
0.0
  0
LINE
  5
2A3
330
70
100
AcDbEntity
  8
0
370
     9
100
AcDbLine
 10
38.21666674636175
 20
-79.77165702267955
 30
0.0
 11
37.95821026330376
 21
-80.8313364907382
 31
0.0
  0
LINE
  5
2A4
330
70
100
AcDbEntity
  8
0
370
     9
100
AcDbLine
 10
37.95821026330376
 20
-80.8313364907382
 30
0.0
 11
37.80313286790447
 21
-81.86516899590365
 31
0.0
  0
LINE
  5
2A5
330
70
100
AcDbEntity
  8
0
370
     9
100
AcDbLine
 10
39.56065185134836
 20
-76.43754560506105
 30
0.0
 11
39.04373450327693
 21
-77.10953596657694
 31
0.0
  0
LINE
  5
2A6
330
70
100
AcDbEntity
  8
0
370
     9
100
AcDbLine
 10
39.04373450327693
 20
-77.10953596657694
 30
0.0
 11
38.55266192712001
 21
-77.83322025387732
 31
0.0
  0
LINE
  5
2A7
330
70
100
AcDbEntity
  8
0
370
     9
100
AcDbLine
 10
38.55266192712001
 20
-77.83322025387732
 30
0.0
 11
38.13912804866274
 21
-78.60859408500738
 31
0.0
  0
LINE
  5
2A8
330
70
100
AcDbEntity
  8
0
370
     9
100
AcDbLine
 10
38.13912804866274
 20
-78.60859408500738
 30
0.0
 11
37.77728809598964
 21
-79.38397010711485
 31
0.0
  0
LINE
  5
2A9
330
70
100
AcDbEntity
  8
0
370
     9
100
AcDbLine
 10
37.77728809598964
 20
-79.38397010711485
 30
0.0
 11
37.49298245906135
 21
-80.18519090113683
 31
0.0
  0
LINE
  5
2AA
330
70
100
AcDbEntity
  8
0
370
     9
100
AcDbLine
 10
37.49298245906135
 20
-80.18519090113683
 30
0.0
 11
37.23452597600306
 21
-81.01225646707396
 31
0.0
  0
LINE
  5
2AB
330
70
100
AcDbEntity
  8
0
370
     9
100
AcDbLine
 10
37.23452597600306
 20
-81.01225646707396
 30
0.0
 11
37.05360380868957
 21
-81.86516899590365
 31
0.0
  0
LINE
  5
2AC
330
70
100
AcDbEntity
  8
0
370
     9
100
AcDbLine
 10
39.01788973136178
 20
-76.67015731620451
 30
0.0
 11
38.39758891367619
 21
-77.41968637542005
 31
0.0
  0
LINE
  5
2AD
330
70
100
AcDbEntity
  8
0
370
     9
100
AcDbLine
 10
38.39758891367619
 20
-77.41968637542005
 30
0.0
 11
37.85482679368961
 21
-78.2467541323346
 31
0.0
  0
LINE
  5
2AE
330
70
100
AcDbEntity
  8
0
370
     9
100
AcDbLine
 10
37.85482679368961
 20
-78.2467541323346
 30
0.0
 11
37.36375421753269
 21
-79.09966447018688
 31
0.0
  0
LINE
  5
2AF
330
70
100
AcDbEntity
  8
0
370
     9
100
AcDbLine
 10
37.36375421753269
 20
-79.09966447018688
 30
0.0
 11
36.95022033907541
 21
-79.97842396190851
 31
0.0
  0
LINE
  5
2B0
330
70
100
AcDbEntity
  8
0
370
     9
100
AcDbLine
 10
36.95022033907541
 20
-79.97842396190851
 30
0.0
 11
36.6400743121868
 21
-80.90887299745979
 31
0.0
  0
LINE
  5
2B1
330
70
100
AcDbEntity
  8
0
370
     9
100
AcDbLine
 10
36.6400743121868
 20
-80.90887299745979
 30
0.0
 11
36.38161344717368
 21
-81.86516899590365
 31
0.0
  0
LINE
  5
2B2
330
70
100
AcDbEntity
  8
0
370
     9
100
AcDbLine
 10
38.50097238329034
 20
-76.92861599024054
 30
0.0
 11
37.93236549138925
 21
-77.52306984503421
 31
0.0
  0
LINE
  5
2B3
330
70
100
AcDbEntity
  8
0
370
     9
100
AcDbLine
 10
37.93236549138925
 20
-77.52306984503421
 30
0.0
 11
37.41544814331718
 21
-78.16921543463495
 31
0.0
  0
LINE
  5
2B4
330
70
100
AcDbEntity
  8
0
370
     9
100
AcDbLine
 10
37.41544814331718
 20
-78.16921543463495
 30
0.0
 11
36.95022033907541
 21
-78.84120798712825
 31
0.0
  0
LINE
  5
2B5
330
70
100
AcDbEntity
  8
0
370
     9
100
AcDbLine
 10
36.95022033907541
 20
-78.84120798712825
 30
0.0
 11
36.56253561448812
 21
-79.56489008345123
 31
0.0
  0
LINE
  5
2B6
330
70
100
AcDbEntity
  8
0
370
     9
100
AcDbLine
 10
36.56253561448812
 20
-79.56489008345123
 30
0.0
 11
36.22653824275244
 21
-80.31441914266613
 31
0.0
  0
LINE
  5
2B7
330
70
100
AcDbEntity
  8
0
370
     9
100
AcDbLine
 10
36.22653824275244
 20
-80.31441914266613
 30
0.0
 11
35.96808175969446
 21
-81.08979297379619
 31
0.0
  0
LINE
  5
2B8
330
70
100
AcDbEntity
  8
0
370
     9
100
AcDbLine
 10
35.96808175969446
 20
-81.08979297379619
 30
0.0
 11
35.7613148204655
 21
-81.86516899590365
 31
0.0
  0
LINE
  5
2B9
330
70
100
AcDbEntity
  8
0
370
     9
100
AcDbLine
 10
39.48311315364872
 20
-75.92062825698961
 30
0.0
 11
38.73358409443382
 21
-76.15324215911051
 31
0.0
  0
LINE
  5
2BA
330
70
100
AcDbEntity
  8
0
370
     9
100
AcDbLine
 10
38.73358409443382
 20
-76.15324215911051
 30
0.0
 11
38.00989980713343
 21
-76.48923733986876
 31
0.0
  0
LINE
  5
2BB
330
70
100
AcDbEntity
  8
0
370
     9
100
AcDbLine
 10
38.00989980713343
 20
-76.48923733986876
 30
0.0
 11
37.31206467370302
 21
-76.87692425543346
 31
0.0
  0
LINE
  5
2BC
330
70
100
AcDbEntity
  8
0
370
     9
100
AcDbLine
 10
37.31206467370302
 20
-76.87692425543346
 30
0.0
 11
36.6400743121868
 21
-77.31630290580589
 31
0.0
  0
LINE
  5
2BD
330
70
100
AcDbEntity
  8
0
370
     9
100
AcDbLine
 10
36.6400743121868
 20
-77.31630290580589
 30
0.0
 11
36.04561826641605
 21
-77.83322025387732
 31
0.0
  0
LINE
  5
2BE
330
70
100
AcDbEntity
  8
0
370
     9
100
AcDbLine
 10
36.04561826641605
 20
-77.83322025387732
 30
0.0
 11
35.47701137451495
 21
-78.37598237386391
 31
0.0
  0
LINE
  5
2BF
330
70
100
AcDbEntity
  8
0
370
     9
100
AcDbLine
 10
35.47701137451495
 20
-78.37598237386391
 30
0.0
 11
34.96009402644288
 21
-78.99628319155015
 31
0.0
  0
LINE
  5
2C0
330
70
100
AcDbEntity
  8
0
370
     9
100
AcDbLine
 10
34.96009402644288
 20
-78.99628319155015
 30
0.0
 11
34.62409884568526
 21
-79.48735357672901
 31
0.0
  0
LINE
  5
2C1
330
70
100
AcDbEntity
  8
0
370
     9
100
AcDbLine
 10
34.62409884568526
 20
-79.48735357672901
 30
0.0
 11
34.33979320875729
 21
-80.0559604686301
 31
0.0
  0
LINE
  5
2C2
330
70
100
AcDbEntity
  8
0
370
     9
100
AcDbLine
 10
34.33979320875729
 20
-80.0559604686301
 30
0.0
 11
34.1330284605064
 21
-80.65041432342376
 31
0.0
  0
LINE
  5
2C3
330
70
100
AcDbEntity
  8
0
370
     9
100
AcDbLine
 10
34.1330284605064
 20
-80.65041432342376
 30
0.0
 11
34.02964499089159
 21
-81.24486817821743
 31
0.0
  0
LINE
  5
2C4
330
70
100
AcDbEntity
  8
0
370
     9
100
AcDbLine
 10
34.02964499089159
 20
-81.24486817821743
 30
0.0
 11
33.97795325608451
 21
-81.86516899590365
 31
0.0
  0
LINE
  5
2C5
330
70
100
AcDbEntity
  8
0
370
     9
100
AcDbLine
 10
39.48311315364872
 20
-75.89478348507511
 30
0.0
 11
39.0954240471066
 21
-76.17908693102565
 31
0.0
  0
LINE
  5
2C6
330
70
100
AcDbEntity
  8
0
370
     9
100
AcDbLine
 10
39.0954240471066
 20
-76.17908693102565
 30
0.0
 11
38.91450626174762
 21
-76.33416213544689
 31
0.0
  0
LINE
  5
2C7
330
70
100
AcDbEntity
  8
0
370
     9
100
AcDbLine
 10
38.91450626174762
 20
-76.33416213544689
 30
0.0
 11
38.73358409443382
 21
-76.48923733986876
 31
0.0
  0
LINE
  5
2C8
330
70
100
AcDbEntity
  8
0
370
     9
100
AcDbLine
 10
38.73358409443382
 20
-76.48923733986876
 30
0.0
 11
38.52681715520486
 21
-76.64431254429
 31
0.0
  0
LINE
  5
2C9
330
70
100
AcDbEntity
  8
0
370
     9
100
AcDbLine
 10
38.52681715520486
 20
-76.64431254429
 30
0.0
 11
38.34589498789105
 21
-76.79938774871124
 31
0.0
  0
LINE
  5
2CA
330
70
100
AcDbEntity
  8
0
370
     9
100
AcDbLine
 10
38.34589498789105
 20
-76.79938774871124
 30
0.0
 11
38.16497720253272
 21
-76.95446295313312
 31
0.0
  0
LINE
  5
2CB
330
70
100
AcDbEntity
  8
0
370
     9
100
AcDbLine
 10
38.16497720253272
 20
-76.95446295313312
 30
0.0
 11
37.98405503521891
 21
-77.10953596657694
 31
0.0
  0
LINE
  5
2CC
330
70
100
AcDbEntity
  8
0
370
     9
100
AcDbLine
 10
37.98405503521891
 20
-77.10953596657694
 30
0.0
 11
37.80313286790447
 21
-77.26461117099818
 31
0.0
  0
LINE
  5
2CD
330
70
100
AcDbEntity
  8
0
370
     9
100
AcDbLine
 10
37.80313286790447
 20
-77.26461117099818
 30
0.0
 11
37.62221508254614
 21
-77.41968637542005
 31
0.0
  0
LINE
  5
2CE
330
70
100
AcDbEntity
  8
0
370
     9
100
AcDbLine
 10
37.62221508254614
 20
-77.41968637542005
 30
0.0
 11
37.44129291523233
 21
-77.57476157984129
 31
0.0
  0
LINE
  5
2CF
330
70
100
AcDbEntity
  8
0
370
     9
100
AcDbLine
 10
37.44129291523233
 20
-77.57476157984129
 30
0.0
 11
37.36375421753269
 21
-77.65230027754094
 31
0.0
  0
LINE
  5
2D0
330
70
100
AcDbEntity
  8
0
370
     9
100
AcDbLine
 10
37.36375421753269
 20
-77.65230027754094
 30
0.0
 11
37.28621990178851
 21
-77.75568155617768
 31
0.0
  0
LINE
  5
2D1
330
70
100
AcDbEntity
  8
0
370
     9
100
AcDbLine
 10
37.28621990178851
 20
-77.75568155617768
 30
0.0
 11
37.18283643217371
 21
-77.83322025387732
 31
0.0
  0
LINE
  5
2D2
330
70
100
AcDbEntity
  8
0
370
     9
100
AcDbLine
 10
37.18283643217371
 20
-77.83322025387732
 30
0.0
 11
37.10529773447407
 21
-77.91075676059955
 31
0.0
  0
LINE
  5
2D3
330
70
100
AcDbEntity
  8
0
370
     9
100
AcDbLine
 10
37.10529773447407
 20
-77.91075676059955
 30
0.0
 11
37.02775903677506
 21
-77.98829545829857
 31
0.0
  0
LINE
  5
2D4
330
70
100
AcDbEntity
  8
0
370
     9
100
AcDbLine
 10
37.02775903677506
 20
-77.98829545829857
 30
0.0
 11
36.95022033907541
 21
-78.09167892791336
 31
0.0
  0
LINE
  5
2D5
330
70
100
AcDbEntity
  8
0
370
     9
100
AcDbLine
 10
36.95022033907541
 20
-78.09167892791336
 30
0.0
 11
36.87268602333059
 21
-78.16921543463495
 31
0.0
  0
LINE
  5
2D6
330
70
100
AcDbEntity
  8
0
370
     9
100
AcDbLine
 10
36.87268602333059
 20
-78.16921543463495
 30
0.0
 11
36.79514732563159
 21
-78.27259890424975
 31
0.0
  0
LINE
  5
2D7
330
70
100
AcDbEntity
  8
0
370
     9
100
AcDbLine
 10
36.79514732563159
 20
-78.27259890424975
 30
0.0
 11
36.71760862793195
 21
-78.35013760194875
 31
0.0
  0
LINE
  5
2D8
330
70
100
AcDbEntity
  8
0
370
     9
100
AcDbLine
 10
36.71760862793195
 20
-78.35013760194875
 30
0.0
 11
36.6400743121868
 21
-78.45351888058551
 31
0.0
  0
LINE
  5
2D9
330
70
100
AcDbEntity
  8
0
370
     9
100
AcDbLine
 10
36.6400743121868
 20
-78.45351888058551
 30
0.0
 11
36.56253561448812
 21
-78.53105757828514
 31
0.0
  0
LINE
  5
2DA
330
70
100
AcDbEntity
  8
0
370
     9
100
AcDbLine
 10
36.56253561448812
 20
-78.53105757828514
 30
0.0
 11
36.48499691678848
 21
-78.63444104789995
 31
0.0
  0
LINE
  5
2DB
330
70
100
AcDbEntity
  8
0
370
     9
100
AcDbLine
 10
36.48499691678848
 20
-78.63444104789995
 30
0.0
 11
36.43330737295881
 21
-78.71197755462154
 31
0.0
  0
LINE
  5
2DC
330
70
100
AcDbEntity
  8
0
370
     9
100
AcDbLine
 10
36.43330737295881
 20
-78.71197755462154
 30
0.0
 11
36.35576867525916
 21
-78.8153610242357
 31
0.0
  0
LINE
  5
2DD
330
70
100
AcDbEntity
  8
0
370
     9
100
AcDbLine
 10
36.35576867525916
 20
-78.8153610242357
 30
0.0
 11
36.27822997755952
 21
-78.91874449385049
 31
0.0
  0
LINE
  5
2DE
330
70
100
AcDbEntity
  8
0
370
     9
100
AcDbLine
 10
36.27822997755952
 20
-78.91874449385049
 30
0.0
 11
36.22653824275244
 21
-78.99628319155015
 31
0.0
  0
LINE
  5
2DF
330
70
100
AcDbEntity
  8
0
370
     9
100
AcDbLine
 10
36.22653824275244
 20
-78.99628319155015
 30
0.0
 11
36.14900173603053
 21
-79.09966447018688
 31
0.0
  0
LINE
  5
2E0
330
70
100
AcDbEntity
  8
0
370
     9
100
AcDbLine
 10
36.14900173603053
 20
-79.09966447018688
 30
0.0
 11
36.09731000122313
 21
-79.20304793980104
 31
0.0
  0
LINE
  5
2E1
330
70
100
AcDbEntity
  8
0
370
     9
100
AcDbLine
 10
36.09731000122313
 20
-79.20304793980104
 30
0.0
 11
36.04561826641605
 21
-79.30643140941519
 31
0.0
  0
LINE
  5
2E2
330
70
100
AcDbEntity
  8
0
370
     9
100
AcDbLine
 10
36.04561826641605
 20
-79.30643140941519
 30
0.0
 11
35.96808175969446
 21
-79.40981487902935
 31
0.0
  0
LINE
  5
2E3
330
70
100
AcDbEntity
  8
0
370
     9
100
AcDbLine
 10
35.96808175969446
 20
-79.40981487902935
 30
0.0
 11
35.91639002488674
 21
-79.51319834864415
 31
0.0
  0
LINE
  5
2E4
330
70
100
AcDbEntity
  8
0
370
     9
100
AcDbLine
 10
35.91639002488674
 20
-79.51319834864415
 30
0.0
 11
35.86469829007966
 21
-79.61658181825831
 31
0.0
  0
LINE
  5
2E5
330
70
100
AcDbEntity
  8
0
370
     9
100
AcDbLine
 10
35.86469829007966
 20
-79.61658181825831
 30
0.0
 11
35.81300655527258
 21
-79.71996528787247
 31
0.0
  0
LINE
  5
2E6
330
70
100
AcDbEntity
  8
0
370
     9
100
AcDbLine
 10
35.81300655527258
 20
-79.71996528787247
 30
0.0
 11
35.7613148204655
 21
-79.82334875748726
 31
0.0
  0
LINE
  5
2E7
330
70
100
AcDbEntity
  8
0
370
     9
100
AcDbLine
 10
35.7613148204655
 20
-79.82334875748726
 30
0.0
 11
35.70962308565842
 21
-79.92673222710142
 31
0.0
  0
LINE
  5
2E8
330
70
100
AcDbEntity
  8
0
370
     9
100
AcDbLine
 10
35.70962308565842
 20
-79.92673222710142
 30
0.0
 11
35.65793135085134
 21
-80.03011569671558
 31
0.0
  0
LINE
  5
2E9
330
70
100
AcDbEntity
  8
0
370
     9
100
AcDbLine
 10
35.65793135085134
 20
-80.03011569671558
 30
0.0
 11
35.60623961604426
 21
-80.1593439382449
 31
0.0
  0
LINE
  5
2EA
330
70
100
AcDbEntity
  8
0
370
     9
100
AcDbLine
 10
35.60623961604426
 20
-80.1593439382449
 30
0.0
 11
35.55454788123654
 21
-80.26272740785906
 31
0.0
  0
LINE
  5
2EB
330
70
100
AcDbEntity
  8
0
370
     9
100
AcDbLine
 10
35.55454788123654
 20
-80.26272740785906
 30
0.0
 11
35.50285614642947
 21
-80.36611087747322
 31
0.0
  0
LINE
  5
2EC
330
70
100
AcDbEntity
  8
0
370
     9
100
AcDbLine
 10
35.50285614642947
 20
-80.36611087747322
 30
0.0
 11
35.47701137451495
 21
-80.46949434708801
 31
0.0
  0
LINE
  5
2ED
330
70
100
AcDbEntity
  8
0
370
     9
100
AcDbLine
 10
35.47701137451495
 20
-80.46949434708801
 30
0.0
 11
35.42531963970787
 21
-80.59872258861668
 31
0.0
  0
LINE
  5
2EE
330
70
100
AcDbEntity
  8
0
370
     9
100
AcDbLine
 10
35.42531963970787
 20
-80.59872258861668
 30
0.0
 11
35.3736279049008
 21
-80.70210605823147
 31
0.0
  0
LINE
  5
2EF
330
70
100
AcDbEntity
  8
0
370
     9
100
AcDbLine
 10
35.3736279049008
 20
-80.70210605823147
 30
0.0
 11
35.34778094200823
 21
-80.80548952784564
 31
0.0
  0
LINE
  5
2F0
330
70
100
AcDbEntity
  8
0
370
     9
100
AcDbLine
 10
35.34778094200823
 20
-80.80548952784564
 30
0.0
 11
35.32193617009308
 21
-80.93471996035237
 31
0.0
  0
LINE
  5
2F1
330
70
100
AcDbEntity
  8
0
370
     9
100
AcDbLine
 10
35.32193617009308
 20
-80.93471996035237
 30
0.0
 11
35.29608920720083
 21
-81.03810123898911
 31
0.0
  0
LINE
  5
2F2
330
70
100
AcDbEntity
  8
0
370
     9
100
AcDbLine
 10
35.29608920720083
 20
-81.03810123898911
 30
0.0
 11
35.270244435286
 21
-81.16733167149583
 31
0.0
  0
LINE
  5
2F3
330
70
100
AcDbEntity
  8
0
370
     9
100
AcDbLine
 10
35.270244435286
 20
-81.16733167149583
 30
0.0
 11
35.24439747239407
 21
-81.27071514110999
 31
0.0
  0
LINE
  5
2F4
330
70
100
AcDbEntity
  8
0
370
     9
100
AcDbLine
 10
35.24439747239407
 20
-81.27071514110999
 30
0.0
 11
35.21855270047892
 21
-81.3999433826393
 31
0.0
  0
LINE
  5
2F5
330
70
100
AcDbEntity
  8
0
370
     9
100
AcDbLine
 10
35.21855270047892
 20
-81.3999433826393
 30
0.0
 11
35.19270573758635
 21
-81.50332685225347
 31
0.0
  0
LINE
  5
2F6
330
70
100
AcDbEntity
  8
0
370
     9
100
AcDbLine
 10
35.19270573758635
 20
-81.50332685225347
 30
0.0
 11
35.19270573758635
 21
-81.63255509378277
 31
0.0
  0
LINE
  5
2F7
330
70
100
AcDbEntity
  8
0
370
     9
100
AcDbLine
 10
35.19270573758635
 20
-81.63255509378277
 30
0.0
 11
35.16686096567184
 21
-81.86516899590365
 31
0.0
  0
LINE
  5
2F8
330
70
100
AcDbEntity
  8
0
370
     9
100
AcDbLine
 10
49.45960263458972
 20
-81.86516899590365
 30
0.0
 11
49.40790870880459
 21
-81.24486817821743
 31
0.0
  0
LINE
  5
2F9
330
70
100
AcDbEntity
  8
0
370
     9
100
AcDbLine
 10
49.40790870880459
 20
-81.24486817821743
 30
0.0
 11
49.30452523919043
 21
-80.65041432342376
 31
0.0
  0
LINE
  5
2FA
330
70
100
AcDbEntity
  8
0
370
     9
100
AcDbLine
 10
49.30452523919043
 20
-80.65041432342376
 30
0.0
 11
49.09775829996211
 21
-80.0559604686301
 31
0.0
  0
LINE
  5
2FB
330
70
100
AcDbEntity
  8
0
370
     9
100
AcDbLine
 10
49.09775829996211
 20
-80.0559604686301
 30
0.0
 11
48.81345704498897
 21
-79.48735357672901
 31
0.0
  0
LINE
  5
2FC
330
70
100
AcDbEntity
  8
0
370
     9
100
AcDbLine
 10
48.81345704498897
 20
-79.48735357672901
 30
0.0
 11
48.47745748227588
 21
-78.99628319155015
 31
0.0
  0
LINE
  5
2FD
330
70
100
AcDbEntity
  8
0
370
     9
100
AcDbLine
 10
48.47745748227588
 20
-78.99628319155015
 30
0.0
 11
47.96054451615928
 21
-78.37598237386391
 31
0.0
  0
LINE
  5
2FE
330
70
100
AcDbEntity
  8
0
370
     9
100
AcDbLine
 10
47.96054451615928
 20
-78.37598237386391
 30
0.0
 11
47.39193324230271
 21
-77.83322025387732
 31
0.0
  0
LINE
  5
2FF
330
70
100
AcDbEntity
  8
0
370
     9
100
AcDbLine
 10
47.39193324230271
 20
-77.83322025387732
 30
0.0
 11
46.79748157848647
 21
-77.31630290580589
 31
0.0
  0
LINE
  5
300
330
70
100
AcDbEntity
  8
0
370
     9
100
AcDbLine
 10
46.79748157848647
 20
-77.31630290580589
 30
0.0
 11
46.12549121697089
 21
-76.87692425543346
 31
0.0
  0
LINE
  5
301
330
70
100
AcDbEntity
  8
0
370
     9
100
AcDbLine
 10
46.12549121697089
 20
-76.87692425543346
 30
0.0
 11
45.42765170158534
 21
-76.48923733986876
 31
0.0
  0
LINE
  5
302
330
70
100
AcDbEntity
  8
0
370
     9
100
AcDbLine
 10
45.42765170158534
 20
-76.48923733986876
 30
0.0
 11
44.70396741428495
 21
-76.15324215911051
 31
0.0
  0
LINE
  5
303
330
70
100
AcDbEntity
  8
0
370
     9
100
AcDbLine
 10
44.70396741428495
 20
-76.15324215911051
 30
0.0
 11
43.95443835507005
 21
-75.92062825698961
 31
0.0
  0
LINE
  5
304
330
70
100
AcDbEntity
  8
0
370
     9
100
AcDbLine
 10
49.48544740650423
 20
-81.86516899590365
 30
0.0
 11
33.95210629319195
 21
-81.86516899590365
 31
0.0
  0
LINE
  5
305
330
70
100
AcDbEntity
  8
0
370
     9
100
AcDbLine
 10
33.95210629319195
 20
-81.86516899590365
 30
0.0
 11
49.48544740650423
 21
-81.86516899590365
 31
0.0
  0
LINE
  5
306
330
70
100
AcDbEntity
  8
0
370
     9
100
AcDbLine
 10
49.48544740650423
 20
-81.86516899590365
 30
0.0
 11
33.95210629319195
 21
-81.86516899590365
 31
0.0
  0
LINE
  5
307
330
70
100
AcDbEntity
  8
0
370
     9
100
AcDbLine
 10
45.63441864081461
 20
-81.86516899590365
 30
0.0
 11
45.47934562737047
 21
-80.8313364907382
 31
0.0
  0
LINE
  5
308
330
70
100
AcDbEntity
  8
0
370
     9
100
AcDbLine
 10
45.47934562737047
 20
-80.8313364907382
 30
0.0
 11
45.22088476235702
 21
-79.77165702267955
 31
0.0
  0
LINE
  5
309
330
70
100
AcDbEntity
  8
0
370
     9
100
AcDbLine
 10
45.22088476235702
 20
-79.77165702267955
 30
0.0
 11
44.91073435351391
 21
-78.76366928942862
 31
0.0
  0
LINE
  5
30A
330
70
100
AcDbEntity
  8
0
370
     9
100
AcDbLine
 10
44.91073435351391
 20
-78.76366928942862
 30
0.0
 11
44.49720485701178
 21
-77.78152851907025
 31
0.0
  0
LINE
  5
30B
330
70
100
AcDbEntity
  8
0
370
     9
100
AcDbLine
 10
44.49720485701178
 20
-77.78152851907025
 30
0.0
 11
44.00613228085454
 21
-76.82523252062638
 31
0.0
  0
LINE
  5
30C
330
70
100
AcDbEntity
  8
0
370
     9
100
AcDbLine
 10
44.00613228085454
 20
-76.82523252062638
 30
0.0
 11
43.43752538895345
 21
-75.92062825698961
 31
0.0
  0
LINE
  5
30D
330
70
100
AcDbEntity
  8
0
370
     9
100
AcDbLine
 10
46.38394770002919
 20
-81.86516899590365
 30
0.0
 11
46.20302553271539
 21
-81.01225646707396
 31
0.0
  0
LINE
  5
30E
330
70
100
AcDbEntity
  8
0
370
     9
100
AcDbLine
 10
46.20302553271539
 20
-81.01225646707396
 30
0.0
 11
45.94456904965741
 21
-80.18519090113683
 31
0.0
  0
LINE
  5
30F
330
70
100
AcDbEntity
  8
0
370
     9
100
AcDbLine
 10
45.94456904965741
 20
-80.18519090113683
 30
0.0
 11
45.6602634127288
 21
-79.38397010711485
 31
0.0
  0
LINE
  5
310
330
70
100
AcDbEntity
  8
0
370
     9
100
AcDbLine
 10
45.6602634127288
 20
-79.38397010711485
 30
0.0
 11
45.29842346005667
 21
-78.60859408500738
 31
0.0
  0
LINE
  5
311
330
70
100
AcDbEntity
  8
0
370
     9
100
AcDbLine
 10
45.29842346005667
 20
-78.60859408500738
 30
0.0
 11
44.88488958159876
 21
-77.83322025387732
 31
0.0
  0
LINE
  5
312
330
70
100
AcDbEntity
  8
0
370
     9
100
AcDbLine
 10
44.88488958159876
 20
-77.83322025387732
 30
0.0
 11
44.3938213873973
 21
-77.10953596657694
 31
0.0
  0
LINE
  5
313
330
70
100
AcDbEntity
  8
0
370
     9
100
AcDbLine
 10
44.3938213873973
 20
-77.10953596657694
 30
0.0
 11
43.87690403932587
 21
-76.43754560506105
 31
0.0
  0
LINE
  5
314
330
70
100
AcDbEntity
  8
0
370
     9
100
AcDbLine
 10
47.05593806154509
 20
-81.86516899590365
 30
0.0
 11
46.79748157848647
 21
-80.90887299745979
 31
0.0
  0
LINE
  5
315
330
70
100
AcDbEntity
  8
0
370
     9
100
AcDbLine
 10
46.79748157848647
 20
-80.90887299745979
 30
0.0
 11
46.48733116964399
 21
-79.97842396190851
 31
0.0
  0
LINE
  5
316
330
70
100
AcDbEntity
  8
0
370
     9
100
AcDbLine
 10
46.48733116964399
 20
-79.97842396190851
 30
0.0
 11
46.07379729118608
 21
-79.09966447018688
 31
0.0
  0
LINE
  5
317
330
70
100
AcDbEntity
  8
0
370
     9
100
AcDbLine
 10
46.07379729118608
 20
-79.09966447018688
 30
0.0
 11
45.5827290969843
 21
-78.2467541323346
 31
0.0
  0
LINE
  5
318
330
70
100
AcDbEntity
  8
0
370
     9
100
AcDbLine
 10
45.5827290969843
 20
-78.2467541323346
 30
0.0
 11
45.03996697699837
 21
-77.41968637542005
 31
0.0
  0
LINE
  5
319
330
70
100
AcDbEntity
  8
0
370
     9
100
AcDbLine
 10
45.03996697699837
 20
-77.41968637542005
 30
0.0
 11
44.41966615931246
 21
-76.67015731620451
 31
0.0
  0
LINE
  5
31A
330
70
100
AcDbEntity
  8
0
370
     9
100
AcDbLine
 10
47.70208365114583
 20
-81.86516899590365
 30
0.0
 11
47.49531671191687
 21
-81.08979297379619
 31
0.0
  0
LINE
  5
31B
330
70
100
AcDbEntity
  8
0
370
     9
100
AcDbLine
 10
47.49531671191687
 20
-81.08979297379619
 30
0.0
 11
47.23686022885889
 21
-80.31441914266613
 31
0.0
  0
LINE
  5
31C
330
70
100
AcDbEntity
  8
0
370
     9
100
AcDbLine
 10
47.23686022885889
 20
-80.31441914266613
 30
0.0
 11
46.90086504810127
 21
-79.56489008345123
 31
0.0
  0
LINE
  5
31D
330
70
100
AcDbEntity
  8
0
370
     9
100
AcDbLine
 10
46.90086504810127
 20
-79.56489008345123
 30
0.0
 11
46.51317594155851
 21
-78.84120798712825
 31
0.0
  0
LINE
  5
31E
330
70
100
AcDbEntity
  8
0
370
     9
100
AcDbLine
 10
46.51317594155851
 20
-78.84120798712825
 30
0.0
 11
46.04795251927156
 21
-78.16921543463495
 31
0.0
  0
LINE
  5
31F
330
70
100
AcDbEntity
  8
0
370
     9
100
AcDbLine
 10
46.04795251927156
 20
-78.16921543463495
 30
0.0
 11
45.53103517120013
 21
-77.52306984503421
 31
0.0
  0
LINE
  5
320
330
70
100
AcDbEntity
  8
0
370
     9
100
AcDbLine
 10
45.53103517120013
 20
-77.52306984503421
 30
0.0
 11
44.96242827929839
 21
-76.92861599024054
 31
0.0
  0
LINE
  5
321
330
70
100
AcDbEntity
  8
0
370
     9
100
AcDbLine
 10
43.95443835507005
 20
-75.89478348507511
 30
0.0
 11
44.34212746161281
 21
-76.17908693102565
 31
0.0
  0
LINE
  5
322
330
70
100
AcDbEntity
  8
0
370
     9
100
AcDbLine
 10
44.34212746161281
 20
-76.17908693102565
 30
0.0
 11
44.52304962892662
 21
-76.33416213544689
 31
0.0
  0
LINE
  5
323
330
70
100
AcDbEntity
  8
0
370
     9
100
AcDbLine
 10
44.52304962892662
 20
-76.33416213544689
 30
0.0
 11
44.70396741428495
 21
-76.48923733986876
 31
0.0
  0
LINE
  5
324
330
70
100
AcDbEntity
  8
0
370
     9
100
AcDbLine
 10
44.70396741428495
 20
-76.48923733986876
 30
0.0
 11
44.91073435351391
 21
-76.64431254429
 31
0.0
  0
LINE
  5
325
330
70
100
AcDbEntity
  8
0
370
     9
100
AcDbLine
 10
44.91073435351391
 20
-76.64431254429
 30
0.0
 11
45.09165652082803
 21
-76.79938774871124
 31
0.0
  0
LINE
  5
326
330
70
100
AcDbEntity
  8
0
370
     9
100
AcDbLine
 10
45.09165652082803
 20
-76.79938774871124
 30
0.0
 11
45.27257868814151
 21
-76.95446295313312
 31
0.0
  0
LINE
  5
327
330
70
100
AcDbEntity
  8
0
370
     9
100
AcDbLine
 10
45.27257868814151
 20
-76.95446295313312
 30
0.0
 11
45.45349647350049
 21
-77.10953596657694
 31
0.0
  0
LINE
  5
328
330
70
100
AcDbEntity
  8
0
370
     9
100
AcDbLine
 10
45.45349647350049
 20
-77.10953596657694
 30
0.0
 11
45.63441864081461
 21
-77.26461117099818
 31
0.0
  0
LINE
  5
329
330
70
100
AcDbEntity
  8
0
370
     9
100
AcDbLine
 10
45.63441864081461
 20
-77.26461117099818
 30
0.0
 11
45.8153408081281
 21
-77.41968637542005
 31
0.0
  0
LINE
  5
32A
330
70
100
AcDbEntity
  8
0
370
     9
100
AcDbLine
 10
45.8153408081281
 20
-77.41968637542005
 30
0.0
 11
45.99625859348708
 21
-77.57476157984129
 31
0.0
  0
LINE
  5
32B
330
70
100
AcDbEntity
  8
0
370
     9
100
AcDbLine
 10
45.99625859348708
 20
-77.57476157984129
 30
0.0
 11
46.07379729118608
 21
-77.65230027754094
 31
0.0
  0
LINE
  5
32C
330
70
100
AcDbEntity
  8
0
370
     9
100
AcDbLine
 10
46.07379729118608
 20
-77.65230027754094
 30
0.0
 11
46.15133598888572
 21
-77.75568155617768
 31
0.0
  0
LINE
  5
32D
330
70
100
AcDbEntity
  8
0
370
     9
100
AcDbLine
 10
46.15133598888572
 20
-77.75568155617768
 30
0.0
 11
46.25471945850052
 21
-77.83322025387732
 31
0.0
  0
LINE
  5
32E
330
70
100
AcDbEntity
  8
0
370
     9
100
AcDbLine
 10
46.25471945850052
 20
-77.83322025387732
 30
0.0
 11
46.33225815619953
 21
-77.91075676059955
 31
0.0
  0
LINE
  5
32F
330
70
100
AcDbEntity
  8
0
370
     9
100
AcDbLine
 10
46.33225815619953
 20
-77.91075676059955
 30
0.0
 11
46.40979247194435
 21
-77.98829545829857
 31
0.0
  0
LINE
  5
330
330
70
100
AcDbEntity
  8
0
370
     9
100
AcDbLine
 10
46.40979247194435
 20
-77.98829545829857
 30
0.0
 11
46.48733116964399
 21
-78.09167892791336
 31
0.0
  0
LINE
  5
331
330
70
100
AcDbEntity
  8
0
370
     9
100
AcDbLine
 10
46.48733116964399
 20
-78.09167892791336
 30
0.0
 11
46.56486986734299
 21
-78.16921543463495
 31
0.0
  0
LINE
  5
332
330
70
100
AcDbEntity
  8
0
370
     9
100
AcDbLine
 10
46.56486986734299
 20
-78.16921543463495
 30
0.0
 11
46.64240418308781
 21
-78.27259890424975
 31
0.0
  0
LINE
  5
333
330
70
100
AcDbEntity
  8
0
370
     9
100
AcDbLine
 10
46.64240418308781
 20
-78.27259890424975
 30
0.0
 11
46.71994288078778
 21
-78.35013760194875
 31
0.0
  0
LINE
  5
334
330
70
100
AcDbEntity
  8
0
370
     9
100
AcDbLine
 10
46.71994288078778
 20
-78.35013760194875
 30
0.0
 11
46.79748157848647
 21
-78.45351888058551
 31
0.0
  0
LINE
  5
335
330
70
100
AcDbEntity
  8
0
370
     9
100
AcDbLine
 10
46.79748157848647
 20
-78.45351888058551
 30
0.0
 11
46.87502027618611
 21
-78.53105757828514
 31
0.0
  0
LINE
  5
336
330
70
100
AcDbEntity
  8
0
370
     9
100
AcDbLine
 10
46.87502027618611
 20
-78.53105757828514
 30
0.0
 11
46.95255459193093
 21
-78.63444104789995
 31
0.0
  0
LINE
  5
337
330
70
100
AcDbEntity
  8
0
370
     9
100
AcDbLine
 10
46.95255459193093
 20
-78.63444104789995
 30
0.0
 11
47.00424851771543
 21
-78.71197755462154
 31
0.0
  0
LINE
  5
338
330
70
100
AcDbEntity
  8
0
370
     9
100
AcDbLine
 10
47.00424851771543
 20
-78.71197755462154
 30
0.0
 11
47.08178721541506
 21
-78.8153610242357
 31
0.0
  0
LINE
  5
339
330
70
100
AcDbEntity
  8
0
370
     9
100
AcDbLine
 10
47.08178721541506
 20
-78.8153610242357
 30
0.0
 11
47.15932153115924
 21
-78.91874449385049
 31
0.0
  0
LINE
  5
33A
330
70
100
AcDbEntity
  8
0
370
     9
100
AcDbLine
 10
47.15932153115924
 20
-78.91874449385049
 30
0.0
 11
47.21101545694438
 21
-78.99628319155015
 31
0.0
  0
LINE
  5
33B
330
70
100
AcDbEntity
  8
0
370
     9
100
AcDbLine
 10
47.21101545694438
 20
-78.99628319155015
 30
0.0
 11
47.28854977268856
 21
-79.09966447018688
 31
0.0
  0
LINE
  5
33C
330
70
100
AcDbEntity
  8
0
370
     9
100
AcDbLine
 10
47.28854977268856
 20
-79.09966447018688
 30
0.0
 11
47.34024369847305
 21
-79.20304793980104
 31
0.0
  0
LINE
  5
33D
330
70
100
AcDbEntity
  8
0
370
     9
100
AcDbLine
 10
47.34024369847305
 20
-79.20304793980104
 30
0.0
 11
47.4177823961727
 21
-79.30643140941519
 31
0.0
  0
LINE
  5
33E
330
70
100
AcDbEntity
  8
0
370
     9
100
AcDbLine
 10
47.4177823961727
 20
-79.30643140941519
 30
0.0
 11
47.46947194000236
 21
-79.40981487902935
 31
0.0
  0
LINE
  5
33F
330
70
100
AcDbEntity
  8
0
370
     9
100
AcDbLine
 10
47.46947194000236
 20
-79.40981487902935
 30
0.0
 11
47.52116586578718
 21
-79.51319834864415
 31
0.0
  0
LINE
  5
340
330
70
100
AcDbEntity
  8
0
370
     9
100
AcDbLine
 10
47.52116586578718
 20
-79.51319834864415
 30
0.0
 11
47.57285540961652
 21
-79.61658181825831
 31
0.0
  0
LINE
  5
341
330
70
100
AcDbEntity
  8
0
370
     9
100
AcDbLine
 10
47.57285540961652
 20
-79.61658181825831
 30
0.0
 11
47.62454933540165
 21
-79.71996528787247
 31
0.0
  0
LINE
  5
342
330
70
100
AcDbEntity
  8
0
370
     9
100
AcDbLine
 10
47.62454933540165
 20
-79.71996528787247
 30
0.0
 11
47.67623887923131
 21
-79.82334875748726
 31
0.0
  0
LINE
  5
343
330
70
100
AcDbEntity
  8
0
370
     9
100
AcDbLine
 10
47.67623887923131
 20
-79.82334875748726
 30
0.0
 11
47.72793280501581
 21
-79.92673222710142
 31
0.0
  0
LINE
  5
344
330
70
100
AcDbEntity
  8
0
370
     9
100
AcDbLine
 10
47.72793280501581
 20
-79.92673222710142
 30
0.0
 11
47.77962234884547
 21
-80.03011569671558
 31
0.0
  0
LINE
  5
345
330
70
100
AcDbEntity
  8
0
370
     9
100
AcDbLine
 10
47.77962234884547
 20
-80.03011569671558
 30
0.0
 11
47.83131189267513
 21
-80.1593439382449
 31
0.0
  0
LINE
  5
346
330
70
100
AcDbEntity
  8
0
370
     9
100
AcDbLine
 10
47.83131189267513
 20
-80.1593439382449
 30
0.0
 11
47.88300581845963
 21
-80.26272740785906
 31
0.0
  0
LINE
  5
347
330
70
100
AcDbEntity
  8
0
370
     9
100
AcDbLine
 10
47.88300581845963
 20
-80.26272740785906
 30
0.0
 11
47.93469536228929
 21
-80.36611087747322
 31
0.0
  0
LINE
  5
348
330
70
100
AcDbEntity
  8
0
370
     9
100
AcDbLine
 10
47.93469536228929
 20
-80.36611087747322
 30
0.0
 11
47.98638928807379
 21
-80.46949434708801
 31
0.0
  0
LINE
  5
349
330
70
100
AcDbEntity
  8
0
370
     9
100
AcDbLine
 10
47.98638928807379
 20
-80.46949434708801
 30
0.0
 11
48.01223405998895
 21
-80.59872258861668
 31
0.0
  0
LINE
  5
34A
330
70
100
AcDbEntity
  8
0
370
     9
100
AcDbLine
 10
48.01223405998895
 20
-80.59872258861668
 30
0.0
 11
48.06392798577376
 21
-80.70210605823147
 31
0.0
  0
LINE
  5
34B
330
70
100
AcDbEntity
  8
0
370
     9
100
AcDbLine
 10
48.06392798577376
 20
-80.70210605823147
 30
0.0
 11
48.08977275768859
 21
-80.80548952784564
 31
0.0
  0
LINE
  5
34C
330
70
100
AcDbEntity
  8
0
370
     9
100
AcDbLine
 10
48.08977275768859
 20
-80.80548952784564
 30
0.0
 11
48.11561752960343
 21
-80.93471996035237
 31
0.0
  0
LINE
  5
34D
330
70
100
AcDbEntity
  8
0
370
     9
100
AcDbLine
 10
48.11561752960343
 20
-80.93471996035237
 30
0.0
 11
48.14146230151826
 21
-81.03810123898911
 31
0.0
  0
LINE
  5
34E
330
70
100
AcDbEntity
  8
0
370
     9
100
AcDbLine
 10
48.14146230151826
 20
-81.03810123898911
 30
0.0
 11
48.16731145538824
 21
-81.16733167149583
 31
0.0
  0
LINE
  5
34F
330
70
100
AcDbEntity
  8
0
370
     9
100
AcDbLine
 10
48.16731145538824
 20
-81.16733167149583
 30
0.0
 11
48.19315622730275
 21
-81.27071514110999
 31
0.0
  0
LINE
  5
350
330
70
100
AcDbEntity
  8
0
370
     9
100
AcDbLine
 10
48.19315622730275
 20
-81.27071514110999
 30
0.0
 11
48.21900099921727
 21
-81.3999433826393
 31
0.0
  0
LINE
  5
351
330
70
100
AcDbEntity
  8
0
370
     9
100
AcDbLine
 10
48.21900099921727
 20
-81.3999433826393
 30
0.0
 11
48.24484577113242
 21
-81.50332685225347
 31
0.0
  0
LINE
  5
352
330
70
100
AcDbEntity
  8
0
370
     9
100
AcDbLine
 10
48.24484577113242
 20
-81.50332685225347
 30
0.0
 11
48.24484577113242
 21
-81.63255509378277
 31
0.0
  0
LINE
  5
353
330
70
100
AcDbEntity
  8
0
370
     9
100
AcDbLine
 10
48.24484577113242
 20
-81.63255509378277
 30
0.0
 11
48.27069492500239
 21
-81.86516899590365
 31
0.0
  0
MTEXT
  5
35E
330
70
100
AcDbEntity
  8
0
100
AcDbMText
 10
36.74608103366906
 20
-95.61011025783058
 30
0.0
 40
3.2
 41
347.1191075550286
 46
0.0
 71
     1
 72
     5
  1
150mm
 73
     1
 44
1.0
1001
ACAD
1000
ACAD_MTEXT_COLUMN_INFO_BEGIN
1070
    75
1070
     2
1070
    79
1070
     0
1070
    76
1070
     1
1070
    78
1070
     0
1070
    48
1040
347.1191075550286
1070
    49
1040
16.0
1070
    50
1070
     1
1040
0.0
1000
ACAD_MTEXT_COLUMN_INFO_END
  0
MTEXT
  5
366
330
70
100
AcDbEntity
  8
0
100
AcDbMText
 10
53.37787659557604
 20
-45.79221100034319
 30
0.0
 40
3.2
 41
347.1191075550286
 46
0.0
 71
     1
 72
     5
  1
2.250mm
 73
     1
 44
1.0
1001
ACAD
1000
ACAD_MTEXT_COLUMN_INFO_BEGIN
1070
    75
1070
     2
1070
    79
1070
     0
1070
    76
1070
     1
1070
    78
1070
     0
1070
    48
1040
347.1191075550286
1070
    49
1040
16.0
1070
    50
1070
     1
1040
0.0
1000
ACAD_MTEXT_COLUMN_INFO_END
  0
MTEXT
  5
36E
330
70
100
AcDbEntity
  8
0
100
AcDbMText
 10
37.83553517761881
 20
-1.962299153398042
 30
0.0
 40
3.2
 41
347.1191075550286
 46
0.0
 71
     1
 72
     5
  1
70mm
 73
     1
 44
1.0
1001
ACAD
1000
ACAD_MTEXT_COLUMN_INFO_BEGIN
1070
    75
1070
     2
1070
    79
1070
     0
1070
    76
1070
     1
1070
    78
1070
     0
1070
    48
1040
347.1191075550286
1070
    49
1040
16.0
1070
    50
1070
     1
1040
0.0
1000
ACAD_MTEXT_COLUMN_INFO_END
  0
ENDSEC
  0
SECTION
  2
OBJECTS
  0
DICTIONARY
  5
C
330
0
100
AcDbDictionary
281
     1
  3
ACAD_CIP_PREVIOUS_PRODUCT_INFO
350
1D9
  3
ACAD_COLOR
350
63
  3
ACAD_DETAILVIEWSTYLE
350
6A
  3
ACAD_GROUP
350
D
  3
ACAD_LAYOUT
350
62
  3
ACAD_MATERIAL
350
10
  3
ACAD_MLEADERSTYLE
350
66
  3
ACAD_MLINESTYLE
350
5F
  3
ACAD_PLOTSETTINGS
350
61
  3
ACAD_PLOTSTYLENAME
350
E
  3
ACAD_SCALELIST
350
42
  3
ACAD_SECTIONVIEWSTYLE
350
68
  3
ACAD_TABLESTYLE
350
64
  3
ACAD_VISUALSTYLE
350
29
  3
ACDB_RECOMPOSE_DATA
350
373
  3
AcDbVariableDictionary
350
1CF
  0
DICTIONARY
  5
355
330
2
100
AcDbDictionary
280
     1
281
     1
  3
ACAD_LAYERSTATES
360
356
  0
DICTIONARY
  5
1DA
330
70
100
AcDbDictionary
280
     1
281
     1
  3
ACAD_SORTENTS
360
1DB
  0
XRECORD
  5
1D9
102
{ACAD_REACTORS
330
C
102
}
330
C
100
AcDbXrecord
280
     1
300
ACD
300
2022
300

  0
DICTIONARY
  5
63
102
{ACAD_REACTORS
330
C
102
}
330
C
100
AcDbDictionary
281
     1
  0
DICTIONARY
  5
6A
102
{ACAD_REACTORS
330
C
102
}
330
C
100
AcDbDictionary
281
     1
  3
Imperial24
350
6B
  0
DICTIONARY
  5
D
102
{ACAD_REACTORS
330
C
102
}
330
C
100
AcDbDictionary
281
     1
  0
DICTIONARY
  5
62
102
{ACAD_REACTORS
330
C
102
}
330
C
100
AcDbDictionary
281
     1
  3
Layout1
350
6F
  3
Layout2
350
77
  3
Model
350
73
  0
DICTIONARY
  5
10
102
{ACAD_REACTORS
330
C
102
}
330
C
100
AcDbDictionary
281
     1
  3
ByBlock
350
19
  3
ByLayer
350
11
  3
Global
350
21
  0
DICTIONARY
  5
66
102
{ACAD_REACTORS
330
C
102
}
330
C
100
AcDbDictionary
281
     1
  3
Standard
350
67
  0
DICTIONARY
  5
5F
102
{ACAD_REACTORS
330
C
102
}
330
C
100
AcDbDictionary
281
     1
  3
Standard
350
60
  0
DICTIONARY
  5
61
102
{ACAD_REACTORS
330
C
102
}
330
C
100
AcDbDictionary
281
     1
  0
ACDBDICTIONARYWDFLT
  5
E
102
{ACAD_REACTORS
330
C
102
}
330
C
100
AcDbDictionary
281
     1
  3
Normal
350
F
100
AcDbDictionaryWithDefault
340
F
  0
DICTIONARY
  5
42
102
{ACAD_REACTORS
330
C
102
}
330
C
100
AcDbDictionary
281
     1
  3
A0
350
43
  3
A1
350
44
  3
A2
350
45
  3
A3
350
46
  3
A4
350
47
  3
A5
350
48
  3
A6
350
49
  3
A7
350
4A
  3
A8
350
4B
  3
A9
350
4C
  3
B0
350
4D
  3
B1
350
4E
  3
B2
350
4F
  3
B3
350
50
  3
B4
350
51
  3
B5
350
52
  3
B6
350
53
  0
DICTIONARY
  5
68
102
{ACAD_REACTORS
330
C
102
}
330
C
100
AcDbDictionary
281
     1
  3
Imperial24
350
69
  0
DICTIONARY
  5
64
102
{ACAD_REACTORS
330
C
102
}
330
C
100
AcDbDictionary
281
     1
  3
Standard
350
65
  0
DICTIONARY
  5
29
102
{ACAD_REACTORS
330
C
102
}
330
C
100
AcDbDictionary
281
     1
  3
2dWireframe
350
2F
  3
Basic
350
2E
  3
Brighten
350
35
  3
ColorChange
350
39
  3
Conceptual
350
32
  3
Dim
350
34
  3
EdgeColorOff
350
41
  3
Facepattern
350
38
  3
Flat
350
2A
  3
FlatWithEdges
350
2B
  3
Gouraud
350
2C
  3
GouraudWithEdges
350
2D
  3
Hidden
350
31
  3
JitterOff
350
3F
  3
Linepattern
350
37
  3
OverhangOff
350
40
  3
Realistic
350
33
  3
Shaded
350
3E
  3
Shaded with edges
350
3D
  3
Shades of Gray
350
3A
  3
Sketchy
350
3B
  3
Thicken
350
36
  3
Wireframe
350
30
  3
X-Ray
350
3C
  0
XRECORD
  5
373
102
{ACAD_REACTORS
330
C
102
}
330
C
100
AcDbXrecord
280
     1
 90
        1
330
65
330
35E
330
366
330
36E
  0
DICTIONARY
  5
1CF
102
{ACAD_REACTORS
330
C
102
}
330
C
100
AcDbDictionary
281
     1
  3
CANNOSCALE
350
1D4
  3
CMLEADERSTYLE
350
1D1
  3
CTABLESTYLE
350
1D0
  3
CVIEWDETAILSTYLE
350
1D2
  3
CVIEWSECTIONSTYLE
350
1D3
  0
DICTIONARY
  5
356
102
{ACAD_REACTORS
330
355
102
}
330
355
100
AcDbDictionary
281
     1
  0
SORTENTSTABLE
  5
1DB
102
{ACAD_REACTORS
330
1DA
102
}
330
1DA
100
AcDbSortentsTable
330
70
331
81
  5
88
331
82
  5
89
331
83
  5
8A
331
84
  5
8B
331
85
  5
8C
331
86
  5
8D
331
87
  5
8E
331
88
  5
8F
331
89
  5
90
331
8A
  5
91
331
8B
  5
92
331
8C
  5
93
331
8D
  5
94
331
8E
  5
95
331
8F
  5
96
331
90
  5
97
331
91
  5
98
331
92
  5
99
331
93
  5
9A
331
94
  5
9B
331
95
  5
9C
331
96
  5
9D
331
97
  5
9E
331
98
  5
9F
331
99
  5
A0
331
9A
  5
A1
331
9B
  5
A2
331
9C
  5
A3
331
9D
  5
A4
331
9E
  5
A5
331
9F
  5
A6
331
A0
  5
A7
331
A1
  5
A8
331
A2
  5
A9
331
A3
  5
AA
331
A4
  5
AB
331
A5
  5
AC
331
A6
  5
AD
331
A7
  5
AE
331
A8
  5
AF
331
A9
  5
B0
331
AA
  5
B1
331
AB
  5
B2
331
AC
  5
B3
331
AD
  5
B4
331
AE
  5
B5
331
AF
  5
B6
331
B0
  5
B7
331
B1
  5
B8
331
B2
  5
B9
331
B3
  5
BA
331
B4
  5
BB
331
B5
  5
BC
331
B6
  5
BD
331
B7
  5
BE
331
B8
  5
BF
331
B9
  5
C0
331
BA
  5
C1
331
BB
  5
C2
331
BC
  5
C3
331
BD
  5
C4
331
BE
  5
C5
331
BF
  5
C6
331
C0
  5
C7
331
C1
  5
C8
331
C2
  5
C9
331
C3
  5
CA
331
C4
  5
CB
331
C5
  5
CC
331
C6
  5
CD
331
C7
  5
CE
331
C8
  5
CF
331
C9
  5
D0
331
CA
  5
D1
331
CB
  5
D2
331
CC
  5
D3
331
CD
  5
D4
331
CE
  5
D5
331
CF
  5
D6
331
D0
  5
D7
331
D1
  5
D8
331
D2
  5
D9
331
D3
  5
DA
331
D4
  5
DB
331
D5
  5
DC
331
D6
  5
DD
331
D7
  5
DE
331
D8
  5
DF
331
D9
  5
E0
331
DA
  5
E1
331
DB
  5
E2
331
DC
  5
E3
331
DD
  5
E4
331
DE
  5
E5
331
DF
  5
E6
331
E0
  5
E7
331
E1
  5
E8
331
E2
  5
E9
331
E3
  5
EA
331
E4
  5
EB
331
E5
  5
EC
331
E6
  5
ED
331
E7
  5
EE
331
E8
  5
EF
331
E9
  5
F0
331
EA
  5
F1
331
EB
  5
F2
331
EC
  5
F3
331
ED
  5
F4
331
EE
  5
F5
331
EF
  5
F6
331
F0
  5
F7
331
F1
  5
F8
331
F2
  5
F9
331
F3
  5
FA
331
F4
  5
FB
331
F5
  5
FC
331
F6
  5
FD
331
F7
  5
FE
331
F8
  5
106
331
F9
  5
108
331
FA
  5
109
331
FB
  5
10A
331
FC
  5
10B
331
FD
  5
10E
331
FE
  5
10F
331
106
  5
17A
331
108
  5
17F
331
109
  5
180
331
10A
  5
181
331
10B
  5
182
331
10E
  5
197
331
10F
  5
198
331
110
  5
1DC
331
116
  5
22A
331
117
  5
22B
331
118
  5
22C
331
119
  5
22D
331
11A
  5
22E
331
11B
  5
22F
331
11C
  5
230
331
11D
  5
231
331
11E
  5
232
331
11F
  5
233
331
120
  5
234
331
121
  5
235
331
122
  5
236
331
123
  5
237
331
124
  5
238
331
125
  5
239
331
126
  5
23A
331
127
  5
23B
331
128
  5
23C
331
129
  5
23D
331
12A
  5
23E
331
12B
  5
23F
331
12C
  5
240
331
12D
  5
241
331
12E
  5
242
331
12F
  5
243
331
130
  5
244
331
131
  5
245
331
132
  5
246
331
133
  5
247
331
134
  5
248
331
135
  5
249
331
136
  5
24A
331
137
  5
24B
331
138
  5
24C
331
139
  5
24D
331
13A
  5
24E
331
13B
  5
24F
331
13C
  5
250
331
13D
  5
251
331
13E
  5
252
331
13F
  5
253
331
140
  5
254
331
141
  5
255
331
142
  5
256
331
143
  5
257
331
144
  5
258
331
145
  5
259
331
146
  5
25A
331
147
  5
25B
331
148
  5
25C
331
149
  5
25D
331
14A
  5
25E
331
14B
  5
25F
331
14C
  5
260
331
14D
  5
261
331
14E
  5
262
331
14F
  5
263
331
150
  5
264
331
151
  5
265
331
152
  5
266
331
153
  5
267
331
154
  5
268
331
155
  5
269
331
156
  5
26A
331
157
  5
26B
331
158
  5
26C
331
159
  5
26D
331
15A
  5
26E
331
15B
  5
26F
331
15C
  5
270
331
15D
  5
271
331
15E
  5
272
331
15F
  5
273
331
160
  5
274
331
161
  5
275
331
162
  5
276
331
163
  5
277
331
164
  5
278
331
165
  5
279
331
166
  5
27A
331
167
  5
27B
331
168
  5
27C
331
169
  5
27D
331
16A
  5
27E
331
16B
  5
27F
331
16C
  5
280
331
16D
  5
281
331
16E
  5
282
331
16F
  5
283
331
170
  5
284
331
171
  5
285
331
172
  5
286
331
173
  5
287
331
174
  5
288
331
175
  5
289
331
176
  5
28A
331
177
  5
28B
331
178
  5
28C
331
179
  5
28D
331
17A
  5
28E
331
17B
  5
28F
331
17C
  5
290
331
17D
  5
291
331
17E
  5
292
331
17F
  5
293
331
180
  5
294
331
181
  5
295
331
182
  5
296
331
183
  5
297
331
184
  5
298
331
185
  5
299
331
186
  5
29A
331
187
  5
29B
331
196
  5
351
331
197
  5
352
331
198
  5
353
331
1DC
  5
81
331
1DD
  5
82
331
1DE
  5
83
331
1DF
  5
84
331
1E0
  5
85
331
1E1
  5
86
331
1E2
  5
87
331
1E3
  5
110
331
1E4
  5
116
331
1E5
  5
117
331
1E6
  5
118
331
1E7
  5
119
331
1E8
  5
11A
331
1E9
  5
11B
331
1EA
  5
11C
331
1EB
  5
11D
331
1EC
  5
11E
331
1ED
  5
11F
331
1EE
  5
120
331
1EF
  5
121
331
1F0
  5
122
331
1F1
  5
123
331
1F2
  5
124
331
1F3
  5
125
331
1F4
  5
126
331
1F5
  5
127
331
1F6
  5
128
331
1F7
  5
129
331
1F8
  5
12A
331
1F9
  5
12B
331
1FA
  5
12C
331
1FB
  5
12D
331
1FC
  5
12E
331
1FD
  5
12F
331
1FE
  5
130
331
1FF
  5
131
331
200
  5
132
331
201
  5
133
331
202
  5
134
331
203
  5
135
331
204
  5
136
331
205
  5
137
331
206
  5
138
331
207
  5
139
331
208
  5
13A
331
209
  5
13B
331
20A
  5
13C
331
20B
  5
13D
331
20C
  5
13E
331
20D
  5
13F
331
20E
  5
140
331
20F
  5
141
331
210
  5
142
331
211
  5
143
331
212
  5
144
331
213
  5
145
331
214
  5
146
331
215
  5
147
331
216
  5
148
331
217
  5
149
331
218
  5
14A
331
219
  5
14B
331
21A
  5
14C
331
21B
  5
14D
331
21C
  5
14E
331
21D
  5
14F
331
21E
  5
150
331
21F
  5
151
331
220
  5
152
331
221
  5
153
331
222
  5
154
331
223
  5
155
331
224
  5
156
331
225
  5
157
331
226
  5
158
331
227
  5
159
331
228
  5
15A
331
229
  5
15B
331
22A
  5
15C
331
22B
  5
15D
331
22C
  5
15E
331
22D
  5
15F
331
22E
  5
160
331
22F
  5
161
331
230
  5
162
331
231
  5
163
331
232
  5
164
331
233
  5
165
331
234
  5
166
331
235
  5
167
331
236
  5
168
331
237
  5
169
331
238
  5
16A
331
239
  5
16B
331
23A
  5
16C
331
23B
  5
16D
331
23C
  5
16E
331
23D
  5
16F
331
23E
  5
170
331
23F
  5
171
331
240
  5
172
331
241
  5
173
331
242
  5
174
331
243
  5
175
331
244
  5
176
331
245
  5
177
331
246
  5
178
331
247
  5
179
331
248
  5
17B
331
249
  5
17C
331
24A
  5
17D
331
24B
  5
17E
331
24C
  5
183
331
24D
  5
184
331
24E
  5
185
331
24F
  5
186
331
250
  5
187
331
251
  5
196
331
252
  5
1DD
331
253
  5
1DE
331
254
  5
1DF
331
255
  5
1E0
331
256
  5
1E1
331
257
  5
1E2
331
258
  5
1E3
331
259
  5
1E4
331
25A
  5
1E5
331
25B
  5
1E6
331
25C
  5
1E7
331
25D
  5
1E8
331
25E
  5
1E9
331
25F
  5
1EA
331
260
  5
1EB
331
261
  5
1EC
331
262
  5
1ED
331
263
  5
1EE
331
264
  5
1EF
331
265
  5
1F0
331
266
  5
1F1
331
267
  5
1F2
331
268
  5
1F3
331
269
  5
1F4
331
26A
  5
1F5
331
26B
  5
1F6
331
26C
  5
1F7
331
26D
  5
1F8
331
26E
  5
1F9
331
26F
  5
1FA
331
270
  5
1FB
331
271
  5
1FC
331
272
  5
1FD
331
273
  5
1FE
331
274
  5
1FF
331
275
  5
200
331
276
  5
201
331
277
  5
202
331
278
  5
203
331
279
  5
204
331
27A
  5
205
331
27B
  5
206
331
27C
  5
207
331
27D
  5
208
331
27E
  5
209
331
27F
  5
20A
331
280
  5
20B
331
281
  5
20C
331
282
  5
20D
331
283
  5
20E
331
284
  5
20F
331
285
  5
210
331
286
  5
211
331
287
  5
212
331
288
  5
213
331
289
  5
214
331
28A
  5
215
331
28B
  5
216
331
28C
  5
217
331
28D
  5
218
331
28E
  5
219
331
28F
  5
21A
331
290
  5
21B
331
291
  5
21C
331
292
  5
21D
331
293
  5
21E
331
294
  5
21F
331
295
  5
220
331
296
  5
221
331
297
  5
222
331
298
  5
223
331
299
  5
224
331
29A
  5
225
331
29B
  5
226
331
29C
  5
227
331
29D
  5
228
331
29E
  5
229
331
29F
  5
29C
331
2A0
  5
29D
331
2A1
  5
29E
331
2A2
  5
29F
331
2A3
  5
2A0
331
2A4
  5
2A1
331
2A5
  5
2A2
331
2A6
  5
2A3
331
2A7
  5
2A4
331
2A8
  5
2A5
331
2A9
  5
2A6
331
2AA
  5
2A7
331
2AB
  5
2A8
331
2AC
  5
2A9
331
2AD
  5
2AA
331
2AE
  5
2AB
331
2AF
  5
2AC
331
2B0
  5
2AD
331
2B1
  5
2AE
331
2B2
  5
2AF
331
2B3
  5
2B0
331
2B4
  5
2B1
331
2B5
  5
2B2
331
2B6
  5
2B3
331
2B7
  5
2B4
331
2B8
  5
2B5
331
2B9
  5
2B6
331
2BA
  5
2B7
331
2BB
  5
2B8
331
2BC
  5
2B9
331
2BD
  5
2BA
331
2BE
  5
2BB
331
2BF
  5
2BC
331
2C0
  5
2BD
331
2C1
  5
2BE
331
2C2
  5
2BF
331
2C3
  5
2C0
331
2C4
  5
2C1
331
2C5
  5
2C2
331
2C6
  5
2C3
331
2C7
  5
2C4
331
2C8
  5
2C5
331
2C9
  5
2C6
331
2CA
  5
2C7
331
2CB
  5
2C8
331
2CC
  5
2C9
331
2CD
  5
2CA
331
2CE
  5
2CB
331
2CF
  5
2CC
331
2D0
  5
2CD
331
2D1
  5
2CE
331
2D2
  5
2CF
331
2D3
  5
2D0
331
2D4
  5
2D1
331
2D5
  5
2D2
331
2D6
  5
2D3
331
2D7
  5
2D4
331
2D8
  5
2D5
331
2D9
  5
2D6
331
2DA
  5
2D7
331
2DB
  5
2D8
331
2DC
  5
2D9
331
2DD
  5
2DA
331
2DE
  5
2DB
331
2DF
  5
2DC
331
2E0
  5
2DD
331
2E1
  5
2DE
331
2E2
  5
2DF
331
2E3
  5
2E0
331
2E4
  5
2E1
331
2E5
  5
2E2
331
2E6
  5
2E3
331
2E7
  5
2E4
331
2E8
  5
2E5
331
2E9
  5
2E6
331
2EA
  5
2E7
331
2EB
  5
2E8
331
2EC
  5
2E9
331
2ED
  5
2EA
331
2EE
  5
2EB
331
2EF
  5
2EC
331
2F0
  5
2ED
331
2F1
  5
2EE
331
2F2
  5
2EF
331
2F3
  5
2F0
331
2F4
  5
2F1
331
2F5
  5
2F2
331
2F6
  5
2F3
331
2F7
  5
2F4
331
2F8
  5
2F5
331
2F9
  5
2F6
331
2FA
  5
2F7
331
2FB
  5
2F8
331
2FC
  5
2F9
331
2FD
  5
2FA
331
2FE
  5
2FB
331
2FF
  5
2FC
331
300
  5
2FD
331
301
  5
2FE
331
302
  5
2FF
331
303
  5
300
331
304
  5
301
331
305
  5
302
331
306
  5
303
331
307
  5
304
331
308
  5
305
331
309
  5
306
331
30A
  5
307
331
30B
  5
308
331
30C
  5
309
331
30D
  5
30A
331
30E
  5
30B
331
30F
  5
30C
331
310
  5
30D
331
311
  5
30E
331
312
  5
30F
331
313
  5
310
331
314
  5
311
331
315
  5
312
331
316
  5
313
331
317
  5
314
331
318
  5
315
331
319
  5
316
331
31A
  5
317
331
31B
  5
318
331
31C
  5
319
331
31D
  5
31A
331
31E
  5
31B
331
31F
  5
31C
331
320
  5
31D
331
321
  5
31E
331
322
  5
31F
331
323
  5
320
331
324
  5
321
331
325
  5
322
331
326
  5
323
331
327
  5
324
331
328
  5
325
331
329
  5
326
331
32A
  5
327
331
32B
  5
328
331
32C
  5
329
331
32D
  5
32A
331
32E
  5
32B
331
32F
  5
32C
331
330
  5
32D
331
331
  5
32E
331
332
  5
32F
331
333
  5
330
331
334
  5
331
331
335
  5
332
331
336
  5
333
331
337
  5
334
331
338
  5
335
331
339
  5
336
331
33A
  5
337
331
33B
  5
338
331
33C
  5
339
331
33D
  5
33A
331
33E
  5
33B
331
33F
  5
33C
331
340
  5
33D
331
341
  5
33E
331
342
  5
33F
331
343
  5
340
331
344
  5
341
331
345
  5
342
331
346
  5
343
331
347
  5
344
331
348
  5
345
331
349
  5
346
331
34A
  5
347
331
34B
  5
348
331
34C
  5
349
331
34D
  5
34A
331
34E
  5
34B
331
34F
  5
34C
331
350
  5
34D
331
351
  5
34E
331
352
  5
34F
331
353
  5
350
  0
ACDBDETAILVIEWSTYLE
  5
6B
102
{ACAD_XDICTIONARY
360
376
102
}
102
{ACAD_REACTORS
330
6A
102
}
330
6A
100
AcDbModelDocViewStyle
 70
     0
  3
Imperial24
290
     0
100
AcDbDetailViewStyle
 70
     0
 71
     0
 90
        3
 71
     1
340
55
 62
   256
 40
0.24
340
0
 62
   256
 40
0.24
300

 40
0.36
280
     3
 71
     2
340
5D
 90
       25
 62
   256
 71
     3
340
55
 62
   256
 40
0.24
 90
        1
 40
0.75
 90
        1
300
%<\AcVar ViewType \f "%tc1">% %<\AcVar ViewDetailId>%\PSCALE %<\AcVar ViewScale \f "%sn">%
 71
     4
340
5D
 90
       25
 62
   256
340
5D
 90
       25
 62
   256
280
     0
  0
LAYOUT
  5
6F
102
{ACAD_REACTORS
330
62
102
}
330
62
100
AcDbPlotSettings
  1

  2

  4

  6

 40
0.0
 41
0.0
 42
0.0
 43
0.0
 44
0.0
 45
0.0
 46
0.0
 47
0.0
 48
0.0
 49
0.0
140
0.0
141
0.0
142
1.0
143
1.0
 70
   688
 72
     0
 73
     0
 74
     5
  7

 75
    16
147
1.0
 76
     0
 77
     2
 78
   300
148
0.0
149
0.0
100
AcDbLayout
  1
Layout1
 70
     1
 71
     1
 10
0.0
 20
0.0
 11
12.0
 21
9.0
 12
0.0
 22
0.0
 32
0.0
 14
1.000000000000000E+20
 24
1.000000000000000E+20
 34
1.000000000000000E+20
 15
-1.000000000000000E+20
 25
-1.000000000000000E+20
 35
-1.000000000000000E+20
146
0.0
 13
0.0
 23
0.0
 33
0.0
 16
1.0
 26
0.0
 36
0.0
 17
0.0
 27
1.0
 37
0.0
 76
     0
330
6C
  0
LAYOUT
  5
77
102
{ACAD_REACTORS
330
62
102
}
330
62
100
AcDbPlotSettings
  1

  2

  4

  6

 40
0.0
 41
0.0
 42
0.0
 43
0.0
 44
0.0
 45
0.0
 46
0.0
 47
0.0
 48
0.0
 49
0.0
140
0.0
141
0.0
142
1.0
143
1.0
 70
   688
 72
     0
 73
     0
 74
     5
  7

 75
    16
147
1.0
 76
     0
 77
     2
 78
   300
148
0.0
149
0.0
100
AcDbLayout
  1
Layout2
 70
     1
 71
     2
 10
0.0
 20
0.0
 11
12.0
 21
9.0
 12
0.0
 22
0.0
 32
0.0
 14
0.0
 24
0.0
 34
0.0
 15
0.0
 25
0.0
 35
0.0
146
0.0
 13
0.0
 23
0.0
 33
0.0
 16
1.0
 26
0.0
 36
0.0
 17
0.0
 27
1.0
 37
0.0
 76
     0
330
74
  0
LAYOUT
  5
73
102
{ACAD_REACTORS
330
62
102
}
330
62
100
AcDbPlotSettings
  1

  2

  4

  6

 40
0.0
 41
0.0
 42
0.0
 43
0.0
 44
0.0
 45
0.0
 46
0.0
 47
0.0
 48
0.0
 49
0.0
140
0.0
141
0.0
142
1.0
143
1.0
 70
  1712
 72
     0
 73
     0
 74
     0
  7

 75
     0
147
1.0
 76
     0
 77
     2
 78
   300
148
0.0
149
0.0
100
AcDbLayout
  1
Model
 70
     1
 71
     0
 10
0.0
 20
0.0
 11
12.0
 21
9.0
 12
0.0
 22
0.0
 32
0.0
 14
0.0
 24
0.0
 34
0.0
 15
0.0
 25
0.0
 35
0.0
146
0.0
 13
0.0
 23
0.0
 33
0.0
 16
1.0
 26
0.0
 36
0.0
 17
0.0
 27
1.0
 37
0.0
 76
     0
330
70
331
57
  0
MATERIAL
  5
19
102
{ACAD_XDICTIONARY
360
1A
102
}
102
{ACAD_REACTORS
330
10
102
}
330
10
100
AcDbMaterial
  1
ByBlock
 72
     0
 43
0.0208333333333333
 43
0.0
 43
0.0
 43
0.0
 43
0.0
 43
0.0208333333333333
 43
0.0
 43
0.0
 43
0.0
 43
0.0
 43
1.0
 43
0.0
 43
0.0
 43
0.0
 43
0.0
 43
1.0
 77
     0
 47
0.0208333333333333
 47
0.0
 47
0.0
 47
0.0
 47
0.0
 47
0.0208333333333333
 47
0.0
 47
0.0
 47
0.0
 47
0.0
 47
1.0
 47
0.0
 47
0.0
 47
0.0
 47
0.0
 47
1.0
171
     0
 49
0.0208333333333333
 49
0.0
 49
0.0
 49
0.0
 49
0.0
 49
0.0208333333333333
 49
0.0
 49
0.0
 49
0.0
 49
0.0
 49
1.0
 49
0.0
 49
0.0
 49
0.0
 49
0.0
 49
1.0
175
     0
142
0.0208333333333333
142
0.0
142
0.0
142
0.0
142
0.0
142
0.0208333333333333
142
0.0
142
0.0
142
0.0
142
0.0
142
1.0
142
0.0
142
0.0
142
0.0
142
0.0
142
1.0
179
     0
144
0.0208333333333333
144
0.0
144
0.0
144
0.0
144
0.0
144
0.0208333333333333
144
0.0
144
0.0
144
0.0
144
0.0
144
1.0
144
0.0
144
0.0
144
0.0
144
0.0
144
1.0
147
0.0208333333333333
147
0.0
147
0.0
147
0.0
147
0.0
147
0.0208333333333333
147
0.0
147
0.0
147
0.0
147
0.0
147
1.0
147
0.0
147
0.0
147
0.0
147
0.0
147
1.0
  0
MATERIAL
  5
11
102
{ACAD_XDICTIONARY
360
12
102
}
102
{ACAD_REACTORS
330
10
102
}
330
10
100
AcDbMaterial
  1
ByLayer
 72
     0
 43
0.0208333333333333
 43
0.0
 43
0.0
 43
0.0
 43
0.0
 43
0.0208333333333333
 43
0.0
 43
0.0
 43
0.0
 43
0.0
 43
1.0
 43
0.0
 43
0.0
 43
0.0
 43
0.0
 43
1.0
 77
     0
 47
0.0208333333333333
 47
0.0
 47
0.0
 47
0.0
 47
0.0
 47
0.0208333333333333
 47
0.0
 47
0.0
 47
0.0
 47
0.0
 47
1.0
 47
0.0
 47
0.0
 47
0.0
 47
0.0
 47
1.0
171
     0
 49
0.0208333333333333
 49
0.0
 49
0.0
 49
0.0
 49
0.0
 49
0.0208333333333333
 49
0.0
 49
0.0
 49
0.0
 49
0.0
 49
1.0
 49
0.0
 49
0.0
 49
0.0
 49
0.0
 49
1.0
175
     0
142
0.0208333333333333
142
0.0
142
0.0
142
0.0
142
0.0
142
0.0208333333333333
142
0.0
142
0.0
142
0.0
142
0.0
142
1.0
142
0.0
142
0.0
142
0.0
142
0.0
142
1.0
179
     0
144
0.0208333333333333
144
0.0
144
0.0
144
0.0
144
0.0
144
0.0208333333333333
144
0.0
144
0.0
144
0.0
144
0.0
144
1.0
144
0.0
144
0.0
144
0.0
144
0.0
144
1.0
147
0.0208333333333333
147
0.0
147
0.0
147
0.0
147
0.0
147
0.0208333333333333
147
0.0
147
0.0
147
0.0
147
0.0
147
1.0
147
0.0
147
0.0
147
0.0
147
0.0
147
1.0
  0
MATERIAL
  5
21
102
{ACAD_XDICTIONARY
360
22
102
}
102
{ACAD_REACTORS
330
10
102
}
330
10
100
AcDbMaterial
  1
Global
 72
     0
 43
0.0208333333333333
 43
0.0
 43
0.0
 43
0.0
 43
0.0
 43
0.0208333333333333
 43
0.0
 43
0.0
 43
0.0
 43
0.0
 43
1.0
 43
0.0
 43
0.0
 43
0.0
 43
0.0
 43
1.0
 77
     0
 47
0.0208333333333333
 47
0.0
 47
0.0
 47
0.0
 47
0.0
 47
0.0208333333333333
 47
0.0
 47
0.0
 47
0.0
 47
0.0
 47
1.0
 47
0.0
 47
0.0
 47
0.0
 47
0.0
 47
1.0
171
     0
 49
0.0208333333333333
 49
0.0
 49
0.0
 49
0.0
 49
0.0
 49
0.0208333333333333
 49
0.0
 49
0.0
 49
0.0
 49
0.0
 49
1.0
 49
0.0
 49
0.0
 49
0.0
 49
0.0
 49
1.0
175
     0
142
0.0208333333333333
142
0.0
142
0.0
142
0.0
142
0.0
142
0.0208333333333333
142
0.0
142
0.0
142
0.0
142
0.0
142
1.0
142
0.0
142
0.0
142
0.0
142
0.0
142
1.0
179
     0
144
0.0208333333333333
144
0.0
144
0.0
144
0.0
144
0.0
144
0.0208333333333333
144
0.0
144
0.0
144
0.0
144
0.0
144
1.0
144
0.0
144
0.0
144
0.0
144
0.0
144
1.0
147
0.0208333333333333
147
0.0
147
0.0
147
0.0
147
0.0
147
0.0208333333333333
147
0.0
147
0.0
147
0.0
147
0.0
147
1.0
147
0.0
147
0.0
147
0.0
147
0.0
147
1.0
  0
MLEADERSTYLE
  5
67
102
{ACAD_REACTORS
330
66
102
}
330
66
100
AcDbMLeaderStyle
179
     2
170
     2
171
     1
172
     0
 90
        2
 40
0.0
 41
0.0
173
     1
 91
-1056964608
340
5B
 92
       -2
290
     1
 42
0.09
291
     1
 43
0.36
  3
Standard
 44
0.18
300

342
55
174
     1
178
     6
175
     1
176
     0
 93
-1056964608
 45
0.18
292
     0
297
     0
 46
0.18
 94
-1056964608
 47
1.0
 49
1.0
140
1.0
293
     1
141
0.0
294
     1
177
     0
142
1.0
295
     0
296
     0
143
0.125
271
     0
272
     9
273
     9
298
     1
  0
MLINESTYLE
  5
60
102
{ACAD_REACTORS
330
5F
102
}
330
5F
100
AcDbMlineStyle
  2
STANDARD
 70
     0
  3

 62
   256
 51
90.0
 52
90.0
 71
     2
 49
0.5
 62
   256
  6
BYLAYER
 49
-0.5
 62
   256
  6
BYLAYER
  0
ACDBPLACEHOLDER
  5
F
102
{ACAD_REACTORS
330
E
102
}
330
E
  0
SCALE
  5
43
102
{ACAD_REACTORS
330
42
102
}
330
42
100
AcDbScale
 70
     0
300
1:1
140
1.0
141
1.0
290
     1
  0
SCALE
  5
44
102
{ACAD_REACTORS
330
42
102
}
330
42
100
AcDbScale
 70
     0
300
1/128" = 1'-0"
140
0.0078125
141
12.0
290
     0
  0
SCALE
  5
45
102
{ACAD_REACTORS
330
42
102
}
330
42
100
AcDbScale
 70
     0
300
1/64" = 1'-0"
140
0.015625
141
12.0
290
     0
  0
SCALE
  5
46
102
{ACAD_REACTORS
330
42
102
}
330
42
100
AcDbScale
 70
     0
300
1/32" = 1'-0"
140
0.03125
141
12.0
290
     0
  0
SCALE
  5
47
102
{ACAD_REACTORS
330
42
102
}
330
42
100
AcDbScale
 70
     0
300
1/16" = 1'-0"
140
0.0625
141
12.0
290
     0
  0
SCALE
  5
48
102
{ACAD_REACTORS
330
42
102
}
330
42
100
AcDbScale
 70
     0
300
3/32" = 1'-0"
140
0.09375
141
12.0
290
     0
  0
SCALE
  5
49
102
{ACAD_REACTORS
330
42
102
}
330
42
100
AcDbScale
 70
     0
300
1/8" = 1'-0"
140
0.125
141
12.0
290
     0
  0
SCALE
  5
4A
102
{ACAD_REACTORS
330
42
102
}
330
42
100
AcDbScale
 70
     0
300
3/16" = 1'-0"
140
0.1875
141
12.0
290
     0
  0
SCALE
  5
4B
102
{ACAD_REACTORS
330
42
102
}
330
42
100
AcDbScale
 70
     0
300
1/4" = 1'-0"
140
0.25
141
12.0
290
     0
  0
SCALE
  5
4C
102
{ACAD_REACTORS
330
42
102
}
330
42
100
AcDbScale
 70
     0
300
3/8" = 1'-0"
140
0.375
141
12.0
290
     0
  0
SCALE
  5
4D
102
{ACAD_REACTORS
330
42
102
}
330
42
100
AcDbScale
 70
     0
300
1/2" = 1'-0"
140
0.5
141
12.0
290
     0
  0
SCALE
  5
4E
102
{ACAD_REACTORS
330
42
102
}
330
42
100
AcDbScale
 70
     0
300
3/4" = 1'-0"
140
0.75
141
12.0
290
     0
  0
SCALE
  5
4F
102
{ACAD_REACTORS
330
42
102
}
330
42
100
AcDbScale
 70
     0
300
1" = 1'-0"
140
1.0
141
12.0
290
     0
  0
SCALE
  5
50
102
{ACAD_REACTORS
330
42
102
}
330
42
100
AcDbScale
 70
     0
300
1-1/2" = 1'-0"
140
1.5
141
12.0
290
     0
  0
SCALE
  5
51
102
{ACAD_REACTORS
330
42
102
}
330
42
100
AcDbScale
 70
     0
300
3" = 1'-0"
140
3.0
141
12.0
290
     0
  0
SCALE
  5
52
102
{ACAD_REACTORS
330
42
102
}
330
42
100
AcDbScale
 70
     0
300
6" = 1'-0"
140
6.0
141
12.0
290
     0
  0
SCALE
  5
53
102
{ACAD_REACTORS
330
42
102
}
330
42
100
AcDbScale
 70
     0
300
1'-0" = 1'-0"
140
12.0
141
12.0
290
     0
  0
ACDBSECTIONVIEWSTYLE
  5
69
102
{ACAD_XDICTIONARY
360
374
102
}
102
{ACAD_REACTORS
330
68
102
}
330
68
100
AcDbModelDocViewStyle
 70
     0
  3
Imperial24
290
     0
100
AcDbSectionViewStyle
 70
     0
 71
     0
 90
       78
 71
     1
340
55
 62
   256
 40
0.24
340
0
340
0
 62
   256
 40
0.24
300
I, O, Q, S, X, Z
 40
0.48
 90
        3
 40
0.18
 90
        1
 71
     2
340
5D
 90
       25
 62
   256
340
5D
 90
       50
 62
   256
 40
0.24
 40
0.0
 40
0.24
 71
     3
340
55
 62
   256
 40
0.24
 90
        1
 40
0.75
 90
        1
300
%<\AcVar ViewType \f "%tc1">% %<\AcVar ViewSectionStartId>%-%<\AcVar ViewSectionEndId>%\PSCALE %<\AcVar ViewScale \f "%sn">%
 71
     4
 62
   256
 62
   257
300
ANSI31
 40
1.0
 90
        0
290
     0
290
     0
 90
        6
 40
0.0
 40
1.570796326794896
 40
0.2617993877991494
 40
1.308996938995747
 40
-0.2617993877991494
 40
1.832595714594046
  0
TABLESTYLE
  5
65
102
{ACAD_XDICTIONARY
360
371
102
}
102
{ACAD_REACTORS
330
64
102
}
330
64
100
AcDbTableStyle
280
     0
  3
Standard
 70
     0
 71
     0
 40
0.06
 41
0.06
280
     0
281
     0
  7
Standard
140
0.18
170
     2
 62
     0
 63
     7
283
     0
 90
      512
 91
        0
  1

274
    -2
284
     1
 64
     0
275
    -2
285
     1
 65
     0
276
    -2
286
     1
 66
     0
277
    -2
287
     1
 67
     0
278
    -2
288
     1
 68
     0
279
    -2
289
     1
 69
     0
  7
Standard
140
0.25
170
     5
 62
     0
 63
     7
283
     0
 90
      512
 91
        0
  1

274
    -2
284
     1
 64
     0
275
    -2
285
     1
 65
     0
276
    -2
286
     1
 66
     0
277
    -2
287
     1
 67
     0
278
    -2
288
     1
 68
     0
279
    -2
289
     1
 69
     0
  7
Standard
140
0.18
170
     5
 62
     0
 63
     7
283
     0
 90
      512
 91
        0
  1

274
    -2
284
     1
 64
     0
275
    -2
285
     1
 65
     0
276
    -2
286
     1
 66
     0
277
    -2
287
     1
 67
     0
278
    -2
288
     1
 68
     0
279
    -2
289
     1
 69
     0
  0
VISUALSTYLE
  5
2F
102
{ACAD_REACTORS
330
29
102
}
330
29
100
AcDbVisualStyle
  2
2dWireframe
 70
     4
177
     3
291
     0
 70
    58
 90
        0
176
     1
 90
        2
176
     1
 90
        0
176
     1
 90
        0
176
     1
 40
0.6
176
     1
 40
30.0
176
     1
 62
     7
420
 16777215
176
     1
 90
        1
176
     1
 90
        4
176
     1
 62
     7
176
     1
 62
   257
176
     1
 90
        1
176
     1
 90
        1
176
     1
 40
1.0
176
     1
 90
        0
176
     1
 62
   257
176
     1
 40
1.0
176
     1
 90
        1
176
     1
 90
        6
176
     1
 90
        2
176
     1
 62
     7
176
     1
 90
        5
176
     1
 90
        0
176
     1
 90
        0
176
     1
290
     0
176
     1
 90
        1
176
     1
 40
0.0
176
     1
 90
        0
176
     1
290
     1
176
     1
290
     1
176
     1
290
     0
176
     1
290
     0
176
     1
290
     0
176
     1
290
     0
176
     1
290
     0
176
     1
290
     0
176
     1
290
     0
176
     1
 90
       50
176
     1
 40
0.0
176
     1
 40
1.0
176
     1
 90
        0
176
     1
 62
    18
420
        0
176
     1
 90
       50
176
     1
 90
        3
176
     1
 62
     5
420
      255
176
     1
290
     0
176
     1
 90
       50
176
     1
 90
       50
176
     1
 90
       50
176
     1
290
     0
176
     1
 90
       50
176
     1
 62
   256
176
     0
 40
1.0
176
     0
 90
        2
176
     1
  1
strokes_ogs.tif
176
     1
290
     0
176
     1
 40
1.0
176
     1
 40
1.0
176
     1
1001
ACAD
1000
AcDbSavedByObjectVersion
1070
     0
  0
VISUALSTYLE
  5
2E
102
{ACAD_REACTORS
330
29
102
}
330
29
100
AcDbVisualStyle
  2
Basic
 70
     7
177
     3
291
     1
 70
    58
 90
        1
176
     1
 90
        0
176
     1
 90
        1
176
     1
 90
        0
176
     1
 40
0.6
176
     1
 40
30.0
176
     1
 62
     7
420
 16777215
176
     1
 90
        0
176
     1
 90
        4
176
     1
 62
     7
176
     1
 62
   257
176
     1
 90
        1
176
     1
 90
        1
176
     1
 40
1.0
176
     1
 90
        8
176
     1
 62
     7
176
     1
 40
1.0
176
     1
 90
        1
176
     1
 90
        6
176
     1
 90
        2
176
     1
 62
     7
176
     1
 90
        5
176
     1
 90
        0
176
     1
 90
        0
176
     1
290
     0
176
     1
 90
        1
176
     1
 40
0.0
176
     1
 90
        0
176
     1
290
     0
176
     1
290
     1
176
     1
290
     1
176
     1
290
     0
176
     1
290
     0
176
     1
290
     0
176
     1
290
     0
176
     1
290
     0
176
     1
290
     0
176
     1
 90
       50
176
     1
 40
0.0
176
     1
 40
1.0
176
     1
 90
        0
176
     1
 62
    18
420
        0
176
     1
 90
       50
176
     1
 90
        3
176
     1
 62
     5
420
      255
176
     1
290
     0
176
     1
 90
       50
176
     1
 90
       50
176
     1
 90
       50
176
     1
290
     0
176
     1
 90
       50
176
     1
 62
   256
176
     0
 40
1.0
176
     0
 90
        2
176
     1
  1
strokes_ogs.tif
176
     1
290
     0
176
     1
 40
1.0
176
     1
 40
1.0
176
     1
1001
ACAD
1000
AcDbSavedByObjectVersion
1070
     0
  0
VISUALSTYLE
  5
35
102
{ACAD_REACTORS
330
29
102
}
330
29
100
AcDbVisualStyle
  2
Brighten
 70
    12
177
     3
291
     1
 70
    58
 90
        2
176
     1
 90
        2
176
     1
 90
        0
176
     1
 90
        0
176
     1
 40
0.6
176
     1
 40
30.0
176
     1
 62
     7
420
 16777215
176
     1
 90
        1
176
     1
 90
        4
176
     1
 62
     7
176
     1
 62
   257
176
     1
 90
        1
176
     1
 90
        1
176
     1
 40
1.0
176
     1
 90
        8
176
     1
 62
     7
176
     1
 40
1.0
176
     1
 90
        1
176
     1
 90
        6
176
     1
 90
        2
176
     1
 62
     7
176
     1
 90
        5
176
     1
 90
        0
176
     1
 90
        0
176
     1
290
     0
176
     1
 90
        1
176
     1
 40
50.0
176
     1
 90
        0
176
     1
290
     0
176
     1
290
     1
176
     1
290
     1
176
     1
290
     0
176
     1
290
     0
176
     1
290
     0
176
     1
290
     0
176
     1
290
     0
176
     1
290
     0
176
     1
 90
       50
176
     1
 40
0.0
176
     1
 40
1.0
176
     1
 90
        0
176
     1
 62
    18
420
        0
176
     1
 90
       50
176
     1
 90
        3
176
     1
 62
     5
420
      255
176
     1
290
     0
176
     1
 90
       50
176
     1
 90
       50
176
     1
 90
       50
176
     1
290
     0
176
     1
 90
       50
176
     1
 62
   256
176
     0
 40
1.0
176
     0
 90
        2
176
     1
  1
strokes_ogs.tif
176
     1
290
     0
176
     1
 40
1.0
176
     1
 40
1.0
176
     1
1001
ACAD
1000
AcDbSavedByObjectVersion
1070
     0
  0
VISUALSTYLE
  5
39
102
{ACAD_REACTORS
330
29
102
}
330
29
100
AcDbVisualStyle
  2
ColorChange
 70
    16
177
     3
291
     1
 70
    58
 90
        2
176
     1
 90
        2
176
     1
 90
        3
176
     1
 90
        0
176
     1
 40
0.6
176
     1
 40
30.0
176
     1
 62
     8
420
  8421504
176
     1
 90
        1
176
     1
 90
        4
176
     1
 62
     7
176
     1
 62
   257
176
     1
 90
        1
176
     1
 90
        1
176
     1
 40
1.0
176
     1
 90
        8
176
     1
 62
     8
420
  8421504
176
     1
 40
1.0
176
     1
 90
        1
176
     1
 90
        6
176
     1
 90
        2
176
     1
 62
     7
176
     1
 90
        5
176
     1
 90
        0
176
     1
 90
        0
176
     1
290
     0
176
     1
 90
        1
176
     1
 40
0.0
176
     1
 90
        0
176
     1
290
     0
176
     1
290
     1
176
     1
290
     1
176
     1
290
     0
176
     1
290
     0
176
     1
290
     0
176
     1
290
     0
176
     1
290
     0
176
     1
290
     0
176
     1
 90
       50
176
     1
 40
0.0
176
     1
 40
1.0
176
     1
 90
        0
176
     1
 62
    18
420
        0
176
     1
 90
       50
176
     1
 90
        3
176
     1
 62
     5
420
      255
176
     1
290
     0
176
     1
 90
       50
176
     1
 90
       50
176
     1
 90
       50
176
     1
290
     0
176
     1
 90
       50
176
     1
 62
   256
176
     0
 40
1.0
176
     0
 90
        2
176
     1
  1
strokes_ogs.tif
176
     1
290
     0
176
     1
 40
1.0
176
     1
 40
1.0
176
     1
1001
ACAD
1000
AcDbSavedByObjectVersion
1070
     0
  0
VISUALSTYLE
  5
32
102
{ACAD_REACTORS
330
29
102
}
330
29
100
AcDbVisualStyle
  2
Conceptual
 70
     9
177
     3
291
     0
 70
    58
 90
        3
176
     1
 90
        2
176
     1
 90
        0
176
     1
 90
        0
176
     1
 40
0.6
176
     1
 40
30.0
176
     1
 62
     7
420
 16777215
176
     1
 90
        2
176
     1
 90
        2
176
     1
 62
     7
176
     1
 62
   257
176
     1
 90
        1
176
     1
 90
        1
176
     1
 40
179.0
176
     1
 90
        8
176
     1
 62
     7
176
     1
 40
1.0
176
     1
 90
        1
176
     1
 90
        6
176
     1
 90
        2
176
     1
 62
     7
176
     1
 90
        3
176
     1
 90
        0
176
     1
 90
        0
176
     1
290
     0
176
     1
 90
        1
176
     1
 40
0.0
176
     1
 90
        0
176
     1
290
     0
176
     1
290
     1
176
     1
290
     1
176
     1
290
     0
176
     1
290
     0
176
     1
290
     0
176
     1
290
     0
176
     1
290
     0
176
     1
290
     0
176
     1
 90
       50
176
     1
 40
0.0
176
     1
 40
1.0
176
     1
 90
        0
176
     1
 62
    18
420
        0
176
     1
 90
       50
176
     1
 90
        3
176
     1
 62
     5
420
      255
176
     1
290
     0
176
     1
 90
       50
176
     1
 90
       50
176
     1
 90
       50
176
     1
290
     0
176
     1
 90
       50
176
     1
 62
   256
176
     0
 40
1.0
176
     0
 90
        2
176
     1
  1
strokes_ogs.tif
176
     1
290
     0
176
     1
 40
1.0
176
     1
 40
1.0
176
     1
1001
ACAD
1000
AcDbSavedByObjectVersion
1070
     0
  0
VISUALSTYLE
  5
34
102
{ACAD_REACTORS
330
29
102
}
330
29
100
AcDbVisualStyle
  2
Dim
 70
    11
177
     3
291
     1
 70
    58
 90
        2
176
     1
 90
        2
176
     1
 90
        0
176
     1
 90
        0
176
     1
 40
0.6
176
     1
 40
30.0
176
     1
 62
     7
420
 16777215
176
     1
 90
        1
176
     1
 90
        4
176
     1
 62
     7
176
     1
 62
   257
176
     1
 90
        1
176
     1
 90
        1
176
     1
 40
1.0
176
     1
 90
        8
176
     1
 62
     7
176
     1
 40
1.0
176
     1
 90
        1
176
     1
 90
        6
176
     1
 90
        2
176
     1
 62
     7
176
     1
 90
        5
176
     1
 90
        0
176
     1
 90
        0
176
     1
290
     0
176
     1
 90
        1
176
     1
 40
-50.0
176
     1
 90
        0
176
     1
290
     0
176
     1
290
     1
176
     1
290
     1
176
     1
290
     0
176
     1
290
     0
176
     1
290
     0
176
     1
290
     0
176
     1
290
     0
176
     1
290
     0
176
     1
 90
       50
176
     1
 40
0.0
176
     1
 40
1.0
176
     1
 90
        0
176
     1
 62
    18
420
        0
176
     1
 90
       50
176
     1
 90
        3
176
     1
 62
     5
420
      255
176
     1
290
     0
176
     1
 90
       50
176
     1
 90
       50
176
     1
 90
       50
176
     1
290
     0
176
     1
 90
       50
176
     1
 62
   256
176
     0
 40
1.0
176
     0
 90
        2
176
     1
  1
strokes_ogs.tif
176
     1
290
     0
176
     1
 40
1.0
176
     1
 40
1.0
176
     1
1001
ACAD
1000
AcDbSavedByObjectVersion
1070
     0
  0
VISUALSTYLE
  5
41
102
{ACAD_REACTORS
330
29
102
}
330
29
100
AcDbVisualStyle
  2
EdgeColorOff
 70
    22
177
     3
291
     1
 70
    58
 90
        2
176
     0
 90
        2
176
     0
 90
        0
176
     0
 90
        0
176
     0
 40
0.6
176
     0
 40
30.0
176
     0
 62
     7
420
 16777215
176
     0
 90
        1
176
     0
 90
        4
176
     0
 62
     7
176
     0
 62
   257
176
     0
 90
        1
176
     0
 90
        1
176
     0
 40
1.0
176
     0
 90
        8
176
     2
 62
     7
176
     0
 40
1.0
176
     0
 90
        1
176
     0
 90
        6
176
     0
 90
        2
176
     0
 62
     7
176
     0
 90
        5
176
     0
 90
        0
176
     0
 90
        0
176
     0
290
     0
176
     0
 90
        1
176
     0
 40
0.0
176
     0
 90
        0
176
     0
290
     0
176
     0
290
     1
176
     0
290
     1
176
     0
290
     0
176
     0
290
     0
176
     0
290
     0
176
     0
290
     0
176
     0
290
     0
176
     0
290
     0
176
     0
 90
       50
176
     0
 40
0.0
176
     0
 40
1.0
176
     0
 90
        0
176
     0
 62
    18
420
        0
176
     0
 90
       50
176
     0
 90
        3
176
     0
 62
     5
420
      255
176
     0
290
     0
176
     0
 90
       50
176
     0
 90
       50
176
     0
 90
       50
176
     0
290
     0
176
     0
 90
       50
176
     0
 62
   256
176
     0
 40
1.0
176
     0
 90
        2
176
     0
  1
strokes_ogs.tif
176
     0
290
     0
176
     0
 40
1.0
176
     0
 40
1.0
176
     0
1001
ACAD
1000
AcDbSavedByObjectVersion
1070
     0
  0
VISUALSTYLE
  5
38
102
{ACAD_REACTORS
330
29
102
}
330
29
100
AcDbVisualStyle
  2
Facepattern
 70
    15
177
     3
291
     1
 70
    58
 90
        2
176
     1
 90
        2
176
     1
 90
        0
176
     1
 90
        0
176
     1
 40
0.6
176
     1
 40
30.0
176
     1
 62
     7
420
 16777215
176
     1
 90
        1
176
     1
 90
        4
176
     1
 62
     7
176
     1
 62
   257
176
     1
 90
        1
176
     1
 90
        1
176
     1
 40
1.0
176
     1
 90
        8
176
     1
 62
     7
176
     1
 40
1.0
176
     1
 90
        1
176
     1
 90
        6
176
     1
 90
        2
176
     1
 62
     7
176
     1
 90
        5
176
     1
 90
        0
176
     1
 90
        0
176
     1
290
     0
176
     1
 90
        1
176
     1
 40
0.0
176
     1
 90
        0
176
     1
290
     0
176
     1
290
     1
176
     1
290
     1
176
     1
290
     0
176
     1
290
     0
176
     1
290
     0
176
     1
290
     0
176
     1
290
     0
176
     1
290
     0
176
     1
 90
       50
176
     1
 40
0.0
176
     1
 40
1.0
176
     1
 90
        0
176
     1
 62
    18
420
        0
176
     1
 90
       50
176
     1
 90
        3
176
     1
 62
     5
420
      255
176
     1
290
     0
176
     1
 90
       50
176
     1
 90
       50
176
     1
 90
       50
176
     1
290
     0
176
     1
 90
       50
176
     1
 62
   256
176
     0
 40
1.0
176
     0
 90
        2
176
     1
  1
strokes_ogs.tif
176
     1
290
     0
176
     1
 40
1.0
176
     1
 40
1.0
176
     1
1001
ACAD
1000
AcDbSavedByObjectVersion
1070
     0
  0
VISUALSTYLE
  5
2A
102
{ACAD_REACTORS
330
29
102
}
330
29
100
AcDbVisualStyle
  2
Flat
 70
     0
177
     3
291
     1
 70
    58
 90
        2
176
     1
 90
        1
176
     1
 90
        1
176
     1
 90
        2
176
     1
 40
0.6
176
     1
 40
30.0
176
     1
 62
     7
420
 16777215
176
     1
 90
        0
176
     1
 90
        0
176
     1
 62
     7
176
     1
 62
   257
176
     1
 90
        1
176
     1
 90
        1
176
     1
 40
1.0
176
     1
 90
        8
176
     1
 62
     7
176
     1
 40
1.0
176
     1
 90
        1
176
     1
 90
        6
176
     1
 90
        2
176
     1
 62
     7
176
     1
 90
        5
176
     1
 90
        0
176
     1
 90
        0
176
     1
290
     0
176
     1
 90
       13
176
     1
 40
0.0
176
     1
 90
        0
176
     1
290
     0
176
     1
290
     1
176
     1
290
     1
176
     1
290
     0
176
     1
290
     0
176
     1
290
     0
176
     1
290
     0
176
     1
290
     0
176
     1
290
     0
176
     1
 90
       50
176
     1
 40
0.0
176
     1
 40
1.0
176
     1
 90
        0
176
     1
 62
    18
420
        0
176
     1
 90
       50
176
     1
 90
        3
176
     1
 62
     5
420
      255
176
     1
290
     0
176
     1
 90
       50
176
     1
 90
       50
176
     1
 90
       50
176
     1
290
     0
176
     1
 90
       50
176
     1
 62
   256
176
     0
 40
1.0
176
     0
 90
        2
176
     1
  1
strokes_ogs.tif
176
     1
290
     0
176
     1
 40
1.0
176
     1
 40
1.0
176
     1
1001
ACAD
1000
AcDbSavedByObjectVersion
1070
     0
  0
VISUALSTYLE
  5
2B
102
{ACAD_REACTORS
330
29
102
}
330
29
100
AcDbVisualStyle
  2
FlatWithEdges
 70
     1
177
     3
291
     1
 70
    58
 90
        2
176
     1
 90
        1
176
     1
 90
        1
176
     1
 90
        2
176
     1
 40
0.6
176
     1
 40
30.0
176
     1
 62
     7
420
 16777215
176
     1
 90
        1
176
     1
 90
        0
176
     1
 62
     7
176
     1
 62
   257
176
     1
 90
        1
176
     1
 90
        1
176
     1
 40
1.0
176
     1
 90
        0
176
     1
 62
   257
176
     1
 40
1.0
176
     1
 90
        1
176
     1
 90
        6
176
     1
 90
        2
176
     1
 62
     7
176
     1
 90
        5
176
     1
 90
        0
176
     1
 90
        0
176
     1
290
     0
176
     1
 90
       13
176
     1
 40
0.0
176
     1
 90
        0
176
     1
290
     0
176
     1
290
     1
176
     1
290
     1
176
     1
290
     0
176
     1
290
     0
176
     1
290
     0
176
     1
290
     0
176
     1
290
     0
176
     1
290
     0
176
     1
 90
       50
176
     1
 40
0.0
176
     1
 40
1.0
176
     1
 90
        0
176
     1
 62
    18
420
        0
176
     1
 90
       50
176
     1
 90
        3
176
     1
 62
     5
420
      255
176
     1
290
     0
176
     1
 90
       50
176
     1
 90
       50
176
     1
 90
       50
176
     1
290
     0
176
     1
 90
       50
176
     1
 62
   256
176
     0
 40
1.0
176
     0
 90
        2
176
     1
  1
strokes_ogs.tif
176
     1
290
     0
176
     1
 40
1.0
176
     1
 40
1.0
176
     1
1001
ACAD
1000
AcDbSavedByObjectVersion
1070
     0
  0
VISUALSTYLE
  5
2C
102
{ACAD_REACTORS
330
29
102
}
330
29
100
AcDbVisualStyle
  2
Gouraud
 70
     2
177
     3
291
     1
 70
    58
 90
        2
176
     1
 90
        2
176
     1
 90
        1
176
     1
 90
        2
176
     1
 40
0.6
176
     1
 40
30.0
176
     1
 62
     7
420
 16777215
176
     1
 90
        0
176
     1
 90
        0
176
     1
 62
     7
176
     1
 62
   257
176
     1
 90
        1
176
     1
 90
        1
176
     1
 40
1.0
176
     1
 90
        0
176
     1
 62
     7
176
     1
 40
1.0
176
     1
 90
        1
176
     1
 90
        6
176
     1
 90
        2
176
     1
 62
     7
176
     1
 90
        5
176
     1
 90
        0
176
     1
 90
        0
176
     1
290
     0
176
     1
 90
       13
176
     1
 40
0.0
176
     1
 90
        0
176
     1
290
     0
176
     1
290
     1
176
     1
290
     1
176
     1
290
     0
176
     1
290
     0
176
     1
290
     0
176
     1
290
     0
176
     1
290
     0
176
     1
290
     0
176
     1
 90
       50
176
     1
 40
0.0
176
     1
 40
1.0
176
     1
 90
        0
176
     1
 62
    18
420
        0
176
     1
 90
       50
176
     1
 90
        3
176
     1
 62
     5
420
      255
176
     1
290
     0
176
     1
 90
       50
176
     1
 90
       50
176
     1
 90
       50
176
     1
290
     0
176
     1
 90
       50
176
     1
 62
   256
176
     0
 40
1.0
176
     0
 90
        2
176
     1
  1
strokes_ogs.tif
176
     1
290
     0
176
     1
 40
1.0
176
     1
 40
1.0
176
     1
1001
ACAD
1000
AcDbSavedByObjectVersion
1070
     0
  0
VISUALSTYLE
  5
2D
102
{ACAD_REACTORS
330
29
102
}
330
29
100
AcDbVisualStyle
  2
GouraudWithEdges
 70
     3
177
     3
291
     1
 70
    58
 90
        2
176
     1
 90
        2
176
     1
 90
        1
176
     1
 90
        2
176
     1
 40
0.6
176
     1
 40
30.0
176
     1
 62
     7
420
 16777215
176
     1
 90
        1
176
     1
 90
        0
176
     1
 62
     7
176
     1
 62
   257
176
     1
 90
        1
176
     1
 90
        1
176
     1
 40
1.0
176
     1
 90
        0
176
     1
 62
   257
176
     1
 40
1.0
176
     1
 90
        1
176
     1
 90
        6
176
     1
 90
        2
176
     1
 62
     7
176
     1
 90
        5
176
     1
 90
        0
176
     1
 90
        0
176
     1
290
     0
176
     1
 90
       13
176
     1
 40
0.0
176
     1
 90
        0
176
     1
290
     0
176
     1
290
     1
176
     1
290
     1
176
     1
290
     0
176
     1
290
     0
176
     1
290
     0
176
     1
290
     0
176
     1
290
     0
176
     1
290
     0
176
     1
 90
       50
176
     1
 40
0.0
176
     1
 40
1.0
176
     1
 90
        0
176
     1
 62
    18
420
        0
176
     1
 90
       50
176
     1
 90
        3
176
     1
 62
     5
420
      255
176
     1
290
     0
176
     1
 90
       50
176
     1
 90
       50
176
     1
 90
       50
176
     1
290
     0
176
     1
 90
       50
176
     1
 62
   256
176
     0
 40
1.0
176
     0
 90
        2
176
     1
  1
strokes_ogs.tif
176
     1
290
     0
176
     1
 40
1.0
176
     1
 40
1.0
176
     1
1001
ACAD
1000
AcDbSavedByObjectVersion
1070
     0
  0
VISUALSTYLE
  5
31
102
{ACAD_REACTORS
330
29
102
}
330
29
100
AcDbVisualStyle
  2
Hidden
 70
     6
177
     3
291
     0
 70
    58
 90
        1
176
     1
 90
        2
176
     1
 90
        2
176
     1
 90
        0
176
     1
 40
0.6
176
     1
 40
30.0
176
     1
 62
     7
420
 16777215
176
     1
 90
        2
176
     1
 90
        2
176
     1
 62
     7
176
     1
 62
   257
176
     1
 90
        2
176
     1
 90
        1
176
     1
 40
40.0
176
     1
 90
        0
176
     1
 62
   257
176
     1
 40
1.0
176
     1
 90
        1
176
     1
 90
        6
176
     1
 90
        2
176
     1
 62
     7
176
     1
 90
        3
176
     1
 90
        0
176
     1
 90
        0
176
     1
290
     0
176
     1
 90
        1
176
     1
 40
0.0
176
     1
 90
        0
176
     1
290
     0
176
     1
290
     1
176
     1
290
     1
176
     1
290
     0
176
     1
290
     0
176
     1
290
     0
176
     1
290
     0
176
     1
290
     0
176
     1
290
     0
176
     1
 90
       50
176
     1
 40
0.0
176
     1
 40
1.0
176
     1
 90
        0
176
     1
 62
    18
420
        0
176
     1
 90
       50
176
     1
 90
        3
176
     1
 62
     5
420
      255
176
     1
290
     0
176
     1
 90
       50
176
     1
 90
       50
176
     1
 90
       50
176
     1
290
     0
176
     1
 90
       50
176
     1
 62
   256
176
     0
 40
1.0
176
     0
 90
        2
176
     1
  1
strokes_ogs.tif
176
     1
290
     0
176
     1
 40
1.0
176
     1
 40
1.0
176
     1
1001
ACAD
1000
AcDbSavedByObjectVersion
1070
     0
  0
VISUALSTYLE
  5
3F
102
{ACAD_REACTORS
330
29
102
}
330
29
100
AcDbVisualStyle
  2
JitterOff
 70
    20
177
     3
291
     1
 70
    58
 90
        2
176
     0
 90
        2
176
     0
 90
        0
176
     0
 90
        0
176
     0
 40
0.6
176
     0
 40
30.0
176
     0
 62
     7
420
 16777215
176
     0
 90
        1
176
     0
 90
        4
176
     0
 62
     7
176
     0
 62
   257
176
     0
 90
        1
176
     0
 90
        1
176
     0
 40
1.0
176
     0
 90
       10
176
     2
 62
     7
176
     0
 40
1.0
176
     0
 90
        1
176
     0
 90
        6
176
     0
 90
        2
176
     0
 62
     7
176
     0
 90
        5
176
     0
 90
        0
176
     0
 90
        0
176
     0
290
     0
176
     0
 90
        1
176
     0
 40
0.0
176
     0
 90
        0
176
     0
290
     0
176
     0
290
     1
176
     0
290
     1
176
     0
290
     0
176
     0
290
     0
176
     0
290
     0
176
     0
290
     0
176
     0
290
     0
176
     0
290
     0
176
     0
 90
       50
176
     0
 40
0.0
176
     0
 40
1.0
176
     0
 90
        0
176
     0
 62
    18
420
        0
176
     0
 90
       50
176
     0
 90
        3
176
     0
 62
     5
420
      255
176
     0
290
     0
176
     0
 90
       50
176
     0
 90
       50
176
     0
 90
       50
176
     0
290
     0
176
     0
 90
       50
176
     0
 62
   256
176
     0
 40
1.0
176
     0
 90
        2
176
     0
  1
strokes_ogs.tif
176
     0
290
     0
176
     0
 40
1.0
176
     0
 40
1.0
176
     0
1001
ACAD
1000
AcDbSavedByObjectVersion
1070
     0
  0
VISUALSTYLE
  5
37
102
{ACAD_REACTORS
330
29
102
}
330
29
100
AcDbVisualStyle
  2
Linepattern
 70
    14
177
     3
291
     1
 70
    58
 90
        2
176
     1
 90
        2
176
     1
 90
        0
176
     1
 90
        0
176
     1
 40
0.6
176
     1
 40
30.0
176
     1
 62
     7
420
 16777215
176
     1
 90
        1
176
     1
 90
        4
176
     1
 62
     7
176
     1
 62
   257
176
     1
 90
        7
176
     1
 90
        7
176
     1
 40
1.0
176
     1
 90
        8
176
     1
 62
     7
176
     1
 40
1.0
176
     1
 90
        1
176
     1
 90
        6
176
     1
 90
        2
176
     1
 62
     7
176
     1
 90
        5
176
     1
 90
        0
176
     1
 90
        0
176
     1
290
     0
176
     1
 90
        1
176
     1
 40
0.0
176
     1
 90
        0
176
     1
290
     0
176
     1
290
     1
176
     1
290
     1
176
     1
290
     0
176
     1
290
     0
176
     1
290
     0
176
     1
290
     0
176
     1
290
     0
176
     1
290
     0
176
     1
 90
       50
176
     1
 40
0.0
176
     1
 40
1.0
176
     1
 90
        0
176
     1
 62
    18
420
        0
176
     1
 90
       50
176
     1
 90
        3
176
     1
 62
     5
420
      255
176
     1
290
     0
176
     1
 90
       50
176
     1
 90
       50
176
     1
 90
       50
176
     1
290
     0
176
     1
 90
       50
176
     1
 62
   256
176
     0
 40
1.0
176
     0
 90
        2
176
     1
  1
strokes_ogs.tif
176
     1
290
     0
176
     1
 40
1.0
176
     1
 40
1.0
176
     1
1001
ACAD
1000
AcDbSavedByObjectVersion
1070
     0
  0
VISUALSTYLE
  5
40
102
{ACAD_REACTORS
330
29
102
}
330
29
100
AcDbVisualStyle
  2
OverhangOff
 70
    21
177
     3
291
     1
 70
    58
 90
        2
176
     0
 90
        2
176
     0
 90
        0
176
     0
 90
        0
176
     0
 40
0.6
176
     0
 40
30.0
176
     0
 62
     7
420
 16777215
176
     0
 90
        1
176
     0
 90
        4
176
     0
 62
     7
176
     0
 62
   257
176
     0
 90
        1
176
     0
 90
        1
176
     0
 40
1.0
176
     0
 90
        9
176
     2
 62
     7
176
     0
 40
1.0
176
     0
 90
        1
176
     0
 90
        6
176
     0
 90
        2
176
     0
 62
     7
176
     0
 90
        5
176
     0
 90
        0
176
     0
 90
        0
176
     0
290
     0
176
     0
 90
        1
176
     0
 40
0.0
176
     0
 90
        0
176
     0
290
     0
176
     0
290
     1
176
     0
290
     1
176
     0
290
     0
176
     0
290
     0
176
     0
290
     0
176
     0
290
     0
176
     0
290
     0
176
     0
290
     0
176
     0
 90
       50
176
     0
 40
0.0
176
     0
 40
1.0
176
     0
 90
        0
176
     0
 62
    18
420
        0
176
     0
 90
       50
176
     0
 90
        3
176
     0
 62
     5
420
      255
176
     0
290
     0
176
     0
 90
       50
176
     0
 90
       50
176
     0
 90
       50
176
     0
290
     0
176
     0
 90
       50
176
     0
 62
   256
176
     0
 40
1.0
176
     0
 90
        2
176
     0
  1
strokes_ogs.tif
176
     0
290
     0
176
     0
 40
1.0
176
     0
 40
1.0
176
     0
1001
ACAD
1000
AcDbSavedByObjectVersion
1070
     0
  0
VISUALSTYLE
  5
33
102
{ACAD_REACTORS
330
29
102
}
330
29
100
AcDbVisualStyle
  2
Realistic
 70
     8
177
     3
291
     0
 70
    58
 90
        2
176
     1
 90
        3
176
     1
 90
        0
176
     1
 90
        2
176
     1
 40
0.6
176
     1
 40
30.0
176
     1
 62
     7
420
 16777215
176
     1
 90
        0
176
     1
 90
        0
176
     1
 62
     7
176
     1
 62
   257
176
     1
 90
        1
176
     1
 90
        1
176
     1
 40
1.0
176
     1
 90
        8
176
     1
 62
   257
176
     1
 40
1.0
176
     1
 90
        1
176
     1
 90
        6
176
     1
 90
        2
176
     1
 62
     7
176
     1
 90
        3
176
     1
 90
        0
176
     1
 90
        0
176
     1
290
     0
176
     1
 90
       13
176
     1
 40
0.0
176
     1
 90
        0
176
     1
290
     0
176
     1
290
     1
176
     1
290
     1
176
     1
290
     0
176
     1
290
     0
176
     1
290
     0
176
     1
290
     0
176
     1
290
     0
176
     1
290
     0
176
     1
 90
       50
176
     1
 40
0.0
176
     1
 40
1.0
176
     1
 90
        0
176
     1
 62
    18
420
        0
176
     1
 90
       50
176
     1
 90
        3
176
     1
 62
     5
420
      255
176
     1
290
     0
176
     1
 90
       50
176
     1
 90
       50
176
     1
 90
       50
176
     1
290
     0
176
     1
 90
       50
176
     1
 62
   256
176
     0
 40
1.0
176
     0
 90
        2
176
     1
  1
strokes_ogs.tif
176
     1
290
     0
176
     1
 40
1.0
176
     1
 40
1.0
176
     1
1001
ACAD
1000
AcDbSavedByObjectVersion
1070
     0
  0
VISUALSTYLE
  5
3E
102
{ACAD_REACTORS
330
29
102
}
330
29
100
AcDbVisualStyle
  2
Shaded
 70
    27
177
     3
291
     0
 70
    58
 90
        2
176
     1
 90
        2
176
     1
 90
        1
176
     1
 90
        2
176
     1
 40
0.6
176
     1
 40
30.0
176
     1
 62
     7
420
 16777215
176
     1
 90
        0
176
     1
 90
        4
176
     1
 62
     7
176
     1
 62
   257
176
     1
 90
        1
176
     1
 90
        1
176
     1
 40
1.0
176
     1
 90
        8
176
     1
 62
   257
176
     1
 40
1.0
176
     1
 90
        1
176
     1
 90
        6
176
     1
 90
        2
176
     1
 62
     8
420
  7895160
176
     1
 90
        3
176
     1
 90
        0
176
     1
 90
        0
176
     1
290
     0
176
     1
 90
        5
176
     1
 40
0.0
176
     1
 90
        0
176
     1
290
     0
176
     1
290
     1
176
     1
290
     1
176
     1
290
     0
176
     1
290
     0
176
     1
290
     0
176
     1
290
     0
176
     1
290
     0
176
     1
290
     0
176
     1
 90
       50
176
     1
 40
0.0
176
     1
 40
1.0
176
     1
 90
        0
176
     1
 62
    18
420
        0
176
     1
 90
       50
176
     1
 90
        3
176
     1
 62
     5
420
      255
176
     1
290
     0
176
     1
 90
       50
176
     1
 90
       50
176
     1
 90
       50
176
     1
290
     0
176
     1
 90
       50
176
     1
 62
   256
176
     0
 40
1.0
176
     0
 90
        2
176
     1
  1
strokes_ogs.tif
176
     1
290
     0
176
     1
 40
1.0
176
     1
 40
1.0
176
     1
1001
ACAD
1000
AcDbSavedByObjectVersion
1070
     0
  0
VISUALSTYLE
  5
3D
102
{ACAD_REACTORS
330
29
102
}
330
29
100
AcDbVisualStyle
  2
Shaded with edges
 70
    26
177
     3
291
     0
 70
    58
 90
        2
176
     1
 90
        2
176
     1
 90
        1
176
     1
 90
        2
176
     1
 40
0.6
176
     1
 40
30.0
176
     1
 62
     7
420
 16777215
176
     1
 90
        1
176
     1
 90
        2
176
     1
 62
     7
176
     1
 62
   257
176
     1
 90
        2
176
     1
 90
        1
176
     1
 40
1.0
176
     1
 90
        8
176
     1
 62
   257
176
     1
 40
1.0
176
     1
 90
        1
176
     1
 90
        6
176
     1
 90
        2
176
     1
 62
     7
176
     1
 90
        3
176
     1
 90
        0
176
     1
 90
        0
176
     1
290
     0
176
     1
 90
        5
176
     1
 40
0.0
176
     1
 90
        0
176
     1
290
     0
176
     1
290
     1
176
     1
290
     1
176
     1
290
     0
176
     1
290
     0
176
     1
290
     0
176
     1
290
     0
176
     1
290
     0
176
     1
290
     0
176
     1
 90
       50
176
     1
 40
0.0
176
     1
 40
1.0
176
     1
 90
        0
176
     1
 62
    18
420
        0
176
     1
 90
       50
176
     1
 90
        3
176
     1
 62
     5
420
      255
176
     1
290
     0
176
     1
 90
       50
176
     1
 90
       50
176
     1
 90
       50
176
     1
290
     0
176
     1
 90
       50
176
     1
 62
   256
176
     0
 40
1.0
176
     0
 90
        2
176
     1
  1
strokes_ogs.tif
176
     1
290
     0
176
     1
 40
1.0
176
     1
 40
1.0
176
     1
1001
ACAD
1000
AcDbSavedByObjectVersion
1070
     0
  0
VISUALSTYLE
  5
3A
102
{ACAD_REACTORS
330
29
102
}
330
29
100
AcDbVisualStyle
  2
Shades of Gray
 70
    23
177
     3
291
     0
 70
    58
 90
        2
176
     1
 90
        2
176
     1
 90
        3
176
     1
 90
        0
176
     1
 40
0.6
176
     1
 40
30.0
176
     1
 62
     7
420
 16777215
176
     1
 90
        2
176
     1
 90
        2
176
     1
 62
     7
176
     1
 62
     7
176
     1
 90
        1
176
     1
 90
        1
176
     1
 40
40.0
176
     1
 90
        8
176
     1
 62
     7
176
     1
 40
1.0
176
     1
 90
        1
176
     1
 90
        6
176
     1
 90
        2
176
     1
 62
     7
176
     1
 90
        3
176
     1
 90
        0
176
     1
 90
        0
176
     1
290
     0
176
     1
 90
        1
176
     1
 40
0.0
176
     1
 90
        0
176
     1
290
     0
176
     1
290
     1
176
     1
290
     1
176
     1
290
     0
176
     1
290
     0
176
     1
290
     0
176
     1
290
     0
176
     1
290
     0
176
     1
290
     0
176
     1
 90
       50
176
     1
 40
0.0
176
     1
 40
1.0
176
     1
 90
        0
176
     1
 62
    18
420
        0
176
     1
 90
       50
176
     1
 90
        3
176
     1
 62
     5
420
      255
176
     1
290
     0
176
     1
 90
       50
176
     1
 90
       50
176
     1
 90
       50
176
     1
290
     0
176
     1
 90
       50
176
     1
 62
   256
176
     0
 40
1.0
176
     0
 90
        2
176
     1
  1
strokes_ogs.tif
176
     1
290
     0
176
     1
 40
1.0
176
     1
 40
1.0
176
     1
1001
ACAD
1000
AcDbSavedByObjectVersion
1070
     0
  0
VISUALSTYLE
  5
3B
102
{ACAD_REACTORS
330
29
102
}
330
29
100
AcDbVisualStyle
  2
Sketchy
 70
    24
177
     3
291
     0
 70
    58
 90
        1
176
     1
 90
        2
176
     1
 90
        2
176
     1
 90
        0
176
     1
 40
0.6
176
     1
 40
30.0
176
     1
 62
     7
420
 16777215
176
     1
 90
        2
176
     1
 90
        2
176
     1
 62
     7
176
     1
 62
     7
176
     1
 90
        1
176
     1
 90
        1
176
     1
 40
40.0
176
     1
 90
       11
176
     1
 62
     7
176
     1
 40
1.0
176
     1
 90
        1
176
     1
 90
        6
176
     1
 90
        2
176
     1
 62
     7
176
     1
 90
        6
176
     1
 90
        0
176
     1
 90
        0
176
     1
290
     0
176
     1
 90
        1
176
     1
 40
0.0
176
     1
 90
        0
176
     1
290
     0
176
     1
290
     1
176
     1
290
     1
176
     1
290
     0
176
     1
290
     0
176
     1
290
     0
176
     1
290
     0
176
     1
290
     0
176
     1
290
     0
176
     1
 90
       50
176
     1
 40
0.0
176
     1
 40
1.0
176
     1
 90
        0
176
     1
 62
    18
420
        0
176
     1
 90
       50
176
     1
 90
        3
176
     1
 62
     5
420
      255
176
     1
290
     0
176
     1
 90
       50
176
     1
 90
       50
176
     1
 90
       50
176
     1
290
     0
176
     1
 90
       50
176
     1
 62
   256
176
     0
 40
1.0
176
     0
 90
        2
176
     1
  1
strokes_ogs.tif
176
     1
290
     0
176
     1
 40
1.0
176
     1
 40
1.0
176
     1
1001
ACAD
1000
AcDbSavedByObjectVersion
1070
     0
  0
VISUALSTYLE
  5
36
102
{ACAD_REACTORS
330
29
102
}
330
29
100
AcDbVisualStyle
  2
Thicken
 70
    13
177
     3
291
     1
 70
    58
 90
        2
176
     1
 90
        2
176
     1
 90
        0
176
     1
 90
        0
176
     1
 40
0.6
176
     1
 40
30.0
176
     1
 62
     7
420
 16777215
176
     1
 90
        1
176
     1
 90
        4
176
     1
 62
     7
176
     1
 62
   257
176
     1
 90
        1
176
     1
 90
        1
176
     1
 40
1.0
176
     1
 90
       12
176
     1
 62
     7
176
     1
 40
1.0
176
     1
 90
        1
176
     1
 90
        6
176
     1
 90
        2
176
     1
 62
     7
176
     1
 90
        5
176
     1
 90
        0
176
     1
 90
        0
176
     1
290
     0
176
     1
 90
        1
176
     1
 40
0.0
176
     1
 90
        0
176
     1
290
     0
176
     1
290
     1
176
     1
290
     1
176
     1
290
     0
176
     1
290
     0
176
     1
290
     0
176
     1
290
     0
176
     1
290
     0
176
     1
290
     0
176
     1
 90
       50
176
     1
 40
0.0
176
     1
 40
1.0
176
     1
 90
        0
176
     1
 62
    18
420
        0
176
     1
 90
       50
176
     1
 90
        3
176
     1
 62
     5
420
      255
176
     1
290
     0
176
     1
 90
       50
176
     1
 90
       50
176
     1
 90
       50
176
     1
290
     0
176
     1
 90
       50
176
     1
 62
   256
176
     0
 40
1.0
176
     0
 90
        2
176
     1
  1
strokes_ogs.tif
176
     1
290
     0
176
     1
 40
1.0
176
     1
 40
1.0
176
     1
1001
ACAD
1000
AcDbSavedByObjectVersion
1070
     0
  0
VISUALSTYLE
  5
30
102
{ACAD_REACTORS
330
29
102
}
330
29
100
AcDbVisualStyle
  2
Wireframe
 70
     5
177
     3
291
     0
 70
    58
 90
        0
176
     1
 90
        2
176
     1
 90
        0
176
     1
 90
        0
176
     1
 40
0.6
176
     1
 40
30.0
176
     1
 62
     7
420
 16777215
176
     1
 90
        1
176
     1
 90
        4
176
     1
 62
     7
176
     1
 62
   257
176
     1
 90
        1
176
     1
 90
        1
176
     1
 40
1.0
176
     1
 90
        0
176
     1
 62
   257
176
     1
 40
1.0
176
     1
 90
        1
176
     1
 90
        6
176
     1
 90
        2
176
     1
 62
     7
176
     1
 90
        3
176
     1
 90
        0
176
     1
 90
        0
176
     1
290
     0
176
     1
 90
        1
176
     1
 40
0.0
176
     1
 90
        0
176
     1
290
     0
176
     1
290
     1
176
     1
290
     1
176
     1
290
     0
176
     1
290
     0
176
     1
290
     0
176
     1
290
     0
176
     1
290
     0
176
     1
290
     0
176
     1
 90
       50
176
     1
 40
0.0
176
     1
 40
1.0
176
     1
 90
        0
176
     1
 62
    18
420
        0
176
     1
 90
       50
176
     1
 90
        3
176
     1
 62
     5
420
      255
176
     1
290
     0
176
     1
 90
       50
176
     1
 90
       50
176
     1
 90
       50
176
     1
290
     0
176
     1
 90
       50
176
     1
 62
   256
176
     0
 40
1.0
176
     0
 90
        2
176
     1
  1
strokes_ogs.tif
176
     1
290
     0
176
     1
 40
1.0
176
     1
 40
1.0
176
     1
1001
ACAD
1000
AcDbSavedByObjectVersion
1070
     0
  0
VISUALSTYLE
  5
3C
102
{ACAD_REACTORS
330
29
102
}
330
29
100
AcDbVisualStyle
  2
X-Ray
 70
    25
177
     3
291
     0
 70
    58
 90
        2
176
     1
 90
        2
176
     1
 90
        1
176
     1
 90
        1
176
     1
 40
0.5
176
     1
 40
30.0
176
     1
 62
     7
420
 16777215
176
     1
 90
        1
176
     1
 90
        0
176
     1
 62
     7
176
     1
 62
   257
176
     1
 90
        1
176
     1
 90
        1
176
     1
 40
1.0
176
     1
 90
        8
176
     1
 62
     7
176
     1
 40
1.0
176
     1
 90
        1
176
     1
 90
        6
176
     1
 90
        2
176
     1
 62
     7
176
     1
 90
        3
176
     1
 90
        0
176
     1
 90
        0
176
     1
290
     0
176
     1
 90
       13
176
     1
 40
0.0
176
     1
 90
        0
176
     1
290
     0
176
     1
290
     1
176
     1
290
     1
176
     1
290
     0
176
     1
290
     0
176
     1
290
     0
176
     1
290
     0
176
     1
290
     0
176
     1
290
     0
176
     1
 90
       50
176
     1
 40
0.0
176
     1
 40
1.0
176
     1
 90
        0
176
     1
 62
    18
420
        0
176
     1
 90
       50
176
     1
 90
        3
176
     1
 62
     5
420
      255
176
     1
290
     0
176
     1
 90
       50
176
     1
 90
       50
176
     1
 90
       50
176
     1
290
     0
176
     1
 90
       50
176
     1
 62
   256
176
     0
 40
1.0
176
     0
 90
        2
176
     1
  1
strokes_ogs.tif
176
     1
290
     0
176
     1
 40
1.0
176
     1
 40
1.0
176
     1
1001
ACAD
1000
AcDbSavedByObjectVersion
1070
     0
  0
DICTIONARYVAR
  5
1D4
102
{ACAD_REACTORS
330
1CF
102
}
330
1CF
100
DictionaryVariables
280
     0
  1
1:1
  0
DICTIONARYVAR
  5
1D1
102
{ACAD_REACTORS
330
1CF
102
}
330
1CF
100
DictionaryVariables
280
     0
  1
STANDARD
  0
DICTIONARYVAR
  5
1D0
102
{ACAD_REACTORS
330
1CF
102
}
330
1CF
100
DictionaryVariables
280
     0
  1
STANDARD
  0
DICTIONARYVAR
  5
1D2
102
{ACAD_REACTORS
330
1CF
102
}
330
1CF
100
DictionaryVariables
280
     0
  1
Imperial24
  0
DICTIONARYVAR
  5
1D3
102
{ACAD_REACTORS
330
1CF
102
}
330
1CF
100
DictionaryVariables
280
     0
  1
Imperial24
  0
DICTIONARY
  5
376
330
6B
100
AcDbDictionary
280
     1
281
     1
  3
ACAD_XREC_ROUNDTRIP
360
377
  0
DICTIONARY
  5
1A
330
19
100
AcDbDictionary
280
     1
281
     1
  3
BUMPTILE
360
1C
  3
DIFFUSETILE
360
1B
  3
OPACITYTILE
360
1F
  3
REFLECTIONTILE
360
1E
  3
REFRACTIONTILE
360
20
  3
SPECULARTILE
360
1D
  0
DICTIONARY
  5
12
330
11
100
AcDbDictionary
280
     1
281
     1
  3
BUMPTILE
360
14
  3
DIFFUSETILE
360
13
  3
OPACITYTILE
360
17
  3
REFLECTIONTILE
360
16
  3
REFRACTIONTILE
360
18
  3
SPECULARTILE
360
15
  0
DICTIONARY
  5
22
330
21
100
AcDbDictionary
280
     1
281
     1
  3
BUMPTILE
360
24
  3
DIFFUSETILE
360
23
  3
OPACITYTILE
360
27
  3
REFLECTIONTILE
360
26
  3
REFRACTIONTILE
360
28
  3
SPECULARTILE
360
25
  0
DICTIONARY
  5
374
330
69
100
AcDbDictionary
280
     1
281
     1
  3
ACAD_XREC_ROUNDTRIP
360
375
  0
DICTIONARY
  5
371
330
65
100
AcDbDictionary
280
     1
281
     1
  3
ACAD_ROUNDTRIP_2008_TABLESTYLE_CELLSTYLEMAP
360
372
  0
XRECORD
  5
377
102
{ACAD_REACTORS
330
376
102
}
330
376
100
AcDbXrecord
280
     1
102
DISPLAYNAME
  1
Imperial24
102
FLAGS
 90
        0
  0
XRECORD
  5
1C
102
{ACAD_REACTORS
330
1A
102
}
330
1A
100
AcDbXrecord
280
     1
270
     1
271
     1
  0
XRECORD
  5
1B
102
{ACAD_REACTORS
330
1A
102
}
330
1A
100
AcDbXrecord
280
     1
270
     1
271
     1
  0
XRECORD
  5
1F
102
{ACAD_REACTORS
330
1A
102
}
330
1A
100
AcDbXrecord
280
     1
270
     1
271
     1
  0
XRECORD
  5
1E
102
{ACAD_REACTORS
330
1A
102
}
330
1A
100
AcDbXrecord
280
     1
270
     1
271
     1
  0
XRECORD
  5
20
102
{ACAD_REACTORS
330
1A
102
}
330
1A
100
AcDbXrecord
280
     1
270
     1
271
     1
  0
XRECORD
  5
1D
102
{ACAD_REACTORS
330
1A
102
}
330
1A
100
AcDbXrecord
280
     1
270
     1
271
     1
  0
XRECORD
  5
14
102
{ACAD_REACTORS
330
12
102
}
330
12
100
AcDbXrecord
280
     1
270
     1
271
     1
  0
XRECORD
  5
13
102
{ACAD_REACTORS
330
12
102
}
330
12
100
AcDbXrecord
280
     1
270
     1
271
     1
  0
XRECORD
  5
17
102
{ACAD_REACTORS
330
12
102
}
330
12
100
AcDbXrecord
280
     1
270
     1
271
     1
  0
XRECORD
  5
16
102
{ACAD_REACTORS
330
12
102
}
330
12
100
AcDbXrecord
280
     1
270
     1
271
     1
  0
XRECORD
  5
18
102
{ACAD_REACTORS
330
12
102
}
330
12
100
AcDbXrecord
280
     1
270
     1
271
     1
  0
XRECORD
  5
15
102
{ACAD_REACTORS
330
12
102
}
330
12
100
AcDbXrecord
280
     1
270
     1
271
     1
  0
XRECORD
  5
24
102
{ACAD_REACTORS
330
22
102
}
330
22
100
AcDbXrecord
280
     1
270
     1
271
     1
  0
XRECORD
  5
23
102
{ACAD_REACTORS
330
22
102
}
330
22
100
AcDbXrecord
280
     1
270
     1
271
     1
  0
XRECORD
  5
27
102
{ACAD_REACTORS
330
22
102
}
330
22
100
AcDbXrecord
280
     1
270
     1
271
     1
  0
XRECORD
  5
26
102
{ACAD_REACTORS
330
22
102
}
330
22
100
AcDbXrecord
280
     1
270
     1
271
     1
  0
XRECORD
  5
28
102
{ACAD_REACTORS
330
22
102
}
330
22
100
AcDbXrecord
280
     1
270
     1
271
     1
  0
XRECORD
  5
25
102
{ACAD_REACTORS
330
22
102
}
330
22
100
AcDbXrecord
280
     1
270
     1
271
     1
  0
XRECORD
  5
375
102
{ACAD_REACTORS
330
374
102
}
330
374
100
AcDbXrecord
280
     1
102
DISPLAYNAME
  1
Imperial24
102
FLAGS
 90
        0
  0
CELLSTYLEMAP
  5
372
102
{ACAD_REACTORS
330
371
102
}
330
371
100
AcDbCellStyleMap
 90
        3
300
CELLSTYLE
  1
TABLEFORMAT_BEGIN
 90
        5
170
     1
 91
        0
 92
    32768
 62
   257
 93
        1
300
CONTENTFORMAT
  1
CONTENTFORMAT_BEGIN
 90
        0
 91
        0
 92
      512
 93
        0
300

 40
0.0
140
1.0
 94
        5
 62
     0
340
55
144
0.25
309
CONTENTFORMAT_END
171
     0
 94
        0
309
TABLEFORMAT_END
  1
CELLSTYLE_BEGIN
 90
        1
 91
        1
300
_TITLE
309
CELLSTYLE_END
300
CELLSTYLE
  1
TABLEFORMAT_BEGIN
 90
        5
170
     1
 91
        0
 92
        0
 62
   257
 93
        1
300
CONTENTFORMAT
  1
CONTENTFORMAT_BEGIN
 90
        0
 91
        0
 92
      512
 93
        0
300

 40
0.0
140
1.0
 94
        5
 62
     0
340
55
144
0.18
309
CONTENTFORMAT_END
171
     0
 94
        0
309
TABLEFORMAT_END
  1
CELLSTYLE_BEGIN
 90
        2
 91
        1
300
_HEADER
309
CELLSTYLE_END
300
CELLSTYLE
  1
TABLEFORMAT_BEGIN
 90
        5
170
     1
 91
        0
 92
        0
 62
   257
 93
        1
300
CONTENTFORMAT
  1
CONTENTFORMAT_BEGIN
 90
        0
 91
        0
 92
      512
 93
        0
300

 40
0.0
140
1.0
 94
        2
 62
     0
340
55
144
0.18
309
CONTENTFORMAT_END
171
     0
 94
        0
309
TABLEFORMAT_END
  1
CELLSTYLE_BEGIN
 90
        3
 91
        2
300
_DATA
309
CELLSTYLE_END
  0
ENDSEC
  0
EOF
