  0
SECTION
  2
HEADER
  9
$ACADVER
  1
AC1027
  9
$ACADMAINTVER
 70
   125
  9
$DWGCODEPAGE
  3
ANSI_1252
  9
$LASTSAVEDBY
  1
ufficio.tecnico
  9
$REQUIREDVERSIONS
160
                 0
  9
$INSBASE
 10
0.0
 20
0.0
 30
0.0
  9
$EXTMIN
 10
6.748700898920462
 20
-18.85309930562072
 30
0.0
  9
$EXTMAX
 10
14.94313692728123
 20
-16.93722804673153
 30
0.0
  9
$LIMMIN
 10
0.0
 20
0.0
  9
$LIMMAX
 10
12.0
 20
9.0
  9
$ORTHOMODE
 70
     0
  9
$REGENMODE
 70
     1
  9
$FILLMODE
 70
     1
  9
$QTEXTMODE
 70
     0
  9
$MIRRTEXT
 70
     0
  9
$LTSCALE
 40
1.0
  9
$ATTMODE
 70
     1
  9
$TEXTSIZE
 40
0.2
  9
$TRACEWID
 40
0.05
  9
$TEXTSTYLE
  7
Standard
  9
$CLAYER
  8
0
  9
$CELTYPE
  6
ByLayer
  9
$CECOLOR
 62
   256
  9
$CELTSCALE
 40
1.0
  9
$DISPSILH
 70
     0
  9
$DIMSCALE
 40
1.0
  9
$DIMASZ
 40
0.18
  9
$DIMEXO
 40
0.0625
  9
$DIMDLI
 40
0.38
  9
$DIMRND
 40
0.0
  9
$DIMDLE
 40
0.0
  9
$DIMEXE
 40
0.18
  9
$DIMTP
 40
0.0
  9
$DIMTM
 40
0.0
  9
$DIMTXT
 40
0.18
  9
$DIMCEN
 40
0.09
  9
$DIMTSZ
 40
0.0
  9
$DIMTOL
 70
     0
  9
$DIMLIM
 70
     0
  9
$DIMTIH
 70
     1
  9
$DIMTOH
 70
     1
  9
$DIMSE1
 70
     0
  9
$DIMSE2
 70
     0
  9
$DIMTAD
 70
     0
  9
$DIMZIN
 70
     0
  9
$DIMBLK
  1

  9
$DIMASO
 70
     1
  9
$DIMSHO
 70
     1
  9
$DIMPOST
  1

  9
$DIMAPOST
  1

  9
$DIMALT
 70
     0
  9
$DIMALTD
 70
     2
  9
$DIMALTF
 40
25.4
  9
$DIMLFAC
 40
1.0
  9
$DIMTOFL
 70
     0
  9
$DIMTVP
 40
0.0
  9
$DIMTIX
 70
     0
  9
$DIMSOXD
 70
     0
  9
$DIMSAH
 70
     0
  9
$DIMBLK1
  1

  9
$DIMBLK2
  1

  9
$DIMSTYLE
  2
Standard
  9
$DIMCLRD
 70
     0
  9
$DIMCLRE
 70
     0
  9
$DIMCLRT
 70
     0
  9
$DIMTFAC
 40
1.0
  9
$DIMGAP
 40
0.09
  9
$DIMJUST
 70
     0
  9
$DIMSD1
 70
     0
  9
$DIMSD2
 70
     0
  9
$DIMTOLJ
 70
     1
  9
$DIMTZIN
 70
     0
  9
$DIMALTZ
 70
     0
  9
$DIMALTTZ
 70
     0
  9
$DIMUPT
 70
     0
  9
$DIMDEC
 70
     4
  9
$DIMTDEC
 70
     4
  9
$DIMALTU
 70
     2
  9
$DIMALTTD
 70
     2
  9
$DIMTXSTY
  7
Standard
  9
$DIMAUNIT
 70
     0
  9
$DIMADEC
 70
     0
  9
$DIMALTRND
 40
0.0
  9
$DIMAZIN
 70
     0
  9
$DIMDSEP
 70
    46
  9
$DIMATFIT
 70
     3
  9
$DIMFRAC
 70
     0
  9
$DIMLDRBLK
  1

  9
$DIMLUNIT
 70
     2
  9
$DIMLWD
 70
    -2
  9
$DIMLWE
 70
    -2
  9
$DIMTMOVE
 70
     0
  9
$DIMFXL
 40
1.0
  9
$DIMFXLON
 70
     0
  9
$DIMJOGANG
 40
0.7853981633974483
  9
$DIMTFILL
 70
     0
  9
$DIMTFILLCLR
 70
     0
  9
$DIMARCSYM
 70
     0
  9
$DIMLTYPE
  6

  9
$DIMLTEX1
  6

  9
$DIMLTEX2
  6

  9
$DIMTXTDIRECTION
 70
     0
  9
$LUNITS
 70
     2
  9
$LUPREC
 70
     4
  9
$SKETCHINC
 40
0.1
  9
$FILLETRAD
 40
0.0
  9
$AUNITS
 70
     0
  9
$AUPREC
 70
     0
  9
$MENU
  1
.
  9
$ELEVATION
 40
0.0
  9
$PELEVATION
 40
0.0
  9
$THICKNESS
 40
0.0
  9
$LIMCHECK
 70
     0
  9
$CHAMFERA
 40
0.0
  9
$CHAMFERB
 40
0.0
  9
$CHAMFERC
 40
0.0
  9
$CHAMFERD
 40
0.0
  9
$SKPOLY
 70
     0
  9
$TDCREATE
 40
2459858.677291667
  9
$TDUCREATE
 40
2459858.593958333
  9
$TDUPDATE
 40
2459864.600682871
  9
$TDUUPDATE
 40
2459864.517349537
  9
$TDINDWG
 40
0.0025000000
  9
$TDUSRTIMER
 40
0.0025000000
  9
$USRTIMER
 70
     1
  9
$ANGBASE
 50
0.0
  9
$ANGDIR
 70
     0
  9
$PDMODE
 70
     0
  9
$PDSIZE
 40
0.0
  9
$PLINEWID
 40
0.0
  9
$SPLFRAME
 70
     0
  9
$SPLINETYPE
 70
     6
  9
$SPLINESEGS
 70
     8
  9
$HANDSEED
  5
1E4
  9
$SURFTAB1
 70
     6
  9
$SURFTAB2
 70
     6
  9
$SURFTYPE
 70
     6
  9
$SURFU
 70
     6
  9
$SURFV
 70
     6
  9
$UCSBASE
  2

  9
$UCSNAME
  2

  9
$UCSORG
 10
0.0
 20
0.0
 30
0.0
  9
$UCSXDIR
 10
1.0
 20
0.0
 30
0.0
  9
$UCSYDIR
 10
0.0
 20
1.0
 30
0.0
  9
$UCSORTHOREF
  2

  9
$UCSORTHOVIEW
 70
     0
  9
$UCSORGTOP
 10
0.0
 20
0.0
 30
0.0
  9
$UCSORGBOTTOM
 10
0.0
 20
0.0
 30
0.0
  9
$UCSORGLEFT
 10
0.0
 20
0.0
 30
0.0
  9
$UCSORGRIGHT
 10
0.0
 20
0.0
 30
0.0
  9
$UCSORGFRONT
 10
0.0
 20
0.0
 30
0.0
  9
$UCSORGBACK
 10
0.0
 20
0.0
 30
0.0
  9
$PUCSBASE
  2

  9
$PUCSNAME
  2

  9
$PUCSORG
 10
0.0
 20
0.0
 30
0.0
  9
$PUCSXDIR
 10
1.0
 20
0.0
 30
0.0
  9
$PUCSYDIR
 10
0.0
 20
1.0
 30
0.0
  9
$PUCSORTHOREF
  2

  9
$PUCSORTHOVIEW
 70
     0
  9
$PUCSORGTOP
 10
0.0
 20
0.0
 30
0.0
  9
$PUCSORGBOTTOM
 10
0.0
 20
0.0
 30
0.0
  9
$PUCSORGLEFT
 10
0.0
 20
0.0
 30
0.0
  9
$PUCSORGRIGHT
 10
0.0
 20
0.0
 30
0.0
  9
$PUCSORGFRONT
 10
0.0
 20
0.0
 30
0.0
  9
$PUCSORGBACK
 10
0.0
 20
0.0
 30
0.0
  9
$USERI1
 70
     0
  9
$USERI2
 70
     0
  9
$USERI3
 70
     0
  9
$USERI4
 70
     0
  9
$USERI5
 70
     0
  9
$USERR1
 40
0.0
  9
$USERR2
 40
0.0
  9
$USERR3
 40
0.0
  9
$USERR4
 40
0.0
  9
$USERR5
 40
0.0
  9
$WORLDVIEW
 70
     1
  9
$SHADEDGE
 70
     3
  9
$SHADEDIF
 70
    70
  9
$TILEMODE
 70
     1
  9
$MAXACTVP
 70
    64
  9
$PINSBASE
 10
0.0
 20
0.0
 30
0.0
  9
$PLIMCHECK
 70
     0
  9
$PEXTMIN
 10
1.000000000000000E+20
 20
1.000000000000000E+20
 30
1.000000000000000E+20
  9
$PEXTMAX
 10
-1.000000000000000E+20
 20
-1.000000000000000E+20
 30
-1.000000000000000E+20
  9
$PLIMMIN
 10
0.0
 20
0.0
  9
$PLIMMAX
 10
12.0
 20
9.0
  9
$UNITMODE
 70
     0
  9
$VISRETAIN
 70
     1
  9
$PLINEGEN
 70
     0
  9
$PSLTSCALE
 70
     1
  9
$TREEDEPTH
 70
  3020
  9
$CMLSTYLE
  2
Standard
  9
$CMLJUST
 70
     0
  9
$CMLSCALE
 40
1.0
  9
$PROXYGRAPHICS
 70
     1
  9
$MEASUREMENT
 70
     0
  9
$CELWEIGHT
370
    -1
  9
$ENDCAPS
280
     0
  9
$JOINSTYLE
280
     0
  9
$LWDISPLAY
290
     1
  9
$INSUNITS
 70
     5
  9
$HYPERLINKBASE
  1

  9
$STYLESHEET
  1

  9
$XEDIT
290
     1
  9
$CEPSNTYPE
380
     0
  9
$PSTYLEMODE
290
     1
  9
$FINGERPRINTGUID
  2
{E0E543F1-CD44-9741-B52D-BD2BB3F64361}
  9
$VERSIONGUID
  2
{E2A0D91C-5E56-9D4C-8B73-C81D7583D9E0}
  9
$EXTNAMES
290
     1
  9
$PSVPSCALE
 40
0.0
  9
$OLESTARTUP
290
     0
  9
$SORTENTS
280
   127
  9
$INDEXCTL
280
     0
  9
$HIDETEXT
280
     1
  9
$XCLIPFRAME
280
     2
  9
$HALOGAP
280
     0
  9
$OBSCOLOR
 70
   257
  9
$OBSLTYPE
280
     0
  9
$INTERSECTIONDISPLAY
280
     0
  9
$INTERSECTIONCOLOR
 70
   257
  9
$DIMASSOC
280
     2
  9
$PROJECTNAME
  1

  9
$CAMERADISPLAY
290
     0
  9
$LENSLENGTH
 40
50.0
  9
$CAMERAHEIGHT
 40
0.0
  9
$STEPSPERSEC
 40
2.0
  9
$STEPSIZE
 40
6.0
  9
$3DDWFPREC
 40
2.0
  9
$PSOLWIDTH
 40
0.25
  9
$PSOLHEIGHT
 40
4.0
  9
$LOFTANG1
 40
1.570796326794896
  9
$LOFTANG2
 40
1.570796326794896
  9
$LOFTMAG1
 40
0.0
  9
$LOFTMAG2
 40
0.0
  9
$LOFTPARAM
 70
     7
  9
$LOFTNORMALS
280
     1
  9
$LATITUDE
 40
37.795
  9
$LONGITUDE
 40
-122.394
  9
$NORTHDIRECTION
 40
0.0
  9
$TIMEZONE
 70
 -8000
  9
$LIGHTGLYPHDISPLAY
280
     1
  9
$TILEMODELIGHTSYNCH
280
     1
  9
$CMATERIAL
347
11
  9
$SOLIDHIST
280
     0
  9
$SHOWHIST
280
     1
  9
$DWFFRAME
280
     2
  9
$DGNFRAME
280
     0
  9
$REALWORLDSCALE
290
     1
  9
$INTERFERECOLOR
 62
     1
  9
$INTERFEREOBJVS
345
33
  9
$INTERFEREVPVS
346
30
  9
$CSHADOW
280
     0
  9
$SHADOWPLANELOCATION
 40
0.0
  0
ENDSEC
  0
SECTION
  2
CLASSES
  0
CLASS
  1
ACDBDICTIONARYWDFLT
  2
AcDbDictionaryWithDefault
  3
ObjectDBX Classes
 90
        0
 91
        1
280
     0
281
     0
  0
CLASS
  1
MATERIAL
  2
AcDbMaterial
  3
ObjectDBX Classes
 90
     1153
 91
        3
280
     0
281
     0
  0
CLASS
  1
VISUALSTYLE
  2
AcDbVisualStyle
  3
ObjectDBX Classes
 90
     4095
 91
       24
280
     0
281
     0
  0
CLASS
  1
SCALE
  2
AcDbScale
  3
ObjectDBX Classes
 90
     1153
 91
       17
280
     0
281
     0
  0
CLASS
  1
TABLESTYLE
  2
AcDbTableStyle
  3
ObjectDBX Classes
 90
     4095
 91
        1
280
     0
281
     0
  0
CLASS
  1
MLEADERSTYLE
  2
AcDbMLeaderStyle
  3
ACDB_MLEADERSTYLE_CLASS
 90
     4095
 91
        1
280
     0
281
     0
  0
CLASS
  1
ACDBSECTIONVIEWSTYLE
  2
AcDbSectionViewStyle
  3
ObjectDBX Classes
 90
     1025
 91
        1
280
     0
281
     0
  0
CLASS
  1
ACDBDETAILVIEWSTYLE
  2
AcDbDetailViewStyle
  3
ObjectDBX Classes
 90
     1025
 91
        1
280
     0
281
     0
  0
CLASS
  1
DICTIONARYVAR
  2
AcDbDictionaryVar
  3
ObjectDBX Classes
 90
        0
 91
        5
280
     0
281
     0
  0
CLASS
  1
SORTENTSTABLE
  2
AcDbSortentsTable
  3
ObjectDBX Classes
 90
        0
 91
        3
280
     0
281
     0
  0
CLASS
  1
CELLSTYLEMAP
  2
AcDbCellStyleMap
  3
ObjectDBX Classes
 90
     1152
 91
        2
280
     0
281
     0
  0
ENDSEC
  0
SECTION
  2
TABLES
  0
TABLE
  2
VPORT
  5
8
330
0
100
AcDbSymbolTable
 70
     1
1001
ACAD
1000
DbSaveVer
1071
      249
  0
VPORT
  5
57
330
8
100
AcDbSymbolTableRecord
100
AcDbViewportTableRecord
  2
*Active
 70
     0
 10
0.0
 20
0.0
 11
1.0
 21
1.0
 12
-0.5662701844745186
 22
-4.817003808268136
 13
0.0
 23
0.0
 14
1.0
 24
1.0
 15
0.0
 25
0.0
 16
0.0
 26
0.0
 36
1.0
 17
10.50000721959722
 27
-14.85000416295415
 37
0.0
 40
19.66402529520426
 41
1.855329949238578
 42
50.0
 43
0.0
 44
0.0
 50
0.0
 51
0.0
 71
     0
 72
   100
 73
     1
 74
     1
 75
     0
 76
     0
 77
     0
 78
     0
281
     0
 65
     1
110
0.0
120
0.0
130
0.0
111
1.0
121
0.0
131
0.0
112
0.0
122
1.0
132
0.0
 79
     0
146
0.0
348
2F
 60
     3
 61
     5
292
     1
282
     1
141
0.0
142
0.0
 63
   250
421
  3355443
1001
ACAD_NAV_VCDISPLAY
1070
     3
  0
ENDTAB
  0
TABLE
  2
LTYPE
  5
5
330
0
100
AcDbSymbolTable
 70
     3
  0
LTYPE
  5
5B
330
5
100
AcDbSymbolTableRecord
100
AcDbLinetypeTableRecord
  2
ByBlock
 70
     0
  3

 72
    65
 73
     0
 40
0.0
  0
LTYPE
  5
5C
330
5
100
AcDbSymbolTableRecord
100
AcDbLinetypeTableRecord
  2
ByLayer
 70
     0
  3

 72
    65
 73
     0
 40
0.0
  0
LTYPE
  5
5D
330
5
100
AcDbSymbolTableRecord
100
AcDbLinetypeTableRecord
  2
Continuous
 70
     0
  3
Solid line
 72
    65
 73
     0
 40
0.0
  0
ENDTAB
  0
TABLE
  2
LAYER
  5
2
330
0
100
AcDbSymbolTable
 70
     2
  0
LAYER
  5
54
330
2
100
AcDbSymbolTableRecord
100
AcDbLayerTableRecord
  2
0
 70
     0
 62
     7
  6
Continuous
370
    -3
390
F
347
21
348
0
  0
LAYER
  5
78
330
2
100
AcDbSymbolTableRecord
100
AcDbLayerTableRecord
  2
Livello 1
 70
     0
 62
     7
  6
Continuous
370
     0
390
F
347
21
348
0
  0
ENDTAB
  0
TABLE
  2
STYLE
  5
3
330
0
100
AcDbSymbolTable
 70
     2
  0
STYLE
  5
55
330
3
100
AcDbSymbolTableRecord
100
AcDbTextStyleTableRecord
  2
Standard
 70
     0
 40
0.0
 41
1.0
 50
0.0
 71
     0
 42
0.2
  3
txt
  4

  0
STYLE
  5
5A
330
3
100
AcDbSymbolTableRecord
100
AcDbTextStyleTableRecord
  2
Annotative
 70
     0
 40
0.0
 41
1.0
 50
0.0
 71
     0
 42
0.2
  3
txt
  4

1001
AcadAnnotative
1000
AnnotativeData
1002
{
1070
     1
1070
     1
1002
}
  0
ENDTAB
  0
TABLE
  2
VIEW
  5
6
330
0
100
AcDbSymbolTable
 70
     0
  0
ENDTAB
  0
TABLE
  2
UCS
  5
7
330
0
100
AcDbSymbolTable
 70
     0
  0
ENDTAB
  0
TABLE
  2
APPID
  5
9
330
0
100
AcDbSymbolTable
 70
     4
  0
APPID
  5
56
330
9
100
AcDbSymbolTableRecord
100
AcDbRegAppTableRecord
  2
ACAD
 70
     0
  0
APPID
  5
5E
330
9
100
AcDbSymbolTableRecord
100
AcDbRegAppTableRecord
  2
AcadAnnotative
 70
     0
  0
APPID
  5
1B9
330
9
100
AcDbSymbolTableRecord
100
AcDbRegAppTableRecord
  2
ACAD_EXEMPT_FROM_CAD_STANDARDS
 70
     0
  0
APPID
  5
1C5
330
9
100
AcDbSymbolTableRecord
100
AcDbRegAppTableRecord
  2
ACAD_NAV_VCDISPLAY
 70
     0
  0
ENDTAB
  0
TABLE
  2
DIMSTYLE
  5
A
330
0
100
AcDbSymbolTable
 70
     3
100
AcDbDimStyleTable
 71
     1
340
58
  0
DIMSTYLE
105
58
330
A
100
AcDbSymbolTableRecord
100
AcDbDimStyleTableRecord
  2
Standard
 70
     0
340
55
  0
DIMSTYLE
105
59
330
A
100
AcDbSymbolTableRecord
100
AcDbDimStyleTableRecord
  2
Annotative
 70
     0
340
55
1001
AcadAnnotative
1000
AnnotativeData
1002
{
1070
     1
1070
     1
1002
}
  0
ENDTAB
  0
TABLE
  2
BLOCK_RECORD
  5
1
330
0
100
AcDbSymbolTable
 70
    16
  0
BLOCK_RECORD
  5
70
102
{ACAD_XDICTIONARY
360
179
102
}
330
1
100
AcDbSymbolTableRecord
100
AcDbBlockTableRecord
  2
*Model_Space
340
73
 70
     0
280
     1
281
     0
  0
BLOCK_RECORD
  5
6C
330
1
100
AcDbSymbolTableRecord
100
AcDbBlockTableRecord
  2
*Paper_Space
340
6F
 70
     0
280
     1
281
     0
  0
BLOCK_RECORD
  5
74
330
1
100
AcDbSymbolTableRecord
100
AcDbBlockTableRecord
  2
*Paper_Space0
340
77
 70
     0
280
     1
281
     0
  0
BLOCK_RECORD
  5
7B
330
1
100
AcDbSymbolTableRecord
100
AcDbBlockTableRecord
  2
Block_0
340
0
 70
     0
280
     1
281
     0
  0
BLOCK_RECORD
  5
7F
330
1
100
AcDbSymbolTableRecord
100
AcDbBlockTableRecord
  2
Block_1
340
0
102
{BLKREFS
331
80
102
}
 70
     0
280
     1
281
     0
  0
BLOCK_RECORD
  5
8E
330
1
100
AcDbSymbolTableRecord
100
AcDbBlockTableRecord
  2
Block_2
340
0
 70
     0
280
     1
281
     0
  0
BLOCK_RECORD
  5
95
330
1
100
AcDbSymbolTableRecord
100
AcDbBlockTableRecord
  2
Block_3
340
0
 70
     0
280
     1
281
     0
  0
BLOCK_RECORD
  5
9C
330
1
100
AcDbSymbolTableRecord
100
AcDbBlockTableRecord
  2
Block_4
340
0
 70
     0
280
     1
281
     0
  0
BLOCK_RECORD
  5
A0
330
1
100
AcDbSymbolTableRecord
100
AcDbBlockTableRecord
  2
Block_5
340
0
102
{BLKREFS
331
A1
102
}
 70
     0
280
     1
281
     0
  0
BLOCK_RECORD
  5
A9
330
1
100
AcDbSymbolTableRecord
100
AcDbBlockTableRecord
  2
Block_6
340
0
 70
     0
280
     1
281
     0
  0
BLOCK_RECORD
  5
B0
330
1
100
AcDbSymbolTableRecord
100
AcDbBlockTableRecord
  2
Block_7
340
0
 70
     0
280
     1
281
     0
  0
BLOCK_RECORD
  5
B7
330
1
100
AcDbSymbolTableRecord
100
AcDbBlockTableRecord
  2
Block_8
340
0
 70
     0
280
     1
281
     0
  0
BLOCK_RECORD
  5
BB
330
1
100
AcDbSymbolTableRecord
100
AcDbBlockTableRecord
  2
Block_9
340
0
102
{BLKREFS
331
BC
102
}
 70
     0
280
     1
281
     0
  0
BLOCK_RECORD
  5
C4
330
1
100
AcDbSymbolTableRecord
100
AcDbBlockTableRecord
  2
Block_10
340
0
 70
     0
280
     1
281
     0
  0
BLOCK_RECORD
  5
CB
330
1
100
AcDbSymbolTableRecord
100
AcDbBlockTableRecord
  2
Block_11
340
0
 70
     0
280
     1
281
     0
  0
ENDTAB
  0
ENDSEC
  0
SECTION
  2
BLOCKS
  0
BLOCK
  5
71
330
70
100
AcDbEntity
  8
0
100
AcDbBlockBegin
  2
*Model_Space
 70
     0
 10
0.0
 20
0.0
 30
0.0
  3
*Model_Space
  1

  0
ENDBLK
  5
72
330
70
100
AcDbEntity
  8
0
100
AcDbBlockEnd
  0
BLOCK
  5
6D
330
6C
100
AcDbEntity
 67
     1
  8
0
100
AcDbBlockBegin
  2
*Paper_Space
 70
     0
 10
0.0
 20
0.0
 30
0.0
  3
*Paper_Space
  1

  0
ENDBLK
  5
6E
330
6C
100
AcDbEntity
 67
     1
  8
0
100
AcDbBlockEnd
  0
BLOCK
  5
75
330
74
100
AcDbEntity
 67
     1
  8
0
100
AcDbBlockBegin
  2
*Paper_Space0
 70
     0
 10
0.0
 20
0.0
 30
0.0
  3
*Paper_Space0
  1

  0
ENDBLK
  5
76
330
74
100
AcDbEntity
 67
     1
  8
0
100
AcDbBlockEnd
  0
BLOCK
  5
7D
330
7B
100
AcDbEntity
  8
0
100
AcDbBlockBegin
  2
Block_0
 70
     0
 10
0.0
 20
0.0
 30
0.0
  3
Block_0
  1

  0
INSERT
  5
80
330
7B
100
AcDbEntity
  8
Livello 1
100
AcDbBlockReference
  2
Block_1
 10
0.0
 20
0.0
 30
0.0
  0
ENDBLK
  5
7E
330
7B
100
AcDbEntity
  8
0
100
AcDbBlockEnd
  0
BLOCK
  5
81
330
7F
100
AcDbEntity
  8
0
100
AcDbBlockBegin
  2
Block_1
 70
     0
 10
0.0
 20
0.0
 30
0.0
  3
Block_1
  1

  0
SPLINE
  5
83
330
7F
100
AcDbEntity
  8
Livello 1
100
AcDbSpline
210
0.0
220
0.0
230
1.0
 70
     9
 71
     3
 72
    17
 73
    13
 74
     0
 42
0.000000001
 43
0.0000000001
 40
0.0
 40
0.0
 40
0.0
 40
0.0
 40
1.0
 40
1.0
 40
1.0
 40
2.0
 40
2.0
 40
2.0
 40
3.0
 40
3.0
 40
3.0
 40
4.0
 40
4.0
 40
4.0
 40
4.0
 10
10.06989352504329
 20
-18.12509521031247
 30
0.0
 10
10.07668036314923
 20
-18.13357014520619
 30
0.0
 10
10.08710177699211
 20
-18.13939235657626
 30
0.0
 10
10.10065822772657
 20
-18.13939235657626
 30
0.0
 10
10.12997599030605
 20
-18.13939235657626
 30
0.0
 10
10.1445142932538
 20
-18.11272731752042
 30
0.0
 10
10.1445142932538
 20
-18.08609672941944
 30
0.0
 10
10.1445142932538
 20
-18.0744523066793
 30
0.0
 10
10.14184434425273
 20
-18.06308349157798
 30
0.0
 10
10.13602213288266
 20
-18.05364392994839
 30
0.0
 10
10.13602213288266
 20
-18.05364392994839
 30
0.0
 10
10.06989352504329
 20
-18.12509521031247
 30
0.0
 10
10.06989352504329
 20
-18.12509521031247
 30
0.0
  0
SPLINE
  5
84
330
7F
100
AcDbEntity
  8
Livello 1
100
AcDbSpline
210
0.0
220
0.0
230
1.0
 70
     9
 71
     3
 72
    17
 73
    13
 74
     0
 42
0.000000001
 43
0.0000000001
 40
0.0
 40
0.0
 40
0.0
 40
0.0
 40
1.0
 40
1.0
 40
1.0
 40
2.0
 40
2.0
 40
2.0
 40
3.0
 40
3.0
 40
3.0
 40
4.0
 40
4.0
 40
4.0
 40
4.0
 10
10.13166408709382
 20
-18.04733940521039
 30
0.0
 10
10.12465331778133
 20
-18.0386233136327
 30
0.0
 10
10.11423190393845
 20
-18.03280110226263
 30
0.0
 10
10.10065822772657
 20
-18.03280110226263
 30
0.0
 10
10.07135769062452
 20
-18.03280110226263
 30
0.0
 10
10.05681938767676
 20
-18.05943169036361
 30
0.0
 10
10.05681938767676
 20
-18.08609672941944
 30
0.0
 10
10.05681938767676
 20
-18.09770670120474
 30
0.0
 10
10.05948933667783
 20
-18.10910996726091
 30
0.0
 10
10.06553547925445
 20
-18.11879068557447
 30
0.0
 10
10.06553547925445
 20
-18.11879068557447
 30
0.0
 10
10.13166408709382
 20
-18.04733940521039
 30
0.0
 10
10.13166408709382
 20
-18.04733940521039
 30
0.0
  0
SPLINE
  5
85
330
7F
100
AcDbEntity
  8
Livello 1
100
AcDbSpline
210
0.0
220
0.0
230
1.0
 70
    11
 71
     3
 72
    41
 73
    37
 74
     0
 42
0.000000001
 43
0.0000000001
 40
0.0
 40
0.0
 40
0.0
 40
0.0
 40
1.0
 40
1.0
 40
1.0
 40
2.0
 40
2.0
 40
2.0
 40
3.0
 40
3.0
 40
3.0
 40
4.0
 40
4.0
 40
4.0
 40
5.0
 40
5.0
 40
5.0
 40
6.0
 40
6.0
 40
6.0
 40
7.0
 40
7.0
 40
7.0
 40
8.0
 40
8.0
 40
8.0
 40
9.0
 40
9.0
 40
9.0
 40
10.0
 40
10.0
 40
10.0
 40
11.0
 40
11.0
 40
11.0
 40
12.0
 40
12.0
 40
12.0
 40
12.0
 10
10.15977606625346
 20
-18.02770236094446
 30
0.0
 10
10.15977606625346
 20
-18.02770236094446
 30
0.0
 10
10.14668470340951
 20
-18.04199950720825
 30
0.0
 10
10.14668470340951
 20
-18.04199950720825
 30
0.0
 10
10.15541802046461
 20
-18.05412624331633
 30
0.0
 10
10.15977606625346
 20
-18.06962917299995
 30
0.0
 10
10.15977606625346
 20
-18.08609672941944
 30
0.0
 10
10.15977606625346
 20
-18.12192572246604
 30
0.0
 10
10.1389332385677
 20
-18.15220811178139
 30
0.0
 10
10.10065822772657
 20
-18.15220811178139
 30
0.0
 10
10.08346720125517
 20
-18.15220811178139
 30
0.0
 10
10.06965236835932
 20
-18.14614474372735
 30
0.0
 10
10.05997165004577
 20
-18.13574055536189
 30
0.0
 10
10.05997165004577
 20
-18.13574055536189
 30
0.0
 10
10.04567450378198
 20
-18.15124348504552
 30
0.0
 10
10.04567450378198
 20
-18.15124348504552
 30
0.0
 10
10.04567450378198
 20
-18.15124348504552
 30
0.0
 10
10.04035183125727
 20
-18.14638590041132
 30
0.0
 10
10.04035183125727
 20
-18.14638590041132
 30
0.0
 10
10.04035183125727
 20
-18.14638590041132
 30
0.0
 10
10.05513129088899
 20
-18.13015950067579
 30
0.0
 10
10.05513129088899
 20
-18.13015950067579
 30
0.0
 10
10.04615681714992
 20
-18.1185495288905
 30
0.0
 10
10.04155761467711
 20
-18.10280544252291
 30
0.0
 10
10.04155761467711
 20
-18.08609672941944
 30
0.0
 10
10.04155761467711
 20
-18.05023328541799
 30
0.0
 10
10.06240044236287
 20
-18.01995089610265
 30
0.0
 10
10.10065822772657
 20
-18.01995089610265
 30
0.0
 10
10.11810763635936
 20
-18.01995089610265
 30
0.0
 10
10.13216362593918
 20
-18.02625542084065
 30
0.0
 10
10.14184434425273
 20
-18.03641845252214
 30
0.0
 10
10.14184434425273
 20
-18.03641845252214
 30
0.0
 10
10.15443616825132
 20
-18.02287922726511
 30
0.0
 10
10.15443616825132
 20
-18.02287922726511
 30
0.0
 10
10.15443616825132
 20
-18.02287922726511
 30
0.0
 10
10.15977606625346
 20
-18.02770236094446
 30
0.0
 10
10.15977606625346
 20
-18.02770236094446
 30
0.0
  0
HATCH
  5
86
330
7F
100
AcDbEntity
  8
Livello 1
 62
    18
420
        0
440
 33554687
100
AcDbHatch
 10
0.0
 20
0.0
 30
0.0
210
0.0
220
0.0
230
1.0
  2
SOLID
 70
     1
 71
     1
 91
        3
 92
        1
 93
        1
 72
     4
 94
        3
 73
     0
 74
     0
 95
       17
 96
       13
 40
0.0
 40
0.0
 40
0.0
 40
0.0
 40
1.0
 40
1.0
 40
1.0
 40
2.0
 40
2.0
 40
2.0
 40
3.0
 40
3.0
 40
3.0
 40
4.0
 40
4.0
 40
4.0
 40
4.0
 10
10.06989352504329
 20
-18.12509521031247
 10
10.07668036314923
 20
-18.13357014520619
 10
10.08710177699211
 20
-18.13939235657626
 10
10.10065822772657
 20
-18.13939235657626
 10
10.12997599030605
 20
-18.13939235657626
 10
10.1445142932538
 20
-18.11272731752042
 10
10.1445142932538
 20
-18.08609672941944
 10
10.1445142932538
 20
-18.0744523066793
 10
10.14184434425273
 20
-18.06308349157798
 10
10.13602213288266
 20
-18.05364392994839
 10
10.13602213288266
 20
-18.05364392994839
 10
10.06989352504329
 20
-18.12509521031247
 10
10.06989352504329
 20
-18.12509521031247
 97
        0
 97
        1
330
83
 92
        1
 93
        1
 72
     4
 94
        3
 73
     0
 74
     0
 95
       17
 96
       13
 40
0.0
 40
0.0
 40
0.0
 40
0.0
 40
1.0
 40
1.0
 40
1.0
 40
2.0
 40
2.0
 40
2.0
 40
3.0
 40
3.0
 40
3.0
 40
4.0
 40
4.0
 40
4.0
 40
4.0
 10
10.13166408709382
 20
-18.04733940521039
 10
10.12465331778133
 20
-18.0386233136327
 10
10.11423190393845
 20
-18.03280110226263
 10
10.10065822772657
 20
-18.03280110226263
 10
10.07135769062452
 20
-18.03280110226263
 10
10.05681938767676
 20
-18.05943169036361
 10
10.05681938767676
 20
-18.08609672941944
 10
10.05681938767676
 20
-18.09770670120474
 10
10.05948933667783
 20
-18.10910996726091
 10
10.06553547925445
 20
-18.11879068557447
 10
10.06553547925445
 20
-18.11879068557447
 10
10.13166408709382
 20
-18.04733940521039
 10
10.13166408709382
 20
-18.04733940521039
 97
        0
 97
        1
330
84
 92
        1
 93
        1
 72
     4
 94
        3
 73
     0
 74
     0
 95
       41
 96
       37
 40
0.0
 40
0.0
 40
0.0
 40
0.0
 40
1.0
 40
1.0
 40
1.0
 40
2.0
 40
2.0
 40
2.0
 40
3.0
 40
3.0
 40
3.0
 40
4.0
 40
4.0
 40
4.0
 40
5.0
 40
5.0
 40
5.0
 40
6.0
 40
6.0
 40
6.0
 40
7.0
 40
7.0
 40
7.0
 40
8.0
 40
8.0
 40
8.0
 40
9.0
 40
9.0
 40
9.0
 40
10.0
 40
10.0
 40
10.0
 40
11.0
 40
11.0
 40
11.0
 40
12.0
 40
12.0
 40
12.0
 40
12.0
 10
10.15977606625346
 20
-18.02770236094446
 10
10.15977606625346
 20
-18.02770236094446
 10
10.14668470340951
 20
-18.04199950720825
 10
10.14668470340951
 20
-18.04199950720825
 10
10.15541802046461
 20
-18.05412624331633
 10
10.15977606625346
 20
-18.06962917299995
 10
10.15977606625346
 20
-18.08609672941944
 10
10.15977606625346
 20
-18.12192572246604
 10
10.1389332385677
 20
-18.15220811178139
 10
10.10065822772657
 20
-18.15220811178139
 10
10.08346720125517
 20
-18.15220811178139
 10
10.06965236835932
 20
-18.14614474372735
 10
10.05997165004577
 20
-18.13574055536189
 10
10.05997165004577
 20
-18.13574055536189
 10
10.04567450378198
 20
-18.15124348504552
 10
10.04567450378198
 20
-18.15124348504552
 10
10.04567450378198
 20
-18.15124348504552
 10
10.04035183125727
 20
-18.14638590041132
 10
10.04035183125727
 20
-18.14638590041132
 10
10.04035183125727
 20
-18.14638590041132
 10
10.05513129088899
 20
-18.13015950067579
 10
10.05513129088899
 20
-18.13015950067579
 10
10.04615681714992
 20
-18.1185495288905
 10
10.04155761467711
 20
-18.10280544252291
 10
10.04155761467711
 20
-18.08609672941944
 10
10.04155761467711
 20
-18.05023328541799
 10
10.06240044236287
 20
-18.01995089610265
 10
10.10065822772657
 20
-18.01995089610265
 10
10.11810763635936
 20
-18.01995089610265
 10
10.13216362593918
 20
-18.02625542084065
 10
10.14184434425273
 20
-18.03641845252214
 10
10.14184434425273
 20
-18.03641845252214
 10
10.15443616825132
 20
-18.02287922726511
 10
10.15443616825132
 20
-18.02287922726511
 10
10.15443616825132
 20
-18.02287922726511
 10
10.15977606625346
 20
-18.02770236094446
 10
10.15977606625346
 20
-18.02770236094446
 97
        0
 97
        1
330
85
 75
     2
 76
     1
 98
        1
 10
0.0
 20
0.0
450
        0
451
        0
460
0.0
461
0.0
452
        0
462
0.0
453
        0
470

  0
SPLINE
  5
87
330
7F
100
AcDbEntity
  8
Livello 1
100
AcDbSpline
210
0.0
220
0.0
230
1.0
 70
     9
 71
     3
 72
    59
 73
    55
 74
     0
 42
0.000000001
 43
0.0000000001
 40
0.0
 40
0.0
 40
0.0
 40
0.0
 40
1.0
 40
1.0
 40
1.0
 40
2.0
 40
2.0
 40
2.0
 40
3.0
 40
3.0
 40
3.0
 40
4.0
 40
4.0
 40
4.0
 40
5.0
 40
5.0
 40
5.0
 40
6.0
 40
6.0
 40
6.0
 40
7.0
 40
7.0
 40
7.0
 40
8.0
 40
8.0
 40
8.0
 40
9.0
 40
9.0
 40
9.0
 40
10.0
 40
10.0
 40
10.0
 40
11.0
 40
11.0
 40
11.0
 40
12.0
 40
12.0
 40
12.0
 40
13.0
 40
13.0
 40
13.0
 40
14.0
 40
14.0
 40
14.0
 40
15.0
 40
15.0
 40
15.0
 40
16.0
 40
16.0
 40
16.0
 40
17.0
 40
17.0
 40
17.0
 40
18.0
 40
18.0
 40
18.0
 40
18.0
 10
10.25839192451873
 20
-18.09457166431316
 30
0.0
 10
10.25742729778286
 20
-18.12144340909811
 30
0.0
 10
10.27341254083442
 20
-18.13939235657626
 30
0.0
 10
10.30078382446473
 20
-18.13939235657626
 30
0.0
 10
10.3230735922543
 20
-18.13939235657626
 30
0.0
 10
10.3441403511466
 20
-18.12605983704834
 30
0.0
 10
10.3441403511466
 20
-18.10184081578704
 30
0.0
 10
10.3441403511466
 20
-18.0778629512097
 30
0.0
 10
10.32596747246191
 20
-18.06597737178559
 30
0.0
 10
10.3034537734658
 20
-18.06597737178559
 30
0.0
 10
10.3034537734658
 20
-18.06597737178559
 30
0.0
 10
10.29060356730582
 20
-18.06597737178559
 30
0.0
 10
10.29060356730582
 20
-18.06597737178559
 30
0.0
 10
10.29060356730582
 20
-18.06597737178559
 30
0.0
 10
10.29060356730582
 20
-18.05312716562561
 30
0.0
 10
10.29060356730582
 20
-18.05312716562561
 30
0.0
 10
10.29060356730582
 20
-18.05312716562561
 30
0.0
 10
10.3034537734658
 20
-18.05312716562561
 30
0.0
 10
10.3034537734658
 20
-18.05312716562561
 30
0.0
 10
10.31919785983339
 20
-18.05336832230957
 30
0.0
 10
10.33783582640859
 20
-18.04368760399602
 30
0.0
 10
10.33783582640859
 20
-18.02236246294232
 30
0.0
 10
10.33783582640859
 20
-18.00010714610761
 30
0.0
 10
10.32112711330513
 20
-17.9903919768392
 30
0.0
 10
10.30078382446473
 20
-17.9903919768392
 30
0.0
 10
10.27534179430616
 20
-17.9903919768392
 30
0.0
 10
10.2617853435717
 20
-18.00809976763339
 30
0.0
 10
10.26226765693964
 20
-18.03328341563057
 30
0.0
 10
10.26226765693964
 20
-18.03328341563057
 30
0.0
 10
10.24700588393998
 20
-18.03328341563057
 30
0.0
 10
10.24700588393998
 20
-18.03328341563057
 30
0.0
 10
10.24724704062395
 20
-18.00131292952745
 30
0.0
 10
10.26759032946435
 20
-17.97757622163407
 30
0.0
 10
10.30054266778076
 20
-17.97757622163407
 30
0.0
 10
10.32719048135917
 20
-17.97757622163407
 30
0.0
 10
10.35309759940825
 20
-17.99063313352317
 30
0.0
 10
10.35309759940825
 20
-18.02067436615455
 30
0.0
 10
10.35309759940825
 20
-18.03910562700064
 30
0.0
 10
10.3426934110428
 20
-18.05388508663236
 30
0.0
 10
10.3245205323581
 20
-18.05822590694377
 30
0.0
 10
10.3245205323581
 20
-18.05822590694377
 30
0.0
 10
10.3245205323581
 20
-18.05870822031171
 30
0.0
 10
10.3245205323581
 20
-18.05870822031171
 30
0.0
 10
10.3465691434637
 20
-18.06236002152607
 30
0.0
 10
10.35940212414626
 20
-18.07834526457763
 30
0.0
 10
10.35940212414626
 20
-18.1006350323672
 30
0.0
 10
10.35940212414626
 20
-18.13381130189015
 30
0.0
 10
10.33227199719991
 20
-18.15220811178139
 30
0.0
 10
10.3010249811487
 20
-18.15220811178139
 30
0.0
 10
10.26590223267658
 20
-18.15220811178139
 30
0.0
 10
10.24070135920197
 20
-18.13088297072769
 30
0.0
 10
10.24313015151907
 20
-18.09457166431316
 30
0.0
 10
10.24313015151907
 20
-18.09457166431316
 30
0.0
 10
10.25839192451873
 20
-18.09457166431316
 30
0.0
 10
10.25839192451873
 20
-18.09457166431316
 30
0.0
  0
HATCH
  5
88
330
7F
100
AcDbEntity
  8
Livello 1
 62
    18
420
        0
440
 33554687
100
AcDbHatch
 10
0.0
 20
0.0
 30
0.0
210
0.0
220
0.0
230
1.0
  2
SOLID
 70
     1
 71
     1
 91
        1
 92
        1
 93
        1
 72
     4
 94
        3
 73
     0
 74
     0
 95
       59
 96
       55
 40
0.0
 40
0.0
 40
0.0
 40
0.0
 40
1.0
 40
1.0
 40
1.0
 40
2.0
 40
2.0
 40
2.0
 40
3.0
 40
3.0
 40
3.0
 40
4.0
 40
4.0
 40
4.0
 40
5.0
 40
5.0
 40
5.0
 40
6.0
 40
6.0
 40
6.0
 40
7.0
 40
7.0
 40
7.0
 40
8.0
 40
8.0
 40
8.0
 40
9.0
 40
9.0
 40
9.0
 40
10.0
 40
10.0
 40
10.0
 40
11.0
 40
11.0
 40
11.0
 40
12.0
 40
12.0
 40
12.0
 40
13.0
 40
13.0
 40
13.0
 40
14.0
 40
14.0
 40
14.0
 40
15.0
 40
15.0
 40
15.0
 40
16.0
 40
16.0
 40
16.0
 40
17.0
 40
17.0
 40
17.0
 40
18.0
 40
18.0
 40
18.0
 40
18.0
 10
10.25839192451873
 20
-18.09457166431316
 10
10.25742729778286
 20
-18.12144340909811
 10
10.27341254083442
 20
-18.13939235657626
 10
10.30078382446473
 20
-18.13939235657626
 10
10.3230735922543
 20
-18.13939235657626
 10
10.3441403511466
 20
-18.12605983704834
 10
10.3441403511466
 20
-18.10184081578704
 10
10.3441403511466
 20
-18.0778629512097
 10
10.32596747246191
 20
-18.06597737178559
 10
10.3034537734658
 20
-18.06597737178559
 10
10.3034537734658
 20
-18.06597737178559
 10
10.29060356730582
 20
-18.06597737178559
 10
10.29060356730582
 20
-18.06597737178559
 10
10.29060356730582
 20
-18.06597737178559
 10
10.29060356730582
 20
-18.05312716562561
 10
10.29060356730582
 20
-18.05312716562561
 10
10.29060356730582
 20
-18.05312716562561
 10
10.3034537734658
 20
-18.05312716562561
 10
10.3034537734658
 20
-18.05312716562561
 10
10.31919785983339
 20
-18.05336832230957
 10
10.33783582640859
 20
-18.04368760399602
 10
10.33783582640859
 20
-18.02236246294232
 10
10.33783582640859
 20
-18.00010714610761
 10
10.32112711330513
 20
-17.9903919768392
 10
10.30078382446473
 20
-17.9903919768392
 10
10.27534179430616
 20
-17.9903919768392
 10
10.2617853435717
 20
-18.00809976763339
 10
10.26226765693964
 20
-18.03328341563057
 10
10.26226765693964
 20
-18.03328341563057
 10
10.24700588393998
 20
-18.03328341563057
 10
10.24700588393998
 20
-18.03328341563057
 10
10.24724704062395
 20
-18.00131292952745
 10
10.26759032946435
 20
-17.97757622163407
 10
10.30054266778076
 20
-17.97757622163407
 10
10.32719048135917
 20
-17.97757622163407
 10
10.35309759940825
 20
-17.99063313352317
 10
10.35309759940825
 20
-18.02067436615455
 10
10.35309759940825
 20
-18.03910562700064
 10
10.3426934110428
 20
-18.05388508663236
 10
10.3245205323581
 20
-18.05822590694377
 10
10.3245205323581
 20
-18.05822590694377
 10
10.3245205323581
 20
-18.05870822031171
 10
10.3245205323581
 20
-18.05870822031171
 10
10.3465691434637
 20
-18.06236002152607
 10
10.35940212414626
 20
-18.07834526457763
 10
10.35940212414626
 20
-18.1006350323672
 10
10.35940212414626
 20
-18.13381130189015
 10
10.33227199719991
 20
-18.15220811178139
 10
10.3010249811487
 20
-18.15220811178139
 10
10.26590223267658
 20
-18.15220811178139
 10
10.24070135920197
 20
-18.13088297072769
 10
10.24313015151907
 20
-18.09457166431316
 10
10.24313015151907
 20
-18.09457166431316
 10
10.25839192451873
 20
-18.09457166431316
 10
10.25839192451873
 20
-18.09457166431316
 97
        0
 97
        1
330
87
 75
     2
 76
     1
 98
        1
 10
0.0
 20
0.0
450
        0
451
        0
460
0.0
461
0.0
452
        0
462
0.0
453
        0
470

  0
SPLINE
  5
89
330
7F
100
AcDbEntity
  8
Livello 1
100
AcDbSpline
210
0.0
220
0.0
230
1.0
 70
     9
 71
     3
 72
    53
 73
    49
 74
     0
 42
0.000000001
 43
0.0000000001
 40
0.0
 40
0.0
 40
0.0
 40
0.0
 40
1.0
 40
1.0
 40
1.0
 40
2.0
 40
2.0
 40
2.0
 40
3.0
 40
3.0
 40
3.0
 40
4.0
 40
4.0
 40
4.0
 40
5.0
 40
5.0
 40
5.0
 40
6.0
 40
6.0
 40
6.0
 40
7.0
 40
7.0
 40
7.0
 40
8.0
 40
8.0
 40
8.0
 40
9.0
 40
9.0
 40
9.0
 40
10.0
 40
10.0
 40
10.0
 40
11.0
 40
11.0
 40
11.0
 40
12.0
 40
12.0
 40
12.0
 40
13.0
 40
13.0
 40
13.0
 40
14.0
 40
14.0
 40
14.0
 40
15.0
 40
15.0
 40
15.0
 40
16.0
 40
16.0
 40
16.0
 40
16.0
 10
10.39366359874707
 20
-18.10015271899926
 30
0.0
 10
10.39438706879897
 20
-18.12364827020867
 30
0.0
 10
10.41207763411573
 20
-18.13939235657626
 30
0.0
 10
10.43533202864116
 20
-18.13939235657626
 30
0.0
 10
10.46149752885164
 20
-18.13939235657626
 30
0.0
 10
10.47772392858716
 20
-18.1178260588386
 30
0.0
 10
10.47772392858716
 20
-18.09312472420936
 30
0.0
 10
10.47772392858716
 20
-18.06814778194129
 30
0.0
 10
10.45955104990247
 20
-18.04902750199816
 30
0.0
 10
10.4343674019053
 20
-18.04902750199816
 30
0.0
 10
10.4193467855896
 20
-18.04902750199816
 30
0.0
 10
10.40480848264185
 20
-18.05629665347203
 30
0.0
 10
10.3965747044321
 20
-18.06914685963201
 30
0.0
 10
10.3965747044321
 20
-18.06914685963201
 30
0.0
 10
10.38350056706558
 20
-18.06914685963201
 30
0.0
 10
10.38350056706558
 20
-18.06914685963201
 30
0.0
 10
10.38350056706558
 20
-18.06914685963201
 30
0.0
 10
10.39996812348507
 20
-17.98119357189358
 30
0.0
 10
10.39996812348507
 20
-17.98119357189358
 30
0.0
 10
10.39996812348507
 20
-17.98119357189358
 30
0.0
 10
10.48475192337707
 20
-17.98119357189358
 30
0.0
 10
10.48475192337707
 20
-17.98119357189358
 30
0.0
 10
10.48475192337707
 20
-17.98119357189358
 30
0.0
 10
10.48475192337707
 20
-17.9952495614734
 30
0.0
 10
10.48475192337707
 20
-17.9952495614734
 30
0.0
 10
10.48475192337707
 20
-17.9952495614734
 30
0.0
 10
10.41063069401192
 20
-17.9952495614734
 30
0.0
 10
10.41063069401192
 20
-17.9952495614734
 30
0.0
 10
10.41063069401192
 20
-17.9952495614734
 30
0.0
 10
10.39972696680111
 20
-18.05143906883783
 30
0.0
 10
10.39972696680111
 20
-18.05143906883783
 30
0.0
 10
10.39972696680111
 20
-18.05143906883783
 30
0.0
 10
10.40020928016904
 20
-18.05192138220577
 30
0.0
 10
10.40020928016904
 20
-18.05192138220577
 30
0.0
 10
10.40868421506276
 20
-18.04199950720825
 30
0.0
 10
10.42298136132654
 20
-18.03617729583817
 30
0.0
 10
10.43605549869307
 20
-18.03617729583817
 30
0.0
 10
10.47093709048122
 20
-18.03617729583817
 30
0.0
 10
10.49298570158682
 20
-18.06063747378345
 30
0.0
 10
10.49298570158682
 20
-18.09481282099713
 30
0.0
 10
10.49298570158682
 20
-18.12798909052008
 30
0.0
 10
10.46657904469238
 20
-18.15220811178139
 30
0.0
 10
10.43412624522133
 20
-18.15220811178139
 30
0.0
 10
10.40263807248614
 20
-18.15220811178139
 30
0.0
 10
10.37912529579931
 20
-18.13236436178635
 30
0.0
 10
10.37840182574741
 20
-18.10015271899926
 30
0.0
 10
10.37840182574741
 20
-18.10015271899926
 30
0.0
 10
10.39366359874707
 20
-18.10015271899926
 30
0.0
 10
10.39366359874707
 20
-18.10015271899926
 30
0.0
  0
HATCH
  5
8A
330
7F
100
AcDbEntity
  8
Livello 1
 62
    18
420
        0
440
 33554687
100
AcDbHatch
 10
0.0
 20
0.0
 30
0.0
210
0.0
220
0.0
230
1.0
  2
SOLID
 70
     1
 71
     1
 91
        1
 92
        1
 93
        1
 72
     4
 94
        3
 73
     0
 74
     0
 95
       53
 96
       49
 40
0.0
 40
0.0
 40
0.0
 40
0.0
 40
1.0
 40
1.0
 40
1.0
 40
2.0
 40
2.0
 40
2.0
 40
3.0
 40
3.0
 40
3.0
 40
4.0
 40
4.0
 40
4.0
 40
5.0
 40
5.0
 40
5.0
 40
6.0
 40
6.0
 40
6.0
 40
7.0
 40
7.0
 40
7.0
 40
8.0
 40
8.0
 40
8.0
 40
9.0
 40
9.0
 40
9.0
 40
10.0
 40
10.0
 40
10.0
 40
11.0
 40
11.0
 40
11.0
 40
12.0
 40
12.0
 40
12.0
 40
13.0
 40
13.0
 40
13.0
 40
14.0
 40
14.0
 40
14.0
 40
15.0
 40
15.0
 40
15.0
 40
16.0
 40
16.0
 40
16.0
 40
16.0
 10
10.39366359874707
 20
-18.10015271899926
 10
10.39438706879897
 20
-18.12364827020867
 10
10.41207763411573
 20
-18.13939235657626
 10
10.43533202864116
 20
-18.13939235657626
 10
10.46149752885164
 20
-18.13939235657626
 10
10.47772392858716
 20
-18.1178260588386
 10
10.47772392858716
 20
-18.09312472420936
 10
10.47772392858716
 20
-18.06814778194129
 10
10.45955104990247
 20
-18.04902750199816
 10
10.4343674019053
 20
-18.04902750199816
 10
10.4193467855896
 20
-18.04902750199816
 10
10.40480848264185
 20
-18.05629665347203
 10
10.3965747044321
 20
-18.06914685963201
 10
10.3965747044321
 20
-18.06914685963201
 10
10.38350056706558
 20
-18.06914685963201
 10
10.38350056706558
 20
-18.06914685963201
 10
10.38350056706558
 20
-18.06914685963201
 10
10.39996812348507
 20
-17.98119357189358
 10
10.39996812348507
 20
-17.98119357189358
 10
10.39996812348507
 20
-17.98119357189358
 10
10.48475192337707
 20
-17.98119357189358
 10
10.48475192337707
 20
-17.98119357189358
 10
10.48475192337707
 20
-17.98119357189358
 10
10.48475192337707
 20
-17.9952495614734
 10
10.48475192337707
 20
-17.9952495614734
 10
10.48475192337707
 20
-17.9952495614734
 10
10.41063069401192
 20
-17.9952495614734
 10
10.41063069401192
 20
-17.9952495614734
 10
10.41063069401192
 20
-17.9952495614734
 10
10.39972696680111
 20
-18.05143906883783
 10
10.39972696680111
 20
-18.05143906883783
 10
10.39972696680111
 20
-18.05143906883783
 10
10.40020928016904
 20
-18.05192138220577
 10
10.40020928016904
 20
-18.05192138220577
 10
10.40868421506276
 20
-18.04199950720825
 10
10.42298136132654
 20
-18.03617729583817
 10
10.43605549869307
 20
-18.03617729583817
 10
10.47093709048122
 20
-18.03617729583817
 10
10.49298570158682
 20
-18.06063747378345
 10
10.49298570158682
 20
-18.09481282099713
 10
10.49298570158682
 20
-18.12798909052008
 10
10.46657904469238
 20
-18.15220811178139
 10
10.43412624522133
 20
-18.15220811178139
 10
10.40263807248614
 20
-18.15220811178139
 10
10.37912529579931
 20
-18.13236436178635
 10
10.37840182574741
 20
-18.10015271899926
 10
10.37840182574741
 20
-18.10015271899926
 10
10.39366359874707
 20
-18.10015271899926
 10
10.39366359874707
 20
-18.10015271899926
 97
        0
 97
        1
330
89
 75
     2
 76
     1
 98
        1
 10
0.0
 20
0.0
450
        0
451
        0
460
0.0
461
0.0
452
        0
462
0.0
453
        0
470

  0
SPLINE
  5
8B
330
7F
100
AcDbEntity
  8
Livello 1
100
AcDbSpline
210
0.0
220
0.0
230
1.0
 70
     9
 71
     3
 72
    17
 73
    13
 74
     0
 42
0.000000001
 43
0.0000000001
 40
0.0
 40
0.0
 40
0.0
 40
0.0
 40
1.0
 40
1.0
 40
1.0
 40
2.0
 40
2.0
 40
2.0
 40
3.0
 40
3.0
 40
3.0
 40
4.0
 40
4.0
 40
4.0
 40
4.0
 10
10.52771226407814
 20
-18.06477158836575
 30
0.0
 10
10.52771226407814
 20
-18.09433050762919
 30
0.0
 10
10.53279377991888
 20
-18.13939235657626
 30
0.0
 10
10.57155110412794
 20
-18.13939235657626
 30
0.0
 10
10.610308428337
 20
-18.13939235657626
 30
0.0
 10
10.61540716965517
 20
-18.09433050762919
 30
0.0
 10
10.61540716965517
 20
-18.06477158836575
 30
0.0
 10
10.61540716965517
 20
-18.03545382578627
 30
0.0
 10
10.610308428337
 20
-17.9903919768392
 30
0.0
 10
10.57155110412794
 20
-17.9903919768392
 30
0.0
 10
10.53279377991888
 20
-17.9903919768392
 30
0.0
 10
10.52771226407814
 20
-18.03545382578627
 30
0.0
 10
10.52771226407814
 20
-18.06477158836575
 30
0.0
  0
SPLINE
  5
8C
330
7F
100
AcDbEntity
  8
Livello 1
100
AcDbSpline
210
0.0
220
0.0
230
1.0
 70
     9
 71
     3
 72
    17
 73
    13
 74
     0
 42
0.000000001
 43
0.0000000001
 40
0.0
 40
0.0
 40
0.0
 40
0.0
 40
1.0
 40
1.0
 40
1.0
 40
2.0
 40
2.0
 40
2.0
 40
3.0
 40
3.0
 40
3.0
 40
4.0
 40
4.0
 40
4.0
 40
4.0
 10
10.63066894265483
 20
-18.06477158836575
 30
0.0
 10
10.63066894265483
 20
-18.10449353931068
 30
0.0
 10
10.62095377338643
 20
-18.15220811178139
 30
0.0
 10
10.57155110412794
 20
-18.15220811178139
 30
0.0
 10
10.52214843486946
 20
-18.15220811178139
 30
0.0
 10
10.51245049107848
 20
-18.10449353931068
 30
0.0
 10
10.51245049107848
 20
-18.06501274504972
 30
0.0
 10
10.51245049107848
 20
-18.02529079410479
 30
0.0
 10
10.52214843486946
 20
-17.97757622163407
 30
0.0
 10
10.57155110412794
 20
-17.97757622163407
 30
0.0
 10
10.62095377338643
 20
-17.97757622163407
 30
0.0
 10
10.63066894265483
 20
-18.02529079410479
 30
0.0
 10
10.63066894265483
 20
-18.06477158836575
 30
0.0
  0
HATCH
  5
8D
330
7F
100
AcDbEntity
  8
Livello 1
 62
    18
420
        0
440
 33554687
100
AcDbHatch
 10
0.0
 20
0.0
 30
0.0
210
0.0
220
0.0
230
1.0
  2
SOLID
 70
     1
 71
     1
 91
        2
 92
        1
 93
        1
 72
     4
 94
        3
 73
     0
 74
     0
 95
       17
 96
       13
 40
0.0
 40
0.0
 40
0.0
 40
0.0
 40
1.0
 40
1.0
 40
1.0
 40
2.0
 40
2.0
 40
2.0
 40
3.0
 40
3.0
 40
3.0
 40
4.0
 40
4.0
 40
4.0
 40
4.0
 10
10.52771226407814
 20
-18.06477158836575
 10
10.52771226407814
 20
-18.09433050762919
 10
10.53279377991888
 20
-18.13939235657626
 10
10.57155110412794
 20
-18.13939235657626
 10
10.610308428337
 20
-18.13939235657626
 10
10.61540716965517
 20
-18.09433050762919
 10
10.61540716965517
 20
-18.06477158836575
 10
10.61540716965517
 20
-18.03545382578627
 10
10.610308428337
 20
-17.9903919768392
 10
10.57155110412794
 20
-17.9903919768392
 10
10.53279377991888
 20
-17.9903919768392
 10
10.52771226407814
 20
-18.03545382578627
 10
10.52771226407814
 20
-18.06477158836575
 97
        0
 97
        1
330
8B
 92
        1
 93
        1
 72
     4
 94
        3
 73
     0
 74
     0
 95
       17
 96
       13
 40
0.0
 40
0.0
 40
0.0
 40
0.0
 40
1.0
 40
1.0
 40
1.0
 40
2.0
 40
2.0
 40
2.0
 40
3.0
 40
3.0
 40
3.0
 40
4.0
 40
4.0
 40
4.0
 40
4.0
 10
10.63066894265483
 20
-18.06477158836575
 10
10.63066894265483
 20
-18.10449353931068
 10
10.62095377338643
 20
-18.15220811178139
 10
10.57155110412794
 20
-18.15220811178139
 10
10.52214843486946
 20
-18.15220811178139
 10
10.51245049107848
 20
-18.10449353931068
 10
10.51245049107848
 20
-18.06501274504972
 10
10.51245049107848
 20
-18.02529079410479
 10
10.52214843486946
 20
-17.97757622163407
 10
10.57155110412794
 20
-17.97757622163407
 10
10.62095377338643
 20
-17.97757622163407
 10
10.63066894265483
 20
-18.02529079410479
 10
10.63066894265483
 20
-18.06477158836575
 97
        0
 97
        1
330
8C
 75
     2
 76
     1
 98
        1
 10
0.0
 20
0.0
450
        0
451
        0
460
0.0
461
0.0
452
        0
462
0.0
453
        0
470

  0
ENDBLK
  5
82
330
7F
100
AcDbEntity
  8
0
100
AcDbBlockEnd
  0
BLOCK
  5
90
330
8E
100
AcDbEntity
  8
0
100
AcDbBlockBegin
  2
Block_2
 70
     0
 10
0.0
 20
0.0
 30
0.0
  3
Block_2
  1

  0
LINE
  5
92
330
8E
100
AcDbEntity
  8
Livello 1
 62
    18
420
        0
370
     9
100
AcDbLine
 10
10.03136393128577
 20
-18.06726388906144
 30
0.0
 11
7.677781857805116
 21
-18.06726388906144
 31
0.0
  0
LWPOLYLINE
  5
93
330
8E
100
AcDbEntity
  8
Livello 1
100
AcDbPolyline
 90
        3
 70
     1
 43
0.0
 10
7.421069085121943
 20
-18.06814097213297
 10
7.675966037869113
 20
-17.98316361557015
 10
7.675966037869113
 20
-18.15136416255272
  0
HATCH
  5
94
330
8E
100
AcDbEntity
  8
Livello 1
 62
    18
420
        0
440
 33554687
100
AcDbHatch
 10
0.0
 20
0.0
 30
0.0
210
0.0
220
0.0
230
1.0
  2
SOLID
 70
     1
 71
     1
 91
        1
 92
        1
 93
        3
 72
     1
 10
7.421069085121943
 20
-18.06814097213297
 11
7.675966037869113
 21
-17.98316361557015
 72
     1
 10
7.675966037869113
 20
-17.98316361557015
 11
7.675966037869113
 21
-18.15136416255272
 72
     1
 10
7.675966037869113
 20
-18.15136416255272
 11
7.421069085121943
 21
-18.06814097213297
 97
        1
330
93
 75
     0
 76
     1
 98
        1
 10
0.0
 20
0.0
450
        0
451
        0
460
0.0
461
0.0
452
        0
462
0.0
453
        0
470

  0
ENDBLK
  5
91
330
8E
100
AcDbEntity
  8
0
100
AcDbBlockEnd
  0
BLOCK
  5
97
330
95
100
AcDbEntity
  8
0
100
AcDbBlockBegin
  2
Block_3
 70
     0
 10
0.0
 20
0.0
 30
0.0
  3
Block_3
  1

  0
LINE
  5
99
330
95
100
AcDbEntity
  8
Livello 1
 62
    18
420
        0
370
     9
100
AcDbLine
 10
10.67543642187814
 20
-18.06726388906144
 30
0.0
 11
13.2009170249582
 21
-18.06726388906144
 31
0.0
  0
LWPOLYLINE
  5
9A
330
95
100
AcDbEntity
  8
Livello 1
100
AcDbPolyline
 90
        3
 70
     1
 43
0.0
 10
13.45762979764159
 20
-18.06638680598996
 10
13.20273284489436
 20
-18.15136416255272
 10
13.20273284489436
 20
-17.98316361557015
  0
HATCH
  5
9B
330
95
100
AcDbEntity
  8
Livello 1
 62
    18
420
        0
440
 33554687
100
AcDbHatch
 10
0.0
 20
0.0
 30
0.0
210
0.0
220
0.0
230
1.0
  2
SOLID
 70
     1
 71
     1
 91
        1
 92
        1
 93
        3
 72
     1
 10
13.45762979764159
 20
-18.06638680598996
 11
13.20273284489436
 21
-18.15136416255272
 72
     1
 10
13.20273284489436
 20
-18.15136416255272
 11
13.20273284489436
 21
-17.98316361557015
 72
     1
 10
13.20273284489436
 20
-17.98316361557015
 11
13.45762979764159
 21
-18.06638680598996
 97
        1
330
9A
 75
     0
 76
     1
 98
        1
 10
0.0
 20
0.0
450
        0
451
        0
460
0.0
461
0.0
452
        0
462
0.0
453
        0
470

  0
ENDBLK
  5
98
330
95
100
AcDbEntity
  8
0
100
AcDbBlockEnd
  0
BLOCK
  5
9E
330
9C
100
AcDbEntity
  8
0
100
AcDbBlockBegin
  2
Block_4
 70
     0
 10
0.0
 20
0.0
 30
0.0
  3
Block_4
  1

  0
INSERT
  5
A1
330
9C
100
AcDbEntity
  8
Livello 1
100
AcDbBlockReference
  2
Block_5
 10
0.0
 20
0.0
 30
0.0
  0
ENDBLK
  5
9F
330
9C
100
AcDbEntity
  8
0
100
AcDbBlockEnd
  0
BLOCK
  5
A2
330
A0
100
AcDbEntity
  8
0
100
AcDbBlockBegin
  2
Block_5
 70
     0
 10
0.0
 20
0.0
 30
0.0
  3
Block_5
  1

  0
SPLINE
  5
A4
330
A0
100
AcDbEntity
  8
Livello 1
100
AcDbSpline
210
0.0
220
0.0
230
1.0
 70
     9
 71
     3
 72
    26
 73
    22
 74
     0
 42
0.000000001
 43
0.0000000001
 40
0.0
 40
0.0
 40
0.0
 40
0.0
 40
1.0
 40
1.0
 40
1.0
 40
2.0
 40
2.0
 40
2.0
 40
3.0
 40
3.0
 40
3.0
 40
4.0
 40
4.0
 40
4.0
 40
5.0
 40
5.0
 40
5.0
 40
6.0
 40
6.0
 40
6.0
 40
7.0
 40
7.0
 40
7.0
 40
7.0
 10
6.748700898920462
 20
-17.8661618336411
 30
0.0
 10
6.77534871249887
 20
-17.86516275595037
 30
0.0
 10
6.791816268918364
 20
-17.86468044258244
 30
0.0
 10
6.796415471391173
 20
-17.83343342653122
 30
0.0
 10
6.796415471391173
 20
-17.83343342653122
 30
0.0
 10
6.80878336418322
 20
-17.83343342653122
 30
0.0
 10
6.80878336418322
 20
-17.83343342653122
 30
0.0
 10
6.80878336418322
 20
-17.83343342653122
 30
0.0
 10
6.80878336418322
 20
-18.00300102631522
 30
0.0
 10
6.80878336418322
 20
-18.00300102631522
 30
0.0
 10
6.80878336418322
 20
-18.00300102631522
 30
0.0
 10
6.793521591183563
 20
-18.00300102631522
 30
0.0
 10
6.793521591183563
 20
-18.00300102631522
 30
0.0
 10
6.793521591183563
 20
-18.00300102631522
 30
0.0
 10
6.793521591183563
 20
-17.87704833537448
 30
0.0
 10
6.793521591183563
 20
-17.87704833537448
 30
0.0
 10
6.793521591183563
 20
-17.87704833537448
 30
0.0
 10
6.748700898920462
 20
-17.87704833537448
 30
0.0
 10
6.748700898920462
 20
-17.87704833537448
 30
0.0
 10
6.748700898920462
 20
-17.87704833537448
 30
0.0
 10
6.748700898920462
 20
-17.8661618336411
 30
0.0
 10
6.748700898920462
 20
-17.8661618336411
 30
0.0
  0
HATCH
  5
A5
330
A0
100
AcDbEntity
  8
Livello 1
 62
    18
420
        0
440
 33554687
100
AcDbHatch
 10
0.0
 20
0.0
 30
0.0
210
0.0
220
0.0
230
1.0
  2
SOLID
 70
     1
 71
     1
 91
        1
 92
        1
 93
        1
 72
     4
 94
        3
 73
     0
 74
     0
 95
       26
 96
       22
 40
0.0
 40
0.0
 40
0.0
 40
0.0
 40
1.0
 40
1.0
 40
1.0
 40
2.0
 40
2.0
 40
2.0
 40
3.0
 40
3.0
 40
3.0
 40
4.0
 40
4.0
 40
4.0
 40
5.0
 40
5.0
 40
5.0
 40
6.0
 40
6.0
 40
6.0
 40
7.0
 40
7.0
 40
7.0
 40
7.0
 10
6.748700898920462
 20
-17.8661618336411
 10
6.77534871249887
 20
-17.86516275595037
 10
6.791816268918364
 20
-17.86468044258244
 10
6.796415471391173
 20
-17.83343342653122
 10
6.796415471391173
 20
-17.83343342653122
 10
6.80878336418322
 20
-17.83343342653122
 10
6.80878336418322
 20
-17.83343342653122
 10
6.80878336418322
 20
-17.83343342653122
 10
6.80878336418322
 20
-18.00300102631522
 10
6.80878336418322
 20
-18.00300102631522
 10
6.80878336418322
 20
-18.00300102631522
 10
6.793521591183563
 20
-18.00300102631522
 10
6.793521591183563
 20
-18.00300102631522
 10
6.793521591183563
 20
-18.00300102631522
 10
6.793521591183563
 20
-17.87704833537448
 10
6.793521591183563
 20
-17.87704833537448
 10
6.793521591183563
 20
-17.87704833537448
 10
6.748700898920462
 20
-17.87704833537448
 10
6.748700898920462
 20
-17.87704833537448
 10
6.748700898920462
 20
-17.87704833537448
 10
6.748700898920462
 20
-17.8661618336411
 10
6.748700898920462
 20
-17.8661618336411
 97
        0
 97
        1
330
A4
 75
     2
 76
     1
 98
        1
 10
0.0
 20
0.0
450
        0
451
        0
460
0.0
461
0.0
452
        0
462
0.0
453
        0
470

  0
SPLINE
  5
A6
330
A0
100
AcDbEntity
  8
Livello 1
100
AcDbSpline
210
0.0
220
0.0
230
1.0
 70
    11
 71
     3
 72
    17
 73
    13
 74
     0
 42
0.000000001
 43
0.0000000001
 40
0.0
 40
0.0
 40
0.0
 40
0.0
 40
1.0
 40
1.0
 40
1.0
 40
2.0
 40
2.0
 40
2.0
 40
3.0
 40
3.0
 40
3.0
 40
4.0
 40
4.0
 40
4.0
 40
4.0
 10
6.945260821831392
 20
-17.94801730237063
 30
0.0
 10
6.945260821831392
 20
-17.94801730237063
 30
0.0
 10
6.945260821831392
 20
-17.85572319432079
 30
0.0
 10
6.945260821831392
 20
-17.85572319432079
 30
0.0
 10
6.945260821831392
 20
-17.85572319432079
 30
0.0
 10
6.944778508463457
 20
-17.85572319432079
 30
0.0
 10
6.944778508463457
 20
-17.85572319432079
 30
0.0
 10
6.944778508463457
 20
-17.85572319432079
 30
0.0
 10
6.880820310779794
 20
-17.94801730237063
 30
0.0
 10
6.880820310779794
 20
-17.94801730237063
 30
0.0
 10
6.880820310779794
 20
-17.94801730237063
 30
0.0
 10
6.945260821831392
 20
-17.94801730237063
 30
0.0
 10
6.945260821831392
 20
-17.94801730237063
 30
0.0
  0
SPLINE
  5
A7
330
A0
100
AcDbEntity
  8
Livello 1
100
AcDbSpline
210
0.0
220
0.0
230
1.0
 70
    11
 71
     3
 72
    38
 73
    34
 74
     0
 42
0.000000001
 43
0.0000000001
 40
0.0
 40
0.0
 40
0.0
 40
0.0
 40
1.0
 40
1.0
 40
1.0
 40
2.0
 40
2.0
 40
2.0
 40
3.0
 40
3.0
 40
3.0
 40
4.0
 40
4.0
 40
4.0
 40
5.0
 40
5.0
 40
5.0
 40
6.0
 40
6.0
 40
6.0
 40
7.0
 40
7.0
 40
7.0
 40
8.0
 40
8.0
 40
8.0
 40
9.0
 40
9.0
 40
9.0
 40
10.0
 40
10.0
 40
10.0
 40
11.0
 40
11.0
 40
11.0
 40
11.0
 10
6.867022703361368
 20
-17.94608804889889
 30
0.0
 10
6.867022703361368
 20
-17.94608804889889
 30
0.0
 10
6.94550197851536
 20
-17.83343342653122
 30
0.0
 10
6.94550197851536
 20
-17.83343342653122
 30
0.0
 10
6.94550197851536
 20
-17.83343342653122
 30
0.0
 10
6.959316811411212
 20
-17.83343342653122
 30
0.0
 10
6.959316811411212
 20
-17.83343342653122
 30
0.0
 10
6.959316811411212
 20
-17.83343342653122
 30
0.0
 10
6.959316811411212
 20
-17.94801730237063
 30
0.0
 10
6.959316811411212
 20
-17.94801730237063
 30
0.0
 10
6.959316811411212
 20
-17.94801730237063
 30
0.0
 10
6.984741616092355
 20
-17.94801730237063
 30
0.0
 10
6.984741616092355
 20
-17.94801730237063
 30
0.0
 10
6.984741616092355
 20
-17.94801730237063
 30
0.0
 10
6.984741616092355
 20
-17.96086750853061
 30
0.0
 10
6.984741616092355
 20
-17.96086750853061
 30
0.0
 10
6.984741616092355
 20
-17.96086750853061
 30
0.0
 10
6.959316811411212
 20
-17.96086750853061
 30
0.0
 10
6.959316811411212
 20
-17.96086750853061
 30
0.0
 10
6.959316811411212
 20
-17.96086750853061
 30
0.0
 10
6.959316811411212
 20
-18.00300102631522
 30
0.0
 10
6.959316811411212
 20
-18.00300102631522
 30
0.0
 10
6.959316811411212
 20
-18.00300102631522
 30
0.0
 10
6.945260821831392
 20
-18.00300102631522
 30
0.0
 10
6.945260821831392
 20
-18.00300102631522
 30
0.0
 10
6.945260821831392
 20
-18.00300102631522
 30
0.0
 10
6.945260821831392
 20
-17.96086750853061
 30
0.0
 10
6.945260821831392
 20
-17.96086750853061
 30
0.0
 10
6.945260821831392
 20
-17.96086750853061
 30
0.0
 10
6.867022703361368
 20
-17.96086750853061
 30
0.0
 10
6.867022703361368
 20
-17.96086750853061
 30
0.0
 10
6.867022703361368
 20
-17.96086750853061
 30
0.0
 10
6.867022703361368
 20
-17.94608804889889
 30
0.0
 10
6.867022703361368
 20
-17.94608804889889
 30
0.0
  0
HATCH
  5
A8
330
A0
100
AcDbEntity
  8
Livello 1
 62
    18
420
        0
440
 33554687
100
AcDbHatch
 10
0.0
 20
0.0
 30
0.0
210
0.0
220
0.0
230
1.0
  2
SOLID
 70
     1
 71
     1
 91
        2
 92
        1
 93
        1
 72
     4
 94
        3
 73
     0
 74
     0
 95
       17
 96
       13
 40
0.0
 40
0.0
 40
0.0
 40
0.0
 40
1.0
 40
1.0
 40
1.0
 40
2.0
 40
2.0
 40
2.0
 40
3.0
 40
3.0
 40
3.0
 40
4.0
 40
4.0
 40
4.0
 40
4.0
 10
6.945260821831392
 20
-17.94801730237063
 10
6.945260821831392
 20
-17.94801730237063
 10
6.945260821831392
 20
-17.85572319432079
 10
6.945260821831392
 20
-17.85572319432079
 10
6.945260821831392
 20
-17.85572319432079
 10
6.944778508463457
 20
-17.85572319432079
 10
6.944778508463457
 20
-17.85572319432079
 10
6.944778508463457
 20
-17.85572319432079
 10
6.880820310779794
 20
-17.94801730237063
 10
6.880820310779794
 20
-17.94801730237063
 10
6.880820310779794
 20
-17.94801730237063
 10
6.945260821831392
 20
-17.94801730237063
 10
6.945260821831392
 20
-17.94801730237063
 97
        0
 97
        1
330
A6
 92
        1
 93
        1
 72
     4
 94
        3
 73
     0
 74
     0
 95
       38
 96
       34
 40
0.0
 40
0.0
 40
0.0
 40
0.0
 40
1.0
 40
1.0
 40
1.0
 40
2.0
 40
2.0
 40
2.0
 40
3.0
 40
3.0
 40
3.0
 40
4.0
 40
4.0
 40
4.0
 40
5.0
 40
5.0
 40
5.0
 40
6.0
 40
6.0
 40
6.0
 40
7.0
 40
7.0
 40
7.0
 40
8.0
 40
8.0
 40
8.0
 40
9.0
 40
9.0
 40
9.0
 40
10.0
 40
10.0
 40
10.0
 40
11.0
 40
11.0
 40
11.0
 40
11.0
 10
6.867022703361368
 20
-17.94608804889889
 10
6.867022703361368
 20
-17.94608804889889
 10
6.94550197851536
 20
-17.83343342653122
 10
6.94550197851536
 20
-17.83343342653122
 10
6.94550197851536
 20
-17.83343342653122
 10
6.959316811411212
 20
-17.83343342653122
 10
6.959316811411212
 20
-17.83343342653122
 10
6.959316811411212
 20
-17.83343342653122
 10
6.959316811411212
 20
-17.94801730237063
 10
6.959316811411212
 20
-17.94801730237063
 10
6.959316811411212
 20
-17.94801730237063
 10
6.984741616092355
 20
-17.94801730237063
 10
6.984741616092355
 20
-17.94801730237063
 10
6.984741616092355
 20
-17.94801730237063
 10
6.984741616092355
 20
-17.96086750853061
 10
6.984741616092355
 20
-17.96086750853061
 10
6.984741616092355
 20
-17.96086750853061
 10
6.959316811411212
 20
-17.96086750853061
 10
6.959316811411212
 20
-17.96086750853061
 10
6.959316811411212
 20
-17.96086750853061
 10
6.959316811411212
 20
-18.00300102631522
 10
6.959316811411212
 20
-18.00300102631522
 10
6.959316811411212
 20
-18.00300102631522
 10
6.945260821831392
 20
-18.00300102631522
 10
6.945260821831392
 20
-18.00300102631522
 10
6.945260821831392
 20
-18.00300102631522
 10
6.945260821831392
 20
-17.96086750853061
 10
6.945260821831392
 20
-17.96086750853061
 10
6.945260821831392
 20
-17.96086750853061
 10
6.867022703361368
 20
-17.96086750853061
 10
6.867022703361368
 20
-17.96086750853061
 10
6.867022703361368
 20
-17.96086750853061
 10
6.867022703361368
 20
-17.94608804889889
 10
6.867022703361368
 20
-17.94608804889889
 97
        0
 97
        1
330
A7
 75
     2
 76
     1
 98
        1
 10
0.0
 20
0.0
450
        0
451
        0
460
0.0
461
0.0
452
        0
462
0.0
453
        0
470

  0
ENDBLK
  5
A3
330
A0
100
AcDbEntity
  8
0
100
AcDbBlockEnd
  0
BLOCK
  5
AB
330
A9
100
AcDbEntity
  8
0
100
AcDbBlockBegin
  2
Block_6
 70
     0
 10
0.0
 20
0.0
 30
0.0
  3
Block_6
  1

  0
LINE
  5
AD
330
A9
100
AcDbEntity
  8
Livello 1
 62
    18
420
        0
370
     9
100
AcDbLine
 10
6.854681514262795
 20
-17.79633960602871
 30
0.0
 11
6.854681514262795
 21
-17.74363283424408
 31
0.0
  0
LWPOLYLINE
  5
AE
330
A9
100
AcDbEntity
  8
Livello 1
100
AcDbPolyline
 90
        3
 70
     1
 43
0.0
 10
6.85380443119129
 20
-17.48692006156081
 10
6.93878178775405
 20
-17.74181701430798
 10
6.770581240771443
 20
-17.74181701430798
  0
HATCH
  5
AF
330
A9
100
AcDbEntity
  8
Livello 1
 62
    18
420
        0
440
 33554687
100
AcDbHatch
 10
0.0
 20
0.0
 30
0.0
210
0.0
220
0.0
230
1.0
  2
SOLID
 70
     1
 71
     1
 91
        1
 92
        1
 93
        3
 72
     1
 10
6.85380443119129
 20
-17.48692006156081
 11
6.93878178775405
 21
-17.74181701430798
 72
     1
 10
6.93878178775405
 20
-17.74181701430798
 11
6.770581240771443
 21
-17.74181701430798
 72
     1
 10
6.770581240771443
 20
-17.74181701430798
 11
6.85380443119129
 21
-17.48692006156081
 97
        1
330
AE
 75
     0
 76
     1
 98
        1
 10
0.0
 20
0.0
450
        0
451
        0
460
0.0
461
0.0
452
        0
462
0.0
453
        0
470

  0
ENDBLK
  5
AC
330
A9
100
AcDbEntity
  8
0
100
AcDbBlockEnd
  0
BLOCK
  5
B2
330
B0
100
AcDbEntity
  8
0
100
AcDbBlockBegin
  2
Block_7
 70
     0
 10
0.0
 20
0.0
 30
0.0
  3
Block_7
  1

  0
LINE
  5
B4
330
B0
100
AcDbEntity
  8
Livello 1
 62
    18
420
        0
370
     9
100
AcDbLine
 10
6.854681514262795
 20
-18.08300547609546
 30
0.0
 11
6.854681514262795
 21
-18.1265930457988
 31
0.0
  0
LWPOLYLINE
  5
B5
330
B0
100
AcDbEntity
  8
Livello 1
100
AcDbPolyline
 90
        3
 70
     1
 43
0.0
 10
6.855558597334267
 20
-18.38330581848213
 10
6.770581240771443
 20
-18.12840886573489
 10
6.93878178775405
 20
-18.12840886573489
  0
HATCH
  5
B6
330
B0
100
AcDbEntity
  8
Livello 1
 62
    18
420
        0
440
 33554687
100
AcDbHatch
 10
0.0
 20
0.0
 30
0.0
210
0.0
220
0.0
230
1.0
  2
SOLID
 70
     1
 71
     1
 91
        1
 92
        1
 93
        3
 72
     1
 10
6.855558597334267
 20
-18.38330581848213
 11
6.770581240771443
 21
-18.12840886573489
 72
     1
 10
6.770581240771443
 20
-18.12840886573489
 11
6.93878178775405
 21
-18.12840886573489
 72
     1
 10
6.93878178775405
 20
-18.12840886573489
 11
6.855558597334267
 21
-18.38330581848213
 97
        1
330
B5
 75
     0
 76
     1
 98
        1
 10
0.0
 20
0.0
450
        0
451
        0
460
0.0
461
0.0
452
        0
462
0.0
453
        0
470

  0
ENDBLK
  5
B3
330
B0
100
AcDbEntity
  8
0
100
AcDbBlockEnd
  0
BLOCK
  5
B9
330
B7
100
AcDbEntity
  8
0
100
AcDbBlockBegin
  2
Block_8
 70
     0
 10
0.0
 20
0.0
 30
0.0
  3
Block_8
  1

  0
INSERT
  5
BC
330
B7
100
AcDbEntity
  8
Livello 1
100
AcDbBlockReference
  2
Block_9
 10
0.0
 20
0.0
 30
0.0
  0
ENDBLK
  5
BA
330
B7
100
AcDbEntity
  8
0
100
AcDbBlockEnd
  0
BLOCK
  5
BD
330
BB
100
AcDbEntity
  8
0
100
AcDbBlockBegin
  2
Block_9
 70
     0
 10
0.0
 20
0.0
 30
0.0
  3
Block_9
  1

  0
SPLINE
  5
BF
330
BB
100
AcDbEntity
  8
Livello 1
100
AcDbSpline
210
0.0
220
0.0
230
1.0
 70
    11
 71
     3
 72
    17
 73
    13
 74
     0
 42
0.000000001
 43
0.0000000001
 40
0.0
 40
0.0
 40
0.0
 40
0.0
 40
1.0
 40
1.0
 40
1.0
 40
2.0
 40
2.0
 40
2.0
 40
3.0
 40
3.0
 40
3.0
 40
4.0
 40
4.0
 40
4.0
 40
4.0
 10
13.95160318661626
 20
-17.50415120005104
 30
0.0
 10
13.95160318661626
 20
-17.50415120005104
 30
0.0
 10
13.95160318661626
 20
-17.4118570920012
 30
0.0
 10
13.95160318661626
 20
-17.4118570920012
 30
0.0
 10
13.95160318661626
 20
-17.4118570920012
 30
0.0
 10
13.95112087324833
 20
-17.4118570920012
 30
0.0
 10
13.95112087324833
 20
-17.4118570920012
 30
0.0
 10
13.95112087324833
 20
-17.4118570920012
 30
0.0
 10
13.88714545008724
 20
-17.50415120005104
 30
0.0
 10
13.88714545008724
 20
-17.50415120005104
 30
0.0
 10
13.88714545008724
 20
-17.50415120005104
 30
0.0
 10
13.95160318661626
 20
-17.50415120005104
 30
0.0
 10
13.95160318661626
 20
-17.50415120005104
 30
0.0
  0
SPLINE
  5
C0
330
BB
100
AcDbEntity
  8
Livello 1
100
AcDbSpline
210
0.0
220
0.0
230
1.0
 70
    11
 71
     3
 72
    38
 73
    34
 74
     0
 42
0.000000001
 43
0.0000000001
 40
0.0
 40
0.0
 40
0.0
 40
0.0
 40
1.0
 40
1.0
 40
1.0
 40
2.0
 40
2.0
 40
2.0
 40
3.0
 40
3.0
 40
3.0
 40
4.0
 40
4.0
 40
4.0
 40
5.0
 40
5.0
 40
5.0
 40
6.0
 40
6.0
 40
6.0
 40
7.0
 40
7.0
 40
7.0
 40
8.0
 40
8.0
 40
8.0
 40
9.0
 40
9.0
 40
9.0
 40
10.0
 40
10.0
 40
10.0
 40
11.0
 40
11.0
 40
11.0
 40
11.0
 10
13.87336506814624
 20
-17.5022219465793
 30
0.0
 10
13.87336506814624
 20
-17.5022219465793
 30
0.0
 10
13.95184434330023
 20
-17.38956732421163
 30
0.0
 10
13.95184434330023
 20
-17.38956732421163
 30
0.0
 10
13.95184434330023
 20
-17.38956732421163
 30
0.0
 10
13.96565917619608
 20
-17.38956732421163
 30
0.0
 10
13.96565917619608
 20
-17.38956732421163
 30
0.0
 10
13.96565917619608
 20
-17.38956732421163
 30
0.0
 10
13.96565917619608
 20
-17.50415120005104
 30
0.0
 10
13.96565917619608
 20
-17.50415120005104
 30
0.0
 10
13.96565917619608
 20
-17.50415120005104
 30
0.0
 10
13.99108398087723
 20
-17.50415120005104
 30
0.0
 10
13.99108398087723
 20
-17.50415120005104
 30
0.0
 10
13.99108398087723
 20
-17.50415120005104
 30
0.0
 10
13.99108398087723
 20
-17.51700140621102
 30
0.0
 10
13.99108398087723
 20
-17.51700140621102
 30
0.0
 10
13.99108398087723
 20
-17.51700140621102
 30
0.0
 10
13.96565917619608
 20
-17.51700140621102
 30
0.0
 10
13.96565917619608
 20
-17.51700140621102
 30
0.0
 10
13.96565917619608
 20
-17.51700140621102
 30
0.0
 10
13.96565917619608
 20
-17.55913492399563
 30
0.0
 10
13.96565917619608
 20
-17.55913492399563
 30
0.0
 10
13.96565917619608
 20
-17.55913492399563
 30
0.0
 10
13.95160318661626
 20
-17.55913492399563
 30
0.0
 10
13.95160318661626
 20
-17.55913492399563
 30
0.0
 10
13.95160318661626
 20
-17.55913492399563
 30
0.0
 10
13.95160318661626
 20
-17.51700140621102
 30
0.0
 10
13.95160318661626
 20
-17.51700140621102
 30
0.0
 10
13.95160318661626
 20
-17.51700140621102
 30
0.0
 10
13.87336506814624
 20
-17.51700140621102
 30
0.0
 10
13.87336506814624
 20
-17.51700140621102
 30
0.0
 10
13.87336506814624
 20
-17.51700140621102
 30
0.0
 10
13.87336506814624
 20
-17.5022219465793
 30
0.0
 10
13.87336506814624
 20
-17.5022219465793
 30
0.0
  0
HATCH
  5
C1
330
BB
100
AcDbEntity
  8
Livello 1
 62
    18
420
        0
440
 33554687
100
AcDbHatch
 10
0.0
 20
0.0
 30
0.0
210
0.0
220
0.0
230
1.0
  2
SOLID
 70
     1
 71
     1
 91
        2
 92
        1
 93
        1
 72
     4
 94
        3
 73
     0
 74
     0
 95
       17
 96
       13
 40
0.0
 40
0.0
 40
0.0
 40
0.0
 40
1.0
 40
1.0
 40
1.0
 40
2.0
 40
2.0
 40
2.0
 40
3.0
 40
3.0
 40
3.0
 40
4.0
 40
4.0
 40
4.0
 40
4.0
 10
13.95160318661626
 20
-17.50415120005104
 10
13.95160318661626
 20
-17.50415120005104
 10
13.95160318661626
 20
-17.4118570920012
 10
13.95160318661626
 20
-17.4118570920012
 10
13.95160318661626
 20
-17.4118570920012
 10
13.95112087324833
 20
-17.4118570920012
 10
13.95112087324833
 20
-17.4118570920012
 10
13.95112087324833
 20
-17.4118570920012
 10
13.88714545008724
 20
-17.50415120005104
 10
13.88714545008724
 20
-17.50415120005104
 10
13.88714545008724
 20
-17.50415120005104
 10
13.95160318661626
 20
-17.50415120005104
 10
13.95160318661626
 20
-17.50415120005104
 97
        0
 97
        1
330
BF
 92
        1
 93
        1
 72
     4
 94
        3
 73
     0
 74
     0
 95
       38
 96
       34
 40
0.0
 40
0.0
 40
0.0
 40
0.0
 40
1.0
 40
1.0
 40
1.0
 40
2.0
 40
2.0
 40
2.0
 40
3.0
 40
3.0
 40
3.0
 40
4.0
 40
4.0
 40
4.0
 40
5.0
 40
5.0
 40
5.0
 40
6.0
 40
6.0
 40
6.0
 40
7.0
 40
7.0
 40
7.0
 40
8.0
 40
8.0
 40
8.0
 40
9.0
 40
9.0
 40
9.0
 40
10.0
 40
10.0
 40
10.0
 40
11.0
 40
11.0
 40
11.0
 40
11.0
 10
13.87336506814624
 20
-17.5022219465793
 10
13.87336506814624
 20
-17.5022219465793
 10
13.95184434330023
 20
-17.38956732421163
 10
13.95184434330023
 20
-17.38956732421163
 10
13.95184434330023
 20
-17.38956732421163
 10
13.96565917619608
 20
-17.38956732421163
 10
13.96565917619608
 20
-17.38956732421163
 10
13.96565917619608
 20
-17.38956732421163
 10
13.96565917619608
 20
-17.50415120005104
 10
13.96565917619608
 20
-17.50415120005104
 10
13.96565917619608
 20
-17.50415120005104
 10
13.99108398087723
 20
-17.50415120005104
 10
13.99108398087723
 20
-17.50415120005104
 10
13.99108398087723
 20
-17.50415120005104
 10
13.99108398087723
 20
-17.51700140621102
 10
13.99108398087723
 20
-17.51700140621102
 10
13.99108398087723
 20
-17.51700140621102
 10
13.96565917619608
 20
-17.51700140621102
 10
13.96565917619608
 20
-17.51700140621102
 10
13.96565917619608
 20
-17.51700140621102
 10
13.96565917619608
 20
-17.55913492399563
 10
13.96565917619608
 20
-17.55913492399563
 10
13.96565917619608
 20
-17.55913492399563
 10
13.95160318661626
 20
-17.55913492399563
 10
13.95160318661626
 20
-17.55913492399563
 10
13.95160318661626
 20
-17.55913492399563
 10
13.95160318661626
 20
-17.51700140621102
 10
13.95160318661626
 20
-17.51700140621102
 10
13.95160318661626
 20
-17.51700140621102
 10
13.87336506814624
 20
-17.51700140621102
 10
13.87336506814624
 20
-17.51700140621102
 10
13.87336506814624
 20
-17.51700140621102
 10
13.87336506814624
 20
-17.5022219465793
 10
13.87336506814624
 20
-17.5022219465793
 97
        0
 97
        1
330
C0
 75
     2
 76
     1
 98
        1
 10
0.0
 20
0.0
450
        0
451
        0
460
0.0
461
0.0
452
        0
462
0.0
453
        0
470

  0
SPLINE
  5
C2
330
BB
100
AcDbEntity
  8
Livello 1
100
AcDbSpline
210
0.0
220
0.0
230
1.0
 70
    11
 71
     3
 72
    41
 73
    37
 74
     0
 42
0.000000001
 43
0.0000000001
 40
0.0
 40
0.0
 40
0.0
 40
0.0
 40
1.0
 40
1.0
 40
1.0
 40
2.0
 40
2.0
 40
2.0
 40
3.0
 40
3.0
 40
3.0
 40
4.0
 40
4.0
 40
4.0
 40
5.0
 40
5.0
 40
5.0
 40
6.0
 40
6.0
 40
6.0
 40
7.0
 40
7.0
 40
7.0
 40
8.0
 40
8.0
 40
8.0
 40
9.0
 40
9.0
 40
9.0
 40
10.0
 40
10.0
 40
10.0
 40
11.0
 40
11.0
 40
11.0
 40
12.0
 40
12.0
 40
12.0
 40
12.0
 10
14.12103298258085
 20
-17.55913492399563
 30
0.0
 10
14.12103298258085
 20
-17.55913492399563
 30
0.0
 10
14.00934298694905
 20
-17.55913492399563
 30
0.0
 10
14.00934298694905
 20
-17.55913492399563
 30
0.0
 10
14.01058322132374
 20
-17.50876762800128
 30
0.0
 10
14.06215630073793
 20
-17.49639973520923
 30
0.0
 10
14.09099174994947
 20
-17.46756428599769
 30
0.0
 10
14.10019015489509
 20
-17.4581247243681
 30
0.0
 10
14.10504773952929
 20
-17.44916747610646
 30
0.0
 10
14.10504773952929
 20
-17.43559379989457
 30
0.0
 10
14.10504773952929
 20
-17.41354518878897
 30
0.0
 10
14.08758110541907
 20
-17.40097059026781
 30
0.0
 10
14.06701388537213
 20
-17.40097059026781
 30
0.0
 10
14.03914306289646
 20
-17.40097059026781
 30
0.0
 10
14.02825656116307
 20
-17.42326035805738
 30
0.0
 10
14.028738874531
 20
-17.44820284937059
 30
0.0
 10
14.028738874531
 20
-17.44820284937059
 30
0.0
 10
14.01347710153135
 20
-17.44820284937059
 30
0.0
 10
14.01347710153135
 20
-17.44820284937059
 30
0.0
 10
14.01275363147945
 20
-17.41330403210501
 30
0.0
 10
14.03090928468671
 20
-17.38812038410783
 30
0.0
 10
14.06773735542403
 20
-17.38812038410783
 30
0.0
 10
14.09729627468748
 20
-17.38812038410783
 30
0.0
 10
14.12030951252895
 20
-17.40434678384335
 30
0.0
 10
14.12030951252895
 20
-17.43583495657854
 30
0.0
 10
14.12030951252895
 20
-17.46418809242214
 30
0.0
 10
14.09970784152715
 20
-17.48186143226148
 30
0.0
 10
14.07765923042155
 20
-17.49615857852526
 30
0.0
 10
14.06119167400206
 20
-17.50732068789747
 30
0.0
 10
14.03090928468671
 20
-17.52230685325831
 30
0.0
 10
14.02680962105927
 20
-17.54507893441581
 30
0.0
 10
14.02680962105927
 20
-17.54507893441581
 30
0.0
 10
14.12103298258085
 20
-17.54507893441581
 30
0.0
 10
14.12103298258085
 20
-17.54507893441581
 30
0.0
 10
14.12103298258085
 20
-17.54507893441581
 30
0.0
 10
14.12103298258085
 20
-17.55913492399563
 30
0.0
 10
14.12103298258085
 20
-17.55913492399563
 30
0.0
  0
HATCH
  5
C3
330
BB
100
AcDbEntity
  8
Livello 1
 62
    18
420
        0
440
 33554687
100
AcDbHatch
 10
0.0
 20
0.0
 30
0.0
210
0.0
220
0.0
230
1.0
  2
SOLID
 70
     1
 71
     1
 91
        1
 92
        1
 93
        1
 72
     4
 94
        3
 73
     0
 74
     0
 95
       41
 96
       37
 40
0.0
 40
0.0
 40
0.0
 40
0.0
 40
1.0
 40
1.0
 40
1.0
 40
2.0
 40
2.0
 40
2.0
 40
3.0
 40
3.0
 40
3.0
 40
4.0
 40
4.0
 40
4.0
 40
5.0
 40
5.0
 40
5.0
 40
6.0
 40
6.0
 40
6.0
 40
7.0
 40
7.0
 40
7.0
 40
8.0
 40
8.0
 40
8.0
 40
9.0
 40
9.0
 40
9.0
 40
10.0
 40
10.0
 40
10.0
 40
11.0
 40
11.0
 40
11.0
 40
12.0
 40
12.0
 40
12.0
 40
12.0
 10
14.12103298258085
 20
-17.55913492399563
 10
14.12103298258085
 20
-17.55913492399563
 10
14.00934298694905
 20
-17.55913492399563
 10
14.00934298694905
 20
-17.55913492399563
 10
14.01058322132374
 20
-17.50876762800128
 10
14.06215630073793
 20
-17.49639973520923
 10
14.09099174994947
 20
-17.46756428599769
 10
14.10019015489509
 20
-17.4581247243681
 10
14.10504773952929
 20
-17.44916747610646
 10
14.10504773952929
 20
-17.43559379989457
 10
14.10504773952929
 20
-17.41354518878897
 10
14.08758110541907
 20
-17.40097059026781
 10
14.06701388537213
 20
-17.40097059026781
 10
14.03914306289646
 20
-17.40097059026781
 10
14.02825656116307
 20
-17.42326035805738
 10
14.028738874531
 20
-17.44820284937059
 10
14.028738874531
 20
-17.44820284937059
 10
14.01347710153135
 20
-17.44820284937059
 10
14.01347710153135
 20
-17.44820284937059
 10
14.01275363147945
 20
-17.41330403210501
 10
14.03090928468671
 20
-17.38812038410783
 10
14.06773735542403
 20
-17.38812038410783
 10
14.09729627468748
 20
-17.38812038410783
 10
14.12030951252895
 20
-17.40434678384335
 10
14.12030951252895
 20
-17.43583495657854
 10
14.12030951252895
 20
-17.46418809242214
 10
14.09970784152715
 20
-17.48186143226148
 10
14.07765923042155
 20
-17.49615857852526
 10
14.06119167400206
 20
-17.50732068789747
 10
14.03090928468671
 20
-17.52230685325831
 10
14.02680962105927
 20
-17.54507893441581
 10
14.02680962105927
 20
-17.54507893441581
 10
14.12103298258085
 20
-17.54507893441581
 10
14.12103298258085
 20
-17.54507893441581
 10
14.12103298258085
 20
-17.54507893441581
 10
14.12103298258085
 20
-17.55913492399563
 10
14.12103298258085
 20
-17.55913492399563
 97
        0
 97
        1
330
C2
 75
     2
 76
     1
 98
        1
 10
0.0
 20
0.0
450
        0
451
        0
460
0.0
461
0.0
452
        0
462
0.0
453
        0
470

  0
ENDBLK
  5
BE
330
BB
100
AcDbEntity
  8
0
100
AcDbBlockEnd
  0
BLOCK
  5
C6
330
C4
100
AcDbEntity
  8
0
100
AcDbBlockBegin
  2
Block_10
 70
     0
 10
0.0
 20
0.0
 30
0.0
  3
Block_10
  1

  0
LINE
  5
C8
330
C4
100
AcDbEntity
  8
Livello 1
 62
    18
420
        0
370
     9
100
AcDbLine
 10
13.99557331361533
 20
-17.24664759119943
 30
0.0
 11
13.99557331361533
 21
-17.19394081941474
 31
0.0
  0
LWPOLYLINE
  5
C9
330
C4
100
AcDbEntity
  8
Livello 1
100
AcDbPolyline
 90
        3
 70
     1
 43
0.0
 10
13.99469623054386
 20
-16.93722804673153
 10
14.07967358710656
 20
-17.1921249994787
 10
13.91147304012398
 20
-17.1921249994787
  0
HATCH
  5
CA
330
C4
100
AcDbEntity
  8
Livello 1
 62
    18
420
        0
440
 33554687
100
AcDbHatch
 10
0.0
 20
0.0
 30
0.0
210
0.0
220
0.0
230
1.0
  2
SOLID
 70
     1
 71
     1
 91
        1
 92
        1
 93
        3
 72
     1
 10
13.99469623054386
 20
-16.93722804673153
 11
14.07967358710656
 21
-17.1921249994787
 72
     1
 10
14.07967358710656
 20
-17.1921249994787
 11
13.91147304012398
 21
-17.1921249994787
 72
     1
 10
13.91147304012398
 20
-17.1921249994787
 11
13.99469623054386
 21
-16.93722804673153
 97
        1
330
C9
 75
     0
 76
     1
 98
        1
 10
0.0
 20
0.0
450
        0
451
        0
460
0.0
461
0.0
452
        0
462
0.0
453
        0
470

  0
ENDBLK
  5
C7
330
C4
100
AcDbEntity
  8
0
100
AcDbBlockEnd
  0
BLOCK
  5
CD
330
CB
100
AcDbEntity
  8
0
100
AcDbBlockBegin
  2
Block_11
 70
     0
 10
0.0
 20
0.0
 30
0.0
  3
Block_11
  1

  0
LINE
  5
CF
330
CB
100
AcDbEntity
  8
Livello 1
 62
    18
420
        0
370
     9
100
AcDbLine
 10
13.99557331361533
 20
-17.63914679457306
 30
0.0
 11
13.99557331361533
 21
-17.68273436427633
 31
0.0
  0
LWPOLYLINE
  5
D0
330
CB
100
AcDbEntity
  8
Livello 1
100
AcDbPolyline
 90
        3
 70
     1
 43
0.0
 10
13.99645039668681
 20
-17.93944713695966
 10
13.91147304012398
 20
-17.68455018421249
 10
14.07967358710656
 20
-17.68455018421249
  0
HATCH
  5
D1
330
CB
100
AcDbEntity
  8
Livello 1
 62
    18
420
        0
440
 33554687
100
AcDbHatch
 10
0.0
 20
0.0
 30
0.0
210
0.0
220
0.0
230
1.0
  2
SOLID
 70
     1
 71
     1
 91
        1
 92
        1
 93
        3
 72
     1
 10
13.99645039668681
 20
-17.93944713695966
 11
13.91147304012398
 21
-17.68455018421249
 72
     1
 10
13.91147304012398
 20
-17.68455018421249
 11
14.07967358710656
 21
-17.68455018421249
 72
     1
 10
14.07967358710656
 20
-17.68455018421249
 11
13.99645039668681
 21
-17.93944713695966
 97
        1
330
D0
 75
     0
 76
     1
 98
        1
 10
0.0
 20
0.0
450
        0
451
        0
460
0.0
461
0.0
452
        0
462
0.0
453
        0
470

  0
ENDBLK
  5
CE
330
CB
100
AcDbEntity
  8
0
100
AcDbBlockEnd
  0
ENDSEC
  0
SECTION
  2
ENTITIES
  0
SPLINE
  5
79
330
70
100
AcDbEntity
  8
Livello 1
370
     9
100
AcDbSpline
210
0.0
220
0.0
230
1.0
 70
     8
 71
     3
 72
     8
 73
     4
 74
     0
 42
0.000000001
 43
0.0000000001
 40
0.0
 40
0.0
 40
0.0
 40
0.0
 40
1.0
 40
1.0
 40
1.0
 40
1.0
 10
13.52083912874117
 20
-17.65937216159506
 30
0.0
 10
13.52458203731325
 20
-17.65937216159506
 30
0.0
 10
13.52612234955401
 20
-17.66145601507172
 30
0.0
 10
13.52612234955401
 20
-17.66647666365688
 30
0.0
  0
LINE
  5
D2
330
70
100
AcDbEntity
  8
Livello 1
370
     9
100
AcDbLine
 10
7.996965104031499
 20
-17.51909140483179
 30
0.0
 11
7.958574496521666
 21
-17.65846996255987
 31
0.0
  0
LINE
  5
D3
330
70
100
AcDbEntity
  8
Livello 1
370
     9
100
AcDbLine
 10
12.98764150429977
 20
-17.51909140483179
 30
0.0
 11
7.996965104031499
 21
-17.51909140483179
 31
0.0
  0
LINE
  5
D4
330
70
100
AcDbEntity
  8
Livello 1
370
     9
100
AcDbLine
 10
12.98764150429977
 20
-17.51909140483179
 30
0.0
 11
13.02584693514018
 21
-17.65846996255987
 31
0.0
  0
LINE
  5
D5
330
70
100
AcDbEntity
  8
Livello 1
370
     9
100
AcDbLine
 10
12.3007542520944
 20
-17.65119406832925
 30
0.0
 11
12.3007542520944
 21
-17.6539236931814
 31
0.0
  0
LINE
  5
D6
330
70
100
AcDbEntity
  8
Livello 1
370
     9
100
AcDbLine
 10
12.30330687049243
 20
-17.64936810767726
 30
0.0
 11
12.3194982966813
 21
-17.64936810767726
 31
0.0
  0
SPLINE
  5
D7
330
70
100
AcDbEntity
  8
Livello 1
370
     9
100
AcDbSpline
210
0.0
220
0.0
230
1.0
 70
     8
 71
     3
 72
     8
 73
     4
 74
     0
 42
0.000000001
 43
0.0000000001
 40
0.0
 40
0.0
 40
0.0
 40
0.0
 40
1.0
 40
1.0
 40
1.0
 40
1.0
 10
12.3007542520944
 20
-17.65119406832925
 30
0.0
 10
12.3007542520944
 20
-17.65055125565066
 30
0.0
 10
12.30111758099046
 20
-17.65001092035572
 30
0.0
 10
12.30221813937519
 20
-17.64936810767726
 30
0.0
  0
LINE
  5
D8
330
70
100
AcDbEntity
  8
Livello 1
370
     9
100
AcDbLine
 10
12.40429367134832
 20
-17.64936810767726
 30
0.0
 11
12.4223030006221
 21
-17.64936810767726
 31
0.0
  0
SPLINE
  5
D9
330
70
100
AcDbEntity
  8
Livello 1
370
     9
100
AcDbSpline
210
0.0
220
0.0
230
1.0
 70
     8
 71
     3
 72
     8
 73
     4
 74
     0
 42
0.000000001
 43
0.0000000001
 40
0.0
 40
0.0
 40
0.0
 40
0.0
 40
1.0
 40
1.0
 40
1.0
 40
1.0
 10
12.4223030006221
 20
-17.64936810767726
 30
0.0
 10
12.42339172870571
 20
-17.65001092035572
 30
0.0
 10
12.42375505760183
 20
-17.65046741051872
 30
0.0
 10
12.42375505760183
 20
-17.65119406832925
 30
0.0
  0
SPLINE
  5
DA
330
70
100
AcDbEntity
  8
Livello 1
370
     9
100
AcDbSpline
210
0.0
220
0.0
230
1.0
 70
     8
 71
     3
 72
     8
 73
     4
 74
     0
 42
0.000000001
 43
0.0000000001
 40
0.0
 40
0.0
 40
0.0
 40
0.0
 40
1.0
 40
1.0
 40
1.0
 40
1.0
 10
12.40229070435719
 20
-17.64864144986666
 30
0.0
 10
12.40319436853458
 20
-17.64864144986666
 30
0.0
 10
12.40374401994142
 20
-17.6490047787719
 30
0.0
 10
12.40429367134832
 20
-17.64936810767726
 30
0.0
  0
LINE
  5
DB
330
70
100
AcDbEntity
  8
Livello 1
370
     9
100
AcDbLine
 10
10.49212163971761
 20
-17.65400753831341
 30
0.0
 11
7.626863384695511
 21
-17.65400753831341
 31
0.0
  0
SPLINE
  5
DC
330
70
100
AcDbEntity
  8
Livello 1
370
     9
100
AcDbSpline
210
0.0
220
0.0
230
1.0
 70
    24
 71
     3
 72
    26
 73
    22
 74
     0
 42
0.000000001
 43
0.0000000001
 40
0.0
 40
0.0
 40
0.0
 40
0.0
 40
1.0
 40
1.0
 40
1.0
 40
2.0
 40
2.0
 40
2.0
 40
3.0
 40
3.0
 40
3.0
 40
4.0
 40
4.0
 40
4.0
 40
5.0
 40
5.0
 40
5.0
 40
6.0
 40
6.0
 40
6.0
 40
7.0
 40
7.0
 40
7.0
 40
7.0
 10
13.35755690112501
 20
-17.65400753831341
 30
0.0
 10
13.35864688781312
 20
-17.65400753831341
 30
0.0
 10
13.35646691443678
 20
-17.65400753831341
 30
0.0
 10
13.35610358554066
 20
-17.65400753831341
 30
0.0
 10
13.35191132904762
 20
-17.65400753831341
 30
0.0
 10
13.34755138229481
 20
-17.65400753831341
 30
0.0
 10
13.34354544831242
 20
-17.65400753831341
 30
0.0
 10
13.3229860406031
 20
-17.65400753831341
 30
0.0
 10
13.30223774766715
 20
-17.65400753831341
 30
0.0
 10
13.28167705859996
 20
-17.65400753831341
 30
0.0
 10
13.18797546791654
 20
-17.65400753831341
 30
0.0
 10
13.09445088361833
 20
-17.65400753831341
 30
0.0
 10
13.00074125002648
 20
-17.65400753831341
 30
0.0
 10
12.88138177638811
 20
-17.65400753831341
 30
0.0
 10
12.76201425984138
 20
-17.65400753831341
 30
0.0
 10
12.64265605942022
 20
-17.65400753831341
 30
0.0
 10
12.40374401994142
 20
-17.65400753831341
 30
0.0
 10
12.16483198046275
 20
-17.65400753831341
 30
0.0
 10
11.92592925710951
 20
-17.65400753831341
 30
0.0
 10
11.44811572827217
 20
-17.65400753831341
 30
0.0
 10
10.97011340893479
 20
-17.65400753831341
 30
0.0
 10
10.49212163971761
 20
-17.65400753831341
 30
0.0
  0
LINE
  5
DD
330
70
100
AcDbEntity
  8
Livello 1
370
     9
100
AcDbLine
 10
13.19834431564274
 20
-17.65119406832925
 30
0.0
 11
13.19834431564274
 21
-17.6539236931814
 31
0.0
  0
LINE
  5
DE
330
70
100
AcDbEntity
  8
Livello 1
370
     9
100
AcDbLine
 10
13.07515718762453
 20
-17.65119406832925
 30
0.0
 11
13.07515718762453
 21
-17.6539236931814
 31
0.0
  0
SPLINE
  5
DF
330
70
100
AcDbEntity
  8
Livello 1
370
     9
100
AcDbSpline
210
0.0
220
0.0
230
1.0
 70
     8
 71
     3
 72
     8
 73
     4
 74
     0
 42
0.000000001
 43
0.0000000001
 40
0.0
 40
0.0
 40
0.0
 40
0.0
 40
1.0
 40
1.0
 40
1.0
 40
1.0
 10
13.09390250778206
 20
-17.64936810767726
 30
0.0
 10
13.09462789000354
 20
-17.64892093363996
 30
0.0
 10
13.09535454779572
 20
-17.64864144986666
 30
0.0
 10
13.09644453448389
 20
-17.64864144986666
 30
0.0
  0
LINE
  5
E0
330
70
100
AcDbEntity
  8
Livello 1
370
     9
100
AcDbLine
 10
10.54870778624886
 20
-17.64864144986666
 30
0.0
 11
10.53414668202953
 21
-17.64864144986666
 31
0.0
  0
LINE
  5
E1
330
70
100
AcDbEntity
  8
Livello 1
370
     9
100
AcDbLine
 10
10.53233003754918
 20
-17.64864144986666
 30
0.0
 11
10.45209024827131
 21
-17.64864144986666
 31
0.0
  0
LINE
  5
E2
330
70
100
AcDbEntity
  8
Livello 1
370
     9
100
AcDbLine
 10
10.44972395238413
 20
-17.64864144986666
 30
0.0
 11
10.43953211104311
 21
-17.64864144986666
 31
0.0
  0
SPLINE
  5
E3
330
70
100
AcDbEntity
  8
Livello 1
370
     9
100
AcDbSpline
210
0.0
220
0.0
230
1.0
 70
     8
 71
     3
 72
     8
 73
     4
 74
     0
 42
0.000000001
 43
0.0000000001
 40
0.0
 40
0.0
 40
0.0
 40
0.0
 40
1.0
 40
1.0
 40
1.0
 40
1.0
 10
10.4320698944854
 20
-17.64936810767726
 30
0.0
 10
10.43116743861225
 20
-17.65001092035572
 30
0.0
 10
10.43080290141195
 20
-17.65046741051872
 30
0.0
 10
10.43080290141195
 20
-17.65119406832925
 30
0.0
  0
SPLINE
  5
E4
330
70
100
AcDbEntity
  8
Livello 1
370
     9
100
AcDbSpline
210
0.0
220
0.0
230
1.0
 70
    24
 71
     3
 72
    17
 73
    13
 74
     0
 42
0.000000001
 43
0.0000000001
 40
0.0
 40
0.0
 40
0.0
 40
0.0
 40
1.0
 40
1.0
 40
1.0
 40
2.0
 40
2.0
 40
2.0
 40
3.0
 40
3.0
 40
3.0
 40
4.0
 40
4.0
 40
4.0
 40
4.0
 10
13.0767968257196
 20
-17.64936810767726
 30
0.0
 10
13.07515718762453
 20
-17.64936810767726
 30
0.0
 10
13.07825141647918
 20
-17.64936810767726
 30
0.0
 10
13.07897679909601
 20
-17.64936810767726
 30
0.0
 10
13.07952645050285
 20
-17.64936810767726
 30
0.0
 10
13.08025310829503
 20
-17.64936810767726
 30
0.0
 10
13.0809797660872
 20
-17.64936810767726
 30
0.0
 10
13.08261940418221
 20
-17.64936810767726
 30
0.0
 10
13.0840727197665
 20
-17.64936810767726
 30
0.0
 10
13.08534902896552
 20
-17.64936810767726
 30
0.0
 10
13.0882649762596
 20
-17.64936810767726
 30
0.0
 10
13.09117160742819
 20
-17.64936810767726
 30
0.0
 10
13.09390250778206
 20
-17.64936810767726
 30
0.0
  0
SPLINE
  5
E5
330
70
100
AcDbEntity
  8
Livello 1
370
     9
100
AcDbSpline
210
0.0
220
0.0
230
1.0
 70
     8
 71
     3
 72
     8
 73
     4
 74
     0
 42
0.000000001
 43
0.0000000001
 40
0.0
 40
0.0
 40
0.0
 40
0.0
 40
1.0
 40
1.0
 40
1.0
 40
1.0
 10
10.55380370691935
 20
-17.65119406832925
 30
0.0
 10
10.55380370691935
 20
-17.64936810767726
 30
0.0
 10
10.55216406882428
 20
-17.64864144986666
 30
0.0
 10
10.54870778624886
 20
-17.64864144986666
 30
0.0
  0
LINE
  5
E6
330
70
100
AcDbEntity
  8
Livello 1
370
     9
100
AcDbLine
 10
10.55380370691935
 20
-17.65119406832925
 30
0.0
 11
10.55380370691935
 21
-17.6539236931814
 31
0.0
  0
LINE
  5
E7
330
70
100
AcDbEntity
  8
Livello 1
370
     9
100
AcDbLine
 10
10.43061657890114
 20
-17.65400753831341
 30
0.0
 11
10.43061657890114
 21
-17.65119406832925
 31
0.0
  0
LINE
  5
E8
330
70
100
AcDbEntity
  8
Livello 1
370
     9
100
AcDbLine
 10
8.662192364355915
 20
-17.64864144986666
 30
0.0
 11
8.582129581463332
 21
-17.64864144986666
 31
0.0
  0
LINE
  5
E9
330
70
100
AcDbEntity
  8
Livello 1
370
     9
100
AcDbLine
 10
8.580489943368293
 20
-17.64864144986666
 30
0.0
 11
8.566851135577387
 21
-17.64864144986666
 31
0.0
  0
SPLINE
  5
EA
330
70
100
AcDbEntity
  8
Livello 1
370
     9
100
AcDbSpline
210
0.0
220
0.0
230
1.0
 70
     8
 71
     3
 72
     8
 73
     4
 74
     0
 42
0.000000001
 43
0.0000000001
 40
0.0
 40
0.0
 40
0.0
 40
0.0
 40
1.0
 40
1.0
 40
1.0
 40
1.0
 10
13.07515718762453
 20
-17.65119406832925
 30
0.0
 10
13.07515718762453
 20
-17.65055125565066
 30
0.0
 10
13.07570683903137
 20
-17.65001092035572
 30
0.0
 10
13.0767968257196
 20
-17.64936810767726
 30
0.0
  0
LINE
  5
EB
330
70
100
AcDbEntity
  8
Livello 1
370
     9
100
AcDbLine
 10
13.17960027105584
 20
-17.64936810767726
 30
0.0
 11
13.19689100005851
 21
-17.64936810767726
 31
0.0
  0
SPLINE
  5
EC
330
70
100
AcDbEntity
  8
Livello 1
370
     9
100
AcDbSpline
210
0.0
220
0.0
230
1.0
 70
    24
 71
     3
 72
    20
 73
    16
 74
     0
 42
0.000000001
 43
0.0000000001
 40
0.0
 40
0.0
 40
0.0
 40
0.0
 40
1.0
 40
1.0
 40
1.0
 40
2.0
 40
2.0
 40
2.0
 40
3.0
 40
3.0
 40
3.0
 40
4.0
 40
4.0
 40
4.0
 40
5.0
 40
5.0
 40
5.0
 40
5.0
 10
8.677657132752671
 20
-17.64864144986666
 30
0.0
 10
8.678020461648728
 20
-17.64864144986666
 30
0.0
 10
8.678383790544817
 20
-17.64864144986666
 30
0.0
 10
8.678747119440874
 20
-17.64864144986666
 30
0.0
 10
8.67947377723302
 20
-17.64864144986666
 30
0.0
 10
8.678206784159538
 20
-17.64864144986666
 30
0.0
 10
8.677843455263481
 20
-17.64864144986666
 30
0.0
 10
8.677107481345835
 20
-17.64864144986666
 30
0.0
 10
8.67620381716841
 20
-17.64864144986666
 30
0.0
 10
8.67565416576151
 20
-17.64864144986666
 30
0.0
 10
8.67420085017725
 20
-17.64864144986666
 30
0.0
 10
8.672562375960282
 20
-17.64864144986666
 30
0.0
 10
8.670921573987106
 20
-17.64864144986666
 30
0.0
 10
8.668014942818555
 20
-17.64864144986666
 30
0.0
 10
8.6650989955245
 20
-17.64864144986666
 30
0.0
 10
8.662192364355915
 20
-17.64864144986666
 30
0.0
  0
SPLINE
  5
ED
330
70
100
AcDbEntity
  8
Livello 1
370
     9
100
AcDbSpline
210
0.0
220
0.0
230
1.0
 70
     8
 71
     3
 72
     8
 73
     4
 74
     0
 42
0.000000001
 43
0.0000000001
 40
0.0
 40
0.0
 40
0.0
 40
0.0
 40
1.0
 40
1.0
 40
1.0
 40
1.0
 10
13.17687064627254
 20
-17.64864144986666
 30
0.0
 10
13.17796063296077
 20
-17.64864144986666
 30
0.0
 10
13.17833327798239
 20
-17.6490047787719
 30
0.0
 10
13.17905993577451
 20
-17.64936810767726
 30
0.0
  0
SPLINE
  5
EE
330
70
100
AcDbEntity
  8
Livello 1
370
     9
100
AcDbSpline
210
0.0
220
0.0
230
1.0
 70
     8
 71
     3
 72
     8
 73
     4
 74
     0
 42
0.000000001
 43
0.0000000001
 40
0.0
 40
0.0
 40
0.0
 40
0.0
 40
1.0
 40
1.0
 40
1.0
 40
1.0
 10
13.19689100005851
 20
-17.64936810767726
 30
0.0
 10
13.19798098674668
 20
-17.65001092035572
 30
0.0
 10
13.19834431564274
 20
-17.65046741051872
 30
0.0
 10
13.19834431564274
 20
-17.65119406832925
 30
0.0
  0
LINE
  5
EF
330
70
100
AcDbEntity
  8
Livello 1
370
     9
100
AcDbLine
 10
7.847758037379526
 20
-17.64864144986666
 30
0.0
 11
7.792075555025637
 21
-17.64864144986666
 31
0.0
  0
LINE
  5
F0
330
70
100
AcDbEntity
  8
Livello 1
370
     9
100
AcDbLine
 10
7.786075970177752
 20
-17.65119406832925
 30
0.0
 11
7.786075970177752
 21
-17.6539236931814
 31
0.0
  0
LINE
  5
F1
330
70
100
AcDbEntity
  8
Livello 1
370
     9
100
AcDbLine
 10
7.90907677568518
 20
-17.65119406832925
 30
0.0
 11
7.90907677568518
 21
-17.6539236931814
 31
0.0
  0
SPLINE
  5
F2
330
70
100
AcDbEntity
  8
Livello 1
370
     9
100
AcDbSpline
210
0.0
220
0.0
230
1.0
 70
    24
 71
     3
 72
    20
 73
    16
 74
     0
 42
0.000000001
 43
0.0000000001
 40
0.0
 40
0.0
 40
0.0
 40
0.0
 40
1.0
 40
1.0
 40
1.0
 40
2.0
 40
2.0
 40
2.0
 40
3.0
 40
3.0
 40
3.0
 40
4.0
 40
4.0
 40
4.0
 40
5.0
 40
5.0
 40
5.0
 40
5.0
 10
7.903254197222541
 20
-17.64864144986666
 30
0.0
 10
7.903440519733353
 20
-17.64864144986666
 30
0.0
 10
7.903981999476807
 20
-17.64864144986666
 30
0.0
 10
7.903617526118599
 20
-17.64864144986666
 30
0.0
 10
7.901977888023528
 20
-17.64864144986666
 30
0.0
 10
7.899797914647121
 20
-17.64864144986666
 30
0.0
 10
7.897981270166771
 20
-17.64864144986666
 30
0.0
 10
7.895614974279554
 20
-17.64864144986666
 30
0.0
 10
7.893062355881557
 20
-17.64864144986666
 30
0.0
 10
7.89088238250515
 20
-17.64864144986666
 30
0.0
 10
7.885972784345437
 20
-17.64864144986666
 30
0.0
 10
7.881240192571033
 20
-17.64864144986666
 30
0.0
 10
7.876321278285788
 20
-17.64864144986666
 30
0.0
 10
7.866865410862482
 20
-17.64864144986666
 30
0.0
 10
7.857223220928365
 20
-17.64864144986666
 30
0.0
 10
7.847758037379526
 20
-17.64864144986666
 30
0.0
  0
LINE
  5
F3
330
70
100
AcDbEntity
  8
Livello 1
370
     9
100
AcDbLine
 10
7.89033273109825
 20
-17.64936810767726
 30
0.0
 11
7.907801611044893
 21
-17.64936810767726
 31
0.0
  0
SPLINE
  5
F4
330
70
100
AcDbEntity
  8
Livello 1
370
     9
100
AcDbSpline
210
0.0
220
0.0
230
1.0
 70
     8
 71
     3
 72
     8
 73
     4
 74
     0
 42
0.000000001
 43
0.0000000001
 40
0.0
 40
0.0
 40
0.0
 40
0.0
 40
1.0
 40
1.0
 40
1.0
 40
1.0
 10
7.887603106314975
 20
-17.64864144986666
 30
0.0
 10
7.888703553205009
 20
-17.64864144986666
 30
0.0
 10
7.8890657380248
 20
-17.6490047787719
 30
0.0
 10
7.889792395816947
 20
-17.64936810767726
 30
0.0
  0
SPLINE
  5
F5
330
70
100
AcDbEntity
  8
Livello 1
370
     9
100
AcDbSpline
210
0.0
220
0.0
230
1.0
 70
    24
 71
     3
 72
    20
 73
    16
 74
     0
 42
0.000000001
 43
0.0000000001
 40
0.0
 40
0.0
 40
0.0
 40
0.0
 40
1.0
 40
1.0
 40
1.0
 40
2.0
 40
2.0
 40
2.0
 40
3.0
 40
3.0
 40
3.0
 40
4.0
 40
4.0
 40
4.0
 40
5.0
 40
5.0
 40
5.0
 40
5.0
 10
13.19252173718013
 20
-17.64864144986666
 30
0.0
 10
13.19269874356535
 20
-17.64864144986666
 30
0.0
 10
13.19307138858703
 20
-17.64864144986666
 30
0.0
 10
13.19288506607619
 20
-17.64864144986666
 30
0.0
 10
13.19106969962104
 20
-17.64864144986666
 30
0.0
 10
13.18906545460471
 20
-17.64864144986666
 30
0.0
 10
13.18725008805318
 20
-17.64864144986666
 30
0.0
 10
13.18469619172633
 20
-17.64864144986666
 30
0.0
 10
13.18232989583915
 20
-17.64864144986666
 30
0.0
 10
13.1799635999519
 20
-17.64864144986666
 30
0.0
 10
13.17523228580262
 20
-17.64864144986666
 30
0.0
 10
13.17032141001782
 20
-17.64864144986666
 30
0.0
 10
13.16558881824338
 20
-17.64864144986666
 30
0.0
 10
13.15594790544715
 20
-17.64864144986666
 30
0.0
 10
13.14649076088592
 20
-17.64864144986666
 30
0.0
 10
13.13683925482628
 20
-17.64864144986666
 30
0.0
  0
SPLINE
  5
F6
330
70
100
AcDbEntity
  8
Livello 1
370
     9
100
AcDbSpline
210
0.0
220
0.0
230
1.0
 70
     8
 71
     3
 72
     8
 73
     4
 74
     0
 42
0.000000001
 43
0.0000000001
 40
0.0
 40
0.0
 40
0.0
 40
0.0
 40
1.0
 40
1.0
 40
1.0
 40
1.0
 10
7.907801611044893
 20
-17.64936810767726
 30
0.0
 10
7.908713446789091
 20
-17.65001092035572
 30
0.0
 10
7.90907677568518
 20
-17.65046741051872
 30
0.0
 10
7.90907677568518
 20
-17.65119406832925
 30
0.0
  0
SPLINE
  5
F7
330
70
100
AcDbEntity
  8
Livello 1
370
     9
100
AcDbSpline
210
0.0
220
0.0
230
1.0
 70
     8
 71
     3
 72
     8
 73
     4
 74
     0
 42
0.000000001
 43
0.0000000001
 40
0.0
 40
0.0
 40
0.0
 40
0.0
 40
1.0
 40
1.0
 40
1.0
 40
1.0
 10
7.80482001476465
 20
-17.64936810767726
 30
0.0
 10
7.805360350045986
 20
-17.64892093363996
 30
0.0
 10
7.806087007838131
 20
-17.64864144986666
 30
0.0
 10
7.807363317037178
 20
-17.64864144986666
 30
0.0
  0
LINE
  5
F8
330
70
100
AcDbEntity
  8
Livello 1
370
     9
100
AcDbLine
 10
13.13683925482628
 20
-17.64864144986666
 30
0.0
 11
13.08116608859798
 21
-17.64864144986666
 31
0.0
  0
SPLINE
  5
F9
330
70
100
AcDbEntity
  8
Livello 1
370
     9
100
AcDbSpline
210
0.0
220
0.0
230
1.0
 70
    24
 71
     3
 72
    17
 73
    13
 74
     0
 42
0.000000001
 43
0.0000000001
 40
0.0
 40
0.0
 40
0.0
 40
0.0
 40
1.0
 40
1.0
 40
1.0
 40
2.0
 40
2.0
 40
2.0
 40
3.0
 40
3.0
 40
3.0
 40
4.0
 40
4.0
 40
4.0
 40
4.0
 10
7.787716749797886
 20
-17.64936810767726
 30
0.0
 10
7.786075970177752
 20
-17.64936810767726
 30
0.0
 10
7.788982601346305
 20
-17.64936810767726
 30
0.0
 10
7.789718575263984
 20
-17.64936810767726
 30
0.0
 10
7.790445233056098
 20
-17.64936810767726
 30
0.0
 10
7.790985568337434
 20
-17.64936810767726
 30
0.0
 10
7.79189854864039
 20
-17.64936810767726
 30
0.0
 10
7.793351864224651
 20
-17.64936810767726
 30
0.0
 10
7.794805179808943
 20
-17.64936810767726
 30
0.0
 10
7.796267811518736
 20
-17.64936810767726
 30
0.0
 10
7.798997436302012
 20
-17.64936810767726
 30
0.0
 10
7.801904067470564
 20
-17.64936810767726
 30
0.0
 10
7.80482001476465
 20
-17.64936810767726
 30
0.0
  0
SPLINE
  5
FA
330
70
100
AcDbEntity
  8
Livello 1
370
     9
100
AcDbSpline
210
0.0
220
0.0
230
1.0
 70
     8
 71
     3
 72
     8
 73
     4
 74
     0
 42
0.000000001
 43
0.0000000001
 40
0.0
 40
0.0
 40
0.0
 40
0.0
 40
1.0
 40
1.0
 40
1.0
 40
1.0
 10
7.786075970177752
 20
-17.65119406832925
 30
0.0
 10
7.786075970177752
 20
-17.65055125565066
 30
0.0
 10
7.78662562158462
 20
-17.65001092035572
 30
0.0
 10
7.787530427282327
 20
-17.64936810767726
 30
0.0
  0
SPLINE
  5
FB
330
70
100
AcDbEntity
  8
Livello 1
370
     9
100
AcDbSpline
210
0.0
220
0.0
230
1.0
 70
    24
 71
     3
 72
    20
 73
    16
 74
     0
 42
0.000000001
 43
0.0000000001
 40
0.0
 40
0.0
 40
0.0
 40
0.0
 40
1.0
 40
1.0
 40
1.0
 40
2.0
 40
2.0
 40
2.0
 40
3.0
 40
3.0
 40
3.0
 40
4.0
 40
4.0
 40
4.0
 40
5.0
 40
5.0
 40
5.0
 40
5.0
 10
12.4175691502431
 20
-17.64864144986666
 30
0.0
 10
12.41811880165
 20
-17.64864144986666
 30
0.0
 10
12.41848338905411
 20
-17.64864144986666
 30
0.0
 10
12.41884545944212
 20
-17.64864144986666
 30
0.0
 10
12.41939511084902
 20
-17.64864144986666
 30
0.0
 10
12.41829706653858
 20
-17.64864144986666
 30
0.0
 10
12.41811880165
 20
-17.64864144986666
 30
0.0
 10
12.41739214385789
 20
-17.64864144986666
 30
0.0
 10
12.41666548606571
 20
-17.64864144986666
 30
0.0
 10
12.41611583465888
 20
-17.64864144986666
 30
0.0
 10
12.41466377748625
 20
-17.64864144986666
 30
0.0
 10
12.41338620987557
 20
-17.64864144986666
 30
0.0
 10
12.41210990067656
 20
-17.64864144986666
 30
0.0
 10
12.40938027589325
 20
-17.64864144986666
 30
0.0
 10
12.40665190931915
 20
-17.64864144986666
 30
0.0
 10
12.40410734883754
 20
-17.64864144986666
 30
0.0
  0
LINE
  5
FC
330
70
100
AcDbEntity
  8
Livello 1
370
     9
100
AcDbLine
 10
12.40229070435719
 20
-17.64864144986666
 30
0.0
 11
12.32222792146454
 21
-17.64864144986666
 31
0.0
  0
LINE
  5
FD
330
70
100
AcDbEntity
  8
Livello 1
370
     9
100
AcDbLine
 10
8.560655912093158
 20
-17.65119406832925
 30
0.0
 11
8.560655912093158
 21
-17.6539236931814
 31
0.0
  0
LINE
  5
FE
330
70
100
AcDbEntity
  8
Livello 1
370
     9
100
AcDbLine
 10
8.683666033726121
 20
-17.65119406832925
 30
0.0
 11
8.683666033726121
 21
-17.6539236931814
 31
0.0
  0
LINE
  5
FF
330
70
100
AcDbEntity
  8
Livello 1
370
     9
100
AcDbLine
 10
12.31968461919208
 20
-17.64864144986666
 30
0.0
 11
12.30676315306785
 21
-17.64864144986666
 31
0.0
  0
SPLINE
  5
100
330
70
100
AcDbEntity
  8
Livello 1
370
     9
100
AcDbSpline
210
0.0
220
0.0
230
1.0
 70
     8
 71
     3
 72
     8
 73
     4
 74
     0
 42
0.000000001
 43
0.0000000001
 40
0.0
 40
0.0
 40
0.0
 40
0.0
 40
1.0
 40
1.0
 40
1.0
 40
1.0
 10
8.682389724527105
 20
-17.64936810767726
 30
0.0
 10
8.683302704830031
 20
-17.65001092035572
 30
0.0
 10
8.683666033726121
 20
-17.65046741051872
 30
0.0
 10
8.683666033726121
 20
-17.65119406832925
 30
0.0
  0
LINE
  5
101
330
70
100
AcDbEntity
  8
Livello 1
370
     9
100
AcDbLine
 10
8.664923152824464
 20
-17.64936810767726
 30
0.0
 11
8.680936408942812
 21
-17.64936810767726
 31
0.0
  0
SPLINE
  5
102
330
70
100
AcDbEntity
  8
Livello 1
370
     9
100
AcDbSpline
210
0.0
220
0.0
230
1.0
 70
     8
 71
     3
 72
     8
 73
     4
 74
     0
 42
0.000000001
 43
0.0000000001
 40
0.0
 40
0.0
 40
0.0
 40
0.0
 40
1.0
 40
1.0
 40
1.0
 40
1.0
 10
7.626136726903428
 20
-17.65400753831341
 30
0.0
 10
7.622680444327975
 20
-17.65400753831341
 30
0.0
 10
7.621040806232904
 20
-17.6547435122497
 30
0.0
 10
7.621040806232904
 20
-17.6566533180337
 30
0.0
  0
SPLINE
  5
103
330
70
100
AcDbEntity
  8
Livello 1
370
     9
100
AcDbSpline
210
0.0
220
0.0
230
1.0
 70
     8
 71
     3
 72
     8
 73
     4
 74
     0
 42
0.000000001
 43
0.0000000001
 40
0.0
 40
0.0
 40
0.0
 40
0.0
 40
1.0
 40
1.0
 40
1.0
 40
1.0
 10
13.35828355891713
 20
-17.65400753831341
 30
0.0
 10
13.36174112382932
 20
-17.65400753831341
 30
0.0
 10
13.36319315707684
 20
-17.6547435122497
 30
0.0
 10
13.36319315707684
 20
-17.6566533180337
 30
0.0
  0
LINE
  5
104
330
70
100
AcDbEntity
  8
Livello 1
370
     9
100
AcDbLine
 10
10.4320698944854
 20
-17.64936810767726
 30
0.0
 11
10.44936062348804
 21
-17.64936810767726
 31
0.0
  0
SPLINE
  5
105
330
70
100
AcDbEntity
  8
Livello 1
370
     9
100
AcDbSpline
210
0.0
220
0.0
230
1.0
 70
     8
 71
     3
 72
     8
 73
     4
 74
     0
 42
0.000000001
 43
0.0000000001
 40
0.0
 40
0.0
 40
0.0
 40
0.0
 40
1.0
 40
1.0
 40
1.0
 40
1.0
 10
10.53233003754918
 20
-17.64864144986666
 30
0.0
 10
10.5332430178521
 20
-17.64864144986666
 30
0.0
 10
10.53360634674822
 20
-17.6490047787719
 30
0.0
 10
10.53433300454034
 20
-17.64936810767726
 30
0.0
  0
LINE
  5
106
330
70
100
AcDbEntity
  8
Livello 1
370
     9
100
AcDbLine
 10
10.53451001092558
 20
-17.64936810767726
 30
0.0
 11
10.55216406882428
 21
-17.64936810767726
 31
0.0
  0
SPLINE
  5
107
330
70
100
AcDbEntity
  8
Livello 1
370
     9
100
AcDbSpline
210
0.0
220
0.0
230
1.0
 70
     8
 71
     3
 72
     8
 73
     4
 74
     0
 42
0.000000001
 43
0.0000000001
 40
0.0
 40
0.0
 40
0.0
 40
0.0
 40
1.0
 40
1.0
 40
1.0
 40
1.0
 10
10.44936062348804
 20
-17.64936810767726
 30
0.0
 10
10.45008728128019
 20
-17.64892093363996
 30
0.0
 10
10.45063814148322
 20
-17.64864144986666
 30
0.0
 10
10.45190392576054
 20
-17.64864144986666
 30
0.0
  0
SPLINE
  5
108
330
70
100
AcDbEntity
  8
Livello 1
370
     9
100
AcDbSpline
210
0.0
220
0.0
230
1.0
 70
     8
 71
     3
 72
     8
 73
     4
 74
     0
 42
0.000000001
 43
0.0000000001
 40
0.0
 40
0.0
 40
0.0
 40
0.0
 40
1.0
 40
1.0
 40
1.0
 40
1.0
 10
8.560655912093158
 20
-17.65119406832925
 30
0.0
 10
8.560655912093158
 20
-17.65055125565066
 30
0.0
 10
8.561028557114749
 20
-17.65001092035572
 30
0.0
 10
8.561932221292142
 20
-17.64936810767726
 30
0.0
  0
SPLINE
  5
109
330
70
100
AcDbEntity
  8
Livello 1
370
     9
100
AcDbSpline
210
0.0
220
0.0
230
1.0
 70
    24
 71
     3
 72
    17
 73
    13
 74
     0
 42
0.000000001
 43
0.0000000001
 40
0.0
 40
0.0
 40
0.0
 40
0.0
 40
1.0
 40
1.0
 40
1.0
 40
2.0
 40
2.0
 40
2.0
 40
3.0
 40
3.0
 40
3.0
 40
4.0
 40
4.0
 40
4.0
 40
4.0
 10
8.561932221292142
 20
-17.64936810767726
 30
0.0
 10
8.560655912093158
 20
-17.64936810767726
 30
0.0
 10
8.563571859387245
 20
-17.64936810767726
 30
0.0
 10
8.564298517179359
 20
-17.64936810767726
 30
0.0
 10
8.565025174971506
 20
-17.64936810767726
 30
0.0
 10
8.565751832763652
 20
-17.64936810767726
 30
0.0
 10
8.566301484170519
 20
-17.64936810767726
 30
0.0
 10
8.567942283500793
 20
-17.64936810767726
 30
0.0
 10
8.569394437849851
 20
-17.64936810767726
 30
0.0
 10
8.570847753434144
 20
-17.64936810767726
 30
0.0
 10
8.57376370072823
 20
-17.64936810767726
 30
0.0
 10
8.576493325511536
 20
-17.64936810767726
 30
0.0
 10
8.579401118204698
 20
-17.64936810767726
 30
0.0
  0
SPLINE
  5
10A
330
70
100
AcDbEntity
  8
Livello 1
370
     9
100
AcDbSpline
210
0.0
220
0.0
230
1.0
 70
     8
 71
     3
 72
     8
 73
     4
 74
     0
 42
0.000000001
 43
0.0000000001
 40
0.0
 40
0.0
 40
0.0
 40
0.0
 40
1.0
 40
1.0
 40
1.0
 40
1.0
 10
8.579587440720256
 20
-17.64919110128742
 30
0.0
 10
8.580312936982982
 20
-17.64892093363996
 30
0.0
 10
8.580853272264285
 20
-17.64855760473472
 30
0.0
 10
8.581952575078085
 20
-17.64855760473472
 30
0.0
  0
LINE
  5
10B
330
70
100
AcDbEntity
  8
Livello 1
370
     9
100
AcDbLine
 10
12.42375505760183
 20
-17.65119406832925
 30
0.0
 11
12.42375505760183
 21
-17.6539236931814
 31
0.0
  0
LINE
  5
10C
330
70
100
AcDbEntity
  8
Livello 1
370
     9
100
AcDbLine
 10
12.31877163888919
 20
-17.65119406832925
 30
0.0
 11
12.30203181685966
 21
-17.65119406832925
 31
0.0
  0
SPLINE
  5
10D
330
70
100
AcDbEntity
  8
Livello 1
370
     9
100
AcDbSpline
210
0.0
220
0.0
230
1.0
 70
    24
 71
     3
 72
    23
 73
    19
 74
     0
 42
0.000000001
 43
0.0000000001
 40
0.0
 40
0.0
 40
0.0
 40
0.0
 40
1.0
 40
1.0
 40
1.0
 40
2.0
 40
2.0
 40
2.0
 40
3.0
 40
3.0
 40
3.0
 40
4.0
 40
4.0
 40
4.0
 40
5.0
 40
5.0
 40
5.0
 40
6.0
 40
6.0
 40
6.0
 40
6.0
 10
12.42248932313763
 20
-17.65119406832925
 30
0.0
 10
12.42285139342438
 20
-17.65119406832925
 30
0.0
 10
12.42466803790472
 20
-17.65119406832925
 30
0.0
 10
12.42375505760183
 20
-17.65119406832925
 30
0.0
 10
12.4232147223205
 20
-17.65119406832925
 30
0.0
 10
12.4226650709136
 20
-17.65119406832925
 30
0.0
 10
12.42212473563226
 20
-17.65119406832925
 30
0.0
 10
12.41884545944212
 20
-17.65119406832925
 30
0.0
 10
12.41520285435592
 20
-17.65119406832925
 30
0.0
 10
12.4117465717805
 20
-17.65119406832925
 30
0.0
 10
12.40738662502768
 20
-17.65119406832925
 30
0.0
 10
12.40301862026675
 20
-17.65119406832925
 30
0.0
 10
12.39847109288571
 20
-17.65119406832925
 30
0.0
 10
12.38973256712896
 20
-17.65119406832925
 30
0.0
 10
12.38064002860171
 20
-17.65119406832925
 30
0.0
 10
12.37190276017638
 20
-17.65119406832925
 30
0.0
 10
12.35424744494629
 20
-17.65119406832925
 30
0.0
 10
12.33641638066235
 20
-17.65119406832925
 30
0.0
 10
12.31877163888919
 20
-17.65119406832925
 30
0.0
  0
SPLINE
  5
10E
330
70
100
AcDbEntity
  8
Livello 1
370
     9
100
AcDbSpline
210
0.0
220
0.0
230
1.0
 70
     8
 71
     3
 72
     8
 73
     4
 74
     0
 42
0.000000001
 43
0.0000000001
 40
0.0
 40
0.0
 40
0.0
 40
0.0
 40
1.0
 40
1.0
 40
1.0
 40
1.0
 10
12.32222792146454
 20
-17.64864144986666
 30
0.0
 10
12.31931197417052
 20
-17.6490047787719
 30
0.0
 10
12.31840830999306
 20
-17.64973143658243
 30
0.0
 10
12.31877163888919
 20
-17.65119406832925
 30
0.0
  0
LINE
  5
10F
330
70
100
AcDbEntity
  8
Livello 1
370
     9
100
AcDbLine
 10
13.13683925482628
 20
-17.65400753831341
 30
0.0
 11
13.13683925482628
 21
-17.65119406832925
 31
0.0
  0
LINE
  5
110
330
70
100
AcDbEntity
  8
Livello 1
370
     9
100
AcDbLine
 10
13.13683925482628
 20
-17.65119406832925
 30
0.0
 11
13.0762471743127
 21
-17.65119406832925
 31
0.0
  0
LINE
  5
112
330
70
100
AcDbEntity
  8
Livello 1
370
     9
100
AcDbLine
 10
13.13683925482628
 20
-17.64864144986666
 30
0.0
 11
13.13683925482628
 21
-17.65119406832925
 31
0.0
  0
LINE
  5
113
330
70
100
AcDbEntity
  8
Livello 1
370
     9
100
AcDbLine
 10
7.847758037379526
 20
-17.65119406832925
 30
0.0
 11
7.847758037379526
 21
-17.6539236931814
 31
0.0
  0
SPLINE
  5
114
330
70
100
AcDbEntity
  8
Livello 1
370
     9
100
AcDbSpline
210
0.0
220
0.0
230
1.0
 70
    24
 71
     3
 72
    20
 73
    16
 74
     0
 42
0.000000001
 43
0.0000000001
 40
0.0
 40
0.0
 40
0.0
 40
0.0
 40
1.0
 40
1.0
 40
1.0
 40
2.0
 40
2.0
 40
2.0
 40
3.0
 40
3.0
 40
3.0
 40
4.0
 40
4.0
 40
4.0
 40
5.0
 40
5.0
 40
5.0
 40
5.0
 10
7.908163795382255
 20
-17.65119406832925
 30
0.0
 10
7.908163795382255
 20
-17.65119406832925
 30
0.0
 10
7.908899769299901
 20
-17.65119406832925
 30
0.0
 10
7.908527124278312
 20
-17.65119406832925
 30
0.0
 10
7.906533473412684
 20
-17.65119406832925
 30
0.0
 10
7.904530506421556
 20
-17.65119406832925
 30
0.0
 10
7.902341216919585
 20
-17.65119406832925
 30
0.0
 10
7.899797914647121
 20
-17.65119406832925
 30
0.0
 10
7.897068289863846
 20
-17.65119406832925
 30
0.0
 10
7.89452498759135
 20
-17.65119406832925
 30
0.0
 10
7.889429066920857
 20
-17.65119406832925
 30
0.0
 10
7.884146823739587
 20
-17.65119406832925
 30
0.0
 10
7.878873896683816
 20
-17.65119406832925
 30
0.0
 10
7.868505048957553
 20
-17.65119406832925
 30
0.0
 10
7.858126885105757
 20
-17.65119406832925
 30
0.0
 10
7.847571714868684
 20
-17.65119406832925
 30
0.0
  0
LINE
  5
115
330
70
100
AcDbEntity
  8
Livello 1
370
     9
100
AcDbLine
 10
7.847758037379526
 20
-17.65119406832925
 30
0.0
 11
7.847758037379526
 21
-17.64864144986666
 31
0.0
  0
LINE
  5
116
330
70
100
AcDbEntity
  8
Livello 1
370
     9
100
AcDbLine
 10
7.847758037379526
 20
-17.65119406832925
 30
0.0
 11
7.786988950480677
 21
-17.65119406832925
 31
0.0
  0
LINE
  5
117
330
70
100
AcDbEntity
  8
Livello 1
370
     9
100
AcDbLine
 10
8.665648646931336
 20
-17.65119406832925
 30
0.0
 11
8.665648646931336
 21
-17.6539236931814
 31
0.0
  0
SPLINE
  5
118
330
70
100
AcDbEntity
  8
Livello 1
370
     9
100
AcDbSpline
210
0.0
220
0.0
230
1.0
 70
    24
 71
     3
 72
    20
 73
    16
 74
     0
 42
0.000000001
 43
0.0000000001
 40
0.0
 40
0.0
 40
0.0
 40
0.0
 40
1.0
 40
1.0
 40
1.0
 40
2.0
 40
2.0
 40
2.0
 40
3.0
 40
3.0
 40
3.0
 40
4.0
 40
4.0
 40
4.0
 40
5.0
 40
5.0
 40
5.0
 40
5.0
 10
8.682566730912352
 20
-17.65119406832925
 30
0.0
 10
8.682930059808441
 20
-17.65119406832925
 30
0.0
 10
8.683302704830031
 20
-17.65119406832925
 30
0.0
 10
8.683843040111366
 20
-17.65119406832925
 30
0.0
 10
8.684393855695272
 20
-17.65119406832925
 30
0.0
 10
8.682930059808441
 20
-17.65119406832925
 30
0.0
 10
8.682753053423162
 20
-17.65119406832925
 30
0.0
 10
8.681663066734959
 20
-17.65119406832925
 30
0.0
 10
8.680936408942812
 20
-17.65119406832925
 30
0.0
 10
8.68020159909626
 20
-17.65119406832925
 30
0.0
 10
8.678570113055595
 20
-17.65119406832925
 30
0.0
 10
8.676930474960524
 20
-17.65119406832925
 30
0.0
 10
8.675477159376264
 20
-17.65119406832925
 30
0.0
 10
8.672197883186122
 20
-17.65119406832925
 30
0.0
 10
8.668929086907915
 20
-17.65119406832925
 30
0.0
 10
8.665648646931336
 20
-17.65119406832925
 30
0.0
  0
SPLINE
  5
119
330
70
100
AcDbEntity
  8
Livello 1
370
     9
100
AcDbSpline
210
0.0
220
0.0
230
1.0
 70
     8
 71
     3
 72
     8
 73
     4
 74
     0
 42
0.000000001
 43
0.0000000001
 40
0.0
 40
0.0
 40
0.0
 40
0.0
 40
1.0
 40
1.0
 40
1.0
 40
1.0
 10
8.665648646931336
 20
-17.65119406832925
 30
0.0
 10
8.666198298338205
 20
-17.64973143658243
 30
0.0
 10
8.6650989955245
 20
-17.6490047787719
 30
0.0
 10
8.662192364355915
 20
-17.64864144986666
 30
0.0
  0
LINE
  5
11A
330
70
100
AcDbEntity
  8
Livello 1
370
     9
100
AcDbLine
 10
8.665648646931336
 20
-17.65119406832925
 30
0.0
 11
8.561932221292142
 21
-17.65119406832925
 31
0.0
  0
LINE
  5
11B
330
70
100
AcDbEntity
  8
Livello 1
370
     9
100
AcDbLine
 10
10.55380370691935
 20
-17.65119406832925
 30
0.0
 11
10.43061657890114
 21
-17.65119406832925
 31
0.0
  0
LINE
  5
11C
330
70
100
AcDbEntity
  8
Livello 1
370
     9
100
AcDbLine
 10
10.49212163971761
 20
-17.6566533180337
 30
0.0
 11
10.49212163971761
 21
-17.65400753831341
 31
0.0
  0
LINE
  5
11D
330
70
100
AcDbEntity
  8
Livello 1
370
     9
100
AcDbLine
 10
10.49212163971761
 20
-17.6566533180337
 30
0.0
 11
7.621953786535829
 21
-17.6566533180337
 31
0.0
  0
SPLINE
  5
11E
330
70
100
AcDbEntity
  8
Livello 1
370
     9
100
AcDbSpline
210
0.0
220
0.0
230
1.0
 70
    24
 71
     3
 72
    26
 73
    22
 74
     0
 42
0.000000001
 43
0.0000000001
 40
0.0
 40
0.0
 40
0.0
 40
0.0
 40
1.0
 40
1.0
 40
1.0
 40
2.0
 40
2.0
 40
2.0
 40
3.0
 40
3.0
 40
3.0
 40
4.0
 40
4.0
 40
4.0
 40
5.0
 40
5.0
 40
5.0
 40
6.0
 40
6.0
 40
6.0
 40
7.0
 40
7.0
 40
7.0
 40
7.0
 10
13.3624664992846
 20
-17.6566533180337
 30
0.0
 10
13.36355648597283
 20
-17.6566533180337
 30
0.0
 10
13.36155480131379
 20
-17.6566533180337
 30
0.0
 10
13.36119019008559
 20
-17.6566533180337
 30
0.0
 10
13.35683024333277
 20
-17.6566533180337
 30
0.0
 10
13.35246098045452
 20
-17.6566533180337
 30
0.0
 10
13.34827804008692
 20
-17.6566533180337
 30
0.0
 10
13.32771735101961
 20
-17.6566533180337
 30
0.0
 10
13.30715666195243
 20
-17.6566533180337
 30
0.0
 10
13.28659597288512
 20
-17.6566533180337
 30
0.0
 10
13.19269874356535
 20
-17.6566533180337
 30
0.0
 10
13.09899715288192
 20
-17.6566533180337
 30
0.0
 10
13.00510923968772
 20
-17.6566533180337
 30
0.0
 10
12.88556471675571
 20
-17.6566533180337
 30
0.0
 10
12.76583387131286
 20
-17.6566533180337
 30
0.0
 10
12.64628934838086
 20
-17.6566533180337
 30
0.0
 10
12.40683823183474
 20
-17.6566533180337
 30
0.0
 10
12.16774792775677
 20
-17.6566533180337
 30
0.0
 10
11.92829555299676
 20
-17.6566533180337
 30
0.0
 10
11.44956780986183
 20
-17.6566533180337
 30
0.0
 10
10.97102638923775
 20
-17.6566533180337
 30
0.0
 10
10.49229864610288
 20
-17.6566533180337
 30
0.0
  0
SPLINE
  5
11F
330
70
100
AcDbEntity
  8
Livello 1
370
     9
100
AcDbSpline
210
0.0
220
0.0
230
1.0
 70
    24
 71
     3
 72
    26
 73
    22
 74
     0
 42
0.000000001
 43
0.0000000001
 40
0.0
 40
0.0
 40
0.0
 40
0.0
 40
1.0
 40
1.0
 40
1.0
 40
2.0
 40
2.0
 40
2.0
 40
3.0
 40
3.0
 40
3.0
 40
4.0
 40
4.0
 40
4.0
 40
5.0
 40
5.0
 40
5.0
 40
6.0
 40
6.0
 40
6.0
 40
7.0
 40
7.0
 40
7.0
 40
7.0
 10
7.626863384695511
 20
-17.82350513067386
 30
0.0
 10
7.625773398007307
 20
-17.82350513067386
 30
0.0
 10
7.627953371383746
 20
-17.82350513067386
 30
0.0
 10
7.628317837778173
 20
-17.82350513067386
 30
0.0
 10
7.632685963158149
 20
-17.82350513067386
 30
0.0
 10
7.636868903525716
 20
-17.82350513067386
 30
0.0
 10
7.641061160018816
 20
-17.82350513067386
 30
0.0
 10
7.661621849086063
 20
-17.82350513067386
 30
0.0
 10
7.682182538153311
 20
-17.82350513067386
 30
0.0
 10
7.702556904709748
 20
-17.82350513067386
 30
0.0
 10
7.796267811518736
 20
-17.82350513067386
 30
0.0
 10
7.889969402202194
 20
-17.82350513067386
 30
0.0
 10
7.983680309011182
 20
-17.82350513067386
 30
0.0
 10
8.103224831943188
 20
-17.82350513067386
 30
0.0
 10
8.222407178485502
 20
-17.82350513067386
 30
0.0
 10
8.341764226400336
 20
-17.82350513067386
 30
0.0
 10
8.580676265879072
 20
-17.82350513067386
 30
0.0
 10
8.819578989232274
 20
-17.82350513067386
 30
0.0
 10
9.05849102871101
 20
-17.82350513067386
 30
0.0
 10
9.536492114053729
 20
-17.82350513067386
 30
0.0
 10
10.01412055437492
 20
-17.82350513067386
 30
0.0
 10
10.49212163971761
 20
-17.82350513067386
 30
0.0
  0
LINE
  5
120
330
70
100
AcDbEntity
  8
Livello 1
370
     9
100
AcDbLine
 10
10.49212163971761
 20
-17.82350513067386
 30
0.0
 11
13.35755690112501
 21
-17.82350513067386
 31
0.0
  0
SPLINE
  5
121
330
70
100
AcDbEntity
  8
Livello 1
370
     9
100
AcDbSpline
210
0.0
220
0.0
230
1.0
 70
     8
 71
     3
 72
     8
 73
     4
 74
     0
 42
0.000000001
 43
0.0000000001
 40
0.0
 40
0.0
 40
0.0
 40
0.0
 40
1.0
 40
1.0
 40
1.0
 40
1.0
 10
7.621040806232904
 20
-17.82241514395816
 30
0.0
 10
7.621040806232904
 20
-17.82323496302646
 30
0.0
 10
7.622680444327975
 20
-17.82350513067386
 30
0.0
 10
7.626136726903428
 20
-17.82350513067386
 30
0.0
  0
SPLINE
  5
122
330
70
100
AcDbEntity
  8
Livello 1
370
     9
100
AcDbSpline
210
0.0
220
0.0
230
1.0
 70
     8
 71
     3
 72
     8
 73
     4
 74
     0
 42
0.000000001
 43
0.0000000001
 40
0.0
 40
0.0
 40
0.0
 40
0.0
 40
1.0
 40
1.0
 40
1.0
 40
1.0
 10
13.36319315707684
 20
-17.82241514395816
 30
0.0
 10
13.36319315707684
 20
-17.82323496302646
 30
0.0
 10
13.36174112382932
 20
-17.82350513067386
 30
0.0
 10
13.35828355891713
 20
-17.82350513067386
 30
0.0
  0
LINE
  5
123
330
70
100
AcDbEntity
  8
Livello 1
370
     9
100
AcDbLine
 10
13.36319315707684
 20
-17.6566533180337
 30
0.0
 11
13.36319315707684
 21
-17.82241514395816
 31
0.0
  0
LINE
  5
124
330
70
100
AcDbEntity
  8
Livello 1
370
     9
100
AcDbLine
 10
7.621040806232904
 20
-17.6566533180337
 30
0.0
 11
7.621040806232904
 21
-17.82241514395816
 31
0.0
  0
SPLINE
  5
125
330
70
100
AcDbEntity
  8
Livello 1
370
     9
100
AcDbSpline
210
0.0
220
0.0
230
1.0
 70
    24
 71
     3
 72
    26
 73
    22
 74
     0
 42
0.000000001
 43
0.0000000001
 40
0.0
 40
0.0
 40
0.0
 40
0.0
 40
1.0
 40
1.0
 40
1.0
 40
2.0
 40
2.0
 40
2.0
 40
3.0
 40
3.0
 40
3.0
 40
4.0
 40
4.0
 40
4.0
 40
5.0
 40
5.0
 40
5.0
 40
6.0
 40
6.0
 40
6.0
 40
7.0
 40
7.0
 40
7.0
 40
7.0
 10
13.3624664992846
 20
-17.82241514395816
 30
0.0
 10
13.36355648597283
 20
-17.82241514395816
 30
0.0
 10
13.36155480131379
 20
-17.82241514395816
 30
0.0
 10
13.36119019008559
 20
-17.82241514395816
 30
0.0
 10
13.35683024333277
 20
-17.82241514395816
 30
0.0
 10
13.35246098045452
 20
-17.82241514395816
 30
0.0
 10
13.34827804008692
 20
-17.82241514395816
 30
0.0
 10
13.32771735101961
 20
-17.82241514395816
 30
0.0
 10
13.30715666195243
 20
-17.82241514395816
 30
0.0
 10
13.28659597288512
 20
-17.82241514395816
 30
0.0
 10
13.19269874356535
 20
-17.82241514395816
 30
0.0
 10
13.09899715288192
 20
-17.82241514395816
 30
0.0
 10
13.00510923968772
 20
-17.82241514395816
 30
0.0
 10
12.88556471675571
 20
-17.82241514395816
 30
0.0
 10
12.76583387131286
 20
-17.82241514395816
 30
0.0
 10
12.64628934838086
 20
-17.82241514395816
 30
0.0
 10
12.40683823183474
 20
-17.82241514395816
 30
0.0
 10
12.16774792775677
 20
-17.82241514395816
 30
0.0
 10
11.92829555299676
 20
-17.82241514395816
 30
0.0
 10
11.44956780986183
 20
-17.82241514395816
 30
0.0
 10
10.97102638923775
 20
-17.82241514395816
 30
0.0
 10
10.49229864610288
 20
-17.82241514395816
 30
0.0
  0
LINE
  5
126
330
70
100
AcDbEntity
  8
Livello 1
370
     9
100
AcDbLine
 10
10.49212163971761
 20
-17.82241514395816
 30
0.0
 11
7.621953786535829
 21
-17.82241514395816
 31
0.0
  0
LINE
  5
127
330
70
100
AcDbEntity
  8
Livello 1
370
     9
100
AcDbLine
 10
10.49212163971761
 20
-17.82350513067386
 30
0.0
 11
10.49212163971761
 21
-17.82241514395816
 31
0.0
  0
LINE
  5
128
330
70
100
AcDbEntity
  8
Livello 1
370
     9
100
AcDbLine
 10
12.31877163888919
 20
-17.65400753831341
 30
0.0
 11
12.31877163888919
 21
-17.65119406832925
 31
0.0
  0
LINE
  5
129
330
70
100
AcDbEntity
  8
Livello 1
370
     9
100
AcDbLine
 10
12.41483952545986
 20
-17.12024942812865
 30
0.0
 11
12.4186697115697
 21
-17.51899824357409
 31
0.0
  0
LINE
  5
12A
330
70
100
AcDbEntity
  8
Livello 1
370
     9
100
AcDbLine
 10
8.565938155274462
 20
-17.51909140483179
 30
0.0
 11
8.56957144423513
 21
-17.12033327326059
 31
0.0
  0
SPLINE
  5
12B
330
70
100
AcDbEntity
  8
Livello 1
370
     9
100
AcDbSpline
210
0.0
220
0.0
230
1.0
 70
    24
 71
     3
 72
    23
 73
    19
 74
     0
 42
0.000000001
 43
0.0000000001
 40
0.0
 40
0.0
 40
0.0
 40
0.0
 40
1.0
 40
1.0
 40
1.0
 40
2.0
 40
2.0
 40
2.0
 40
3.0
 40
3.0
 40
3.0
 40
4.0
 40
4.0
 40
4.0
 40
5.0
 40
5.0
 40
5.0
 40
6.0
 40
6.0
 40
6.0
 40
6.0
 10
12.40502032914043
 20
-17.11051407669315
 30
0.0
 10
12.41084416591813
 20
-17.11051407669315
 30
0.0
 10
12.39919900869876
 20
-17.11051407669315
 30
0.0
 10
12.39646812589459
 20
-17.11051407669315
 30
0.0
 10
12.38554962676142
 20
-17.11051407669315
 30
0.0
 10
12.37481745013904
 20
-17.11051407669315
 30
0.0
 10
12.36389895100594
 20
-17.11051407669315
 30
0.0
 10
12.31731832330489
 20
-17.11051407669315
 30
0.0
 10
12.27073769560385
 20
-17.11051407669315
 30
0.0
 10
12.22415706790274
 20
-17.11051407669315
 30
0.0
 10
12.16374199377451
 20
-17.11051407669315
 30
0.0
 10
12.10351324215706
 20
-17.11051407669315
 30
0.0
 10
12.04293047776906
 20
-17.11051407669315
 30
0.0
 10
11.92210964563803
 20
-17.11051407669315
 30
0.0
 10
11.80110373390798
 20
-17.11051407669315
 30
0.0
 10
11.68046798137599
 20
-17.11051407669315
 30
0.0
 10
11.43864931072873
 20
-17.11051407669315
 30
0.0
 10
11.19665363369614
 20
-17.11051407669315
 30
0.0
 10
10.95501319097181
 20
-17.11051407669315
 30
0.0
  0
LINE
  5
12C
330
70
100
AcDbEntity
  8
Livello 1
370
     9
100
AcDbLine
 10
10.95501319097181
 20
-17.11051407669315
 30
0.0
 11
8.579401118204698
 21
-17.11051407669315
 31
0.0
  0
LINE
  5
12D
330
70
100
AcDbEntity
  8
Livello 1
370
     9
100
AcDbLine
 10
10.93044534638459
 20
-17.51909140483179
 30
0.0
 11
10.92517241932882
 21
-17.51909140483179
 31
0.0
  0
LINE
  5
12E
330
70
100
AcDbEntity
  8
Livello 1
370
     9
100
AcDbLine
 10
10.85438849747426
 20
-17.51909140483179
 30
0.0
 11
10.84729892593821
 21
-17.51909140483179
 31
0.0
  0
LINE
  5
12F
330
70
100
AcDbEntity
  8
Livello 1
370
     9
100
AcDbLine
 10
10.83019451944638
 20
-17.51909140483179
 30
0.0
 11
10.81763638221814
 21
-17.51909140483179
 31
0.0
  0
LINE
  5
130
330
70
100
AcDbEntity
  8
Livello 1
370
     9
100
AcDbLine
 10
10.68098745279431
 20
-17.51909140483179
 30
0.0
 11
10.65059825128214
 21
-17.51909140483179
 31
0.0
  0
SPLINE
  5
131
330
70
100
AcDbEntity
  8
Livello 1
370
     9
100
AcDbSpline
210
0.0
220
0.0
230
1.0
 70
     8
 71
     3
 72
     8
 73
     4
 74
     0
 42
0.000000001
 43
0.0000000001
 40
0.0
 40
0.0
 40
0.0
 40
0.0
 40
1.0
 40
1.0
 40
1.0
 40
1.0
 10
12.40538365803655
 20
-17.11051407669315
 30
0.0
 10
12.40865361810113
 20
-17.11206055357198
 30
0.0
 10
12.41138324288438
 20
-17.11405420448791
 30
0.0
 10
12.41374953877163
 20
-17.11678382934014
 30
0.0
  0
SPLINE
  5
132
330
70
100
AcDbEntity
  8
Livello 1
370
     9
100
AcDbSpline
210
0.0
220
0.0
230
1.0
 70
     8
 71
     3
 72
     8
 73
     4
 74
     0
 42
0.000000001
 43
0.0000000001
 40
0.0
 40
0.0
 40
0.0
 40
0.0
 40
1.0
 40
1.0
 40
1.0
 40
1.0
 10
8.569394437849851
 20
-17.12024942812865
 30
0.0
 10
8.571211082330201
 20
-17.11533051371908
 30
0.0
 10
8.574127029624287
 20
-17.11242388247721
 30
0.0
 10
8.579222950294779
 20
-17.11051407669315
 30
0.0
  0
LINE
  5
133
330
70
100
AcDbEntity
  8
Livello 1
370
     9
100
AcDbLine
 10
12.37845073909974
 20
-17.09931609351096
 30
0.0
 11
12.37863706161058
 21
-17.11051407669315
 31
0.0
  0
LINE
  5
134
330
70
100
AcDbEntity
  8
Livello 1
370
     9
100
AcDbLine
 10
8.605969546720753
 20
-17.11051407669315
 30
0.0
 11
8.606146553106
 21
-17.09931609351096
 31
0.0
  0
LINE
  5
135
330
70
100
AcDbEntity
  8
Livello 1
370
     9
100
AcDbLine
 10
10.95737826532134
 20
-17.12024942812865
 30
0.0
 11
8.56957144423513
 21
-17.12024942812865
 31
0.0
  0
SPLINE
  5
136
330
70
100
AcDbEntity
  8
Livello 1
370
     9
100
AcDbSpline
210
0.0
220
0.0
230
1.0
 70
     8
 71
     3
 72
     8
 73
     4
 74
     0
 42
0.000000001
 43
0.0000000001
 40
0.0
 40
0.0
 40
0.0
 40
0.0
 40
1.0
 40
1.0
 40
1.0
 40
1.0
 10
10.95501319097181
 20
-17.11051407669315
 30
0.0
 10
10.95756458783212
 20
-17.11360703045074
 30
0.0
 10
10.95810492311346
 20
-17.11651366169261
 30
0.0
 10
10.95756458783212
 20
-17.12024942812865
 30
0.0
  0
SPLINE
  5
137
330
70
100
AcDbEntity
  8
Livello 1
370
     9
100
AcDbSpline
210
0.0
220
0.0
230
1.0
 70
    24
 71
     3
 72
    23
 73
    19
 74
     0
 42
0.000000001
 43
0.0000000001
 40
0.0
 40
0.0
 40
0.0
 40
0.0
 40
1.0
 40
1.0
 40
1.0
 40
2.0
 40
2.0
 40
2.0
 40
3.0
 40
3.0
 40
3.0
 40
4.0
 40
4.0
 40
4.0
 40
5.0
 40
5.0
 40
5.0
 40
6.0
 40
6.0
 40
6.0
 40
6.0
 10
12.41483952545986
 20
-17.12024942812865
 30
0.0
 10
12.42066210392247
 20
-17.12024942812865
 30
0.0
 10
12.40920326950803
 20
-17.12024942812865
 30
0.0
 10
12.40628732221388
 20
-17.12024942812865
 30
0.0
 10
12.39537939713077
 20
-17.12024942812865
 30
0.0
 10
12.38445964007325
 20
-17.12024942812865
 30
0.0
 10
12.37371814732537
 20
-17.12024942812865
 30
0.0
 10
12.3267741907282
 20
-17.12024942812865
 30
0.0
 10
12.28001655664188
 20
-17.12024942812865
 30
0.0
 10
12.23307260004471
 20
-17.12024942812865
 30
0.0
 10
12.17248051953121
 20
-17.12024942812865
 30
0.0
 10
12.1117033672651
 20
-17.12024942812865
 30
0.0
 10
12.05093302960807
 20
-17.12024942812865
 30
0.0
 10
11.92957310835298
 20
-17.12024942812865
 30
0.0
 10
11.80783804976173
 20
-17.12024942812865
 30
0.0
 10
11.68647688234944
 20
-17.12024942812865
 30
0.0
 10
11.44338190250311
 20
-17.12024942812865
 30
0.0
 10
11.20047324516761
 20
-17.12024942812865
 30
0.0
 10
10.95737826532134
 20
-17.12024942812865
 30
0.0
  0
SPLINE
  5
190
330
70
100
AcDbEntity
  8
Livello 1
370
     9
100
AcDbSpline
210
0.0
220
0.0
230
1.0
 70
    24
 71
     3
 72
     8
 73
     4
 74
     0
 42
0.000000001
 43
0.0000000001
 40
0.0
 40
0.0
 40
0.0
 40
0.0
 40
1.0
 40
1.0
 40
1.0
 40
1.0
 10
13.1972543289545
 20
-17.65119406832925
 30
0.0
 10
13.19798098674668
 20
-17.65119406832925
 30
0.0
 10
13.19834431564274
 20
-17.65119406832925
 30
0.0
 10
13.19834431564274
 20
-17.65119406832925
 30
0.0
  0
SPLINE
  5
191
330
70
100
AcDbEntity
  8
Livello 1
370
     9
100
AcDbSpline
210
0.0
220
0.0
230
1.0
 70
    24
 71
     3
 72
     8
 73
     4
 74
     0
 42
0.000000001
 43
0.0000000001
 40
1.0
 40
1.0
 40
1.0
 40
1.0
 40
2.0
 40
2.0
 40
2.0
 40
2.0
 10
13.19834431564274
 20
-17.65119406832925
 30
0.0
 10
13.19834431564274
 20
-17.65119406832925
 30
0.0
 10
13.17287402841584
 20
-17.65119406832925
 30
0.0
 10
13.13683925482628
 20
-17.65119406832925
 30
0.0
  0
LINE
  5
1C0
330
70
100
AcDbEntity
  8
0
100
AcDbLine
 10
7.621040806232904
 20
-18.29180747599702
 30
0.0
 11
13.35755690112501
 21
-18.29180747599702
 31
0.0
  0
LINE
  5
1C1
330
70
100
AcDbEntity
  8
0
100
AcDbLine
 10
7.497035915194851
 20
-17.82241514395816
 30
0.0
 11
7.49703591519485
 21
-17.6566533180337
 31
0.0
  0
LINE
  5
1C2
330
70
100
AcDbEntity
  8
0
100
AcDbLine
 10
13.54781419440462
 20
-17.82350513067386
 30
0.0
 11
13.54781419440462
 21
-17.09931609351096
 31
0.0
  0
MTEXT
  5
1C4
330
70
100
AcDbEntity
  8
0
100
AcDbMText
 10
10.12776979251588
 20
-18.401639686645
 30
0.0
 40
0.2
 41
0.7358051615734383
 46
0.0
 71
     1
 72
     5
  1
350
 73
     1
 44
1.0
1001
ACAD
1000
ACAD_MTEXT_COLUMN_INFO_BEGIN
1070
    75
1070
     2
1070
    79
1070
     0
1070
    76
1070
     1
1070
    78
1070
     0
1070
    48
1040
0.7358051615734383
1070
    49
1040
1.0
1070
    50
1070
     1
1040
0.0
1000
ACAD_MTEXT_COLUMN_INFO_END
  0
MTEXT
  5
1CD
330
70
100
AcDbEntity
  8
0
100
AcDbMText
 10
13.6504508072771
 20
-17.36519760600966
 30
0.0
 40
0.2
 41
0.7358051615734383
 46
0.0
 71
     1
 72
     5
  1
42
 73
     1
 44
1.0
1001
ACAD
1000
ACAD_MTEXT_COLUMN_INFO_BEGIN
1070
    75
1070
     2
1070
    79
1070
     0
1070
    76
1070
     1
1070
    78
1070
     0
1070
    48
1040
0.7358051615734383
1070
    49
1040
1.0
1070
    50
1070
     1
1040
0.0
1000
ACAD_MTEXT_COLUMN_INFO_END
  0
MTEXT
  5
1D5
330
70
100
AcDbEntity
  8
0
100
AcDbMText
 10
7.118687073625517
 20
-17.62450744157799
 30
0.0
 40
0.2
 41
0.7358051615734383
 46
0.0
 71
     1
 72
     5
  1
14
 73
     1
 44
1.0
1001
ACAD
1000
ACAD_MTEXT_COLUMN_INFO_BEGIN
1070
    75
1070
     2
1070
    79
1070
     0
1070
    76
1070
     1
1070
    78
1070
     0
1070
    48
1040
0.7358051615734383
1070
    49
1040
1.0
1070
    50
1070
     1
1040
0.0
1000
ACAD_MTEXT_COLUMN_INFO_END
  0
ENDSEC
  0
SECTION
  2
OBJECTS
  0
DICTIONARY
  5
C
330
0
100
AcDbDictionary
281
     1
  3
ACAD_CIP_PREVIOUS_PRODUCT_INFO
350
178
  3
ACAD_COLOR
350
63
  3
ACAD_DETAILVIEWSTYLE
350
6A
  3
ACAD_GROUP
350
D
  3
ACAD_LAYOUT
350
62
  3
ACAD_MATERIAL
350
10
  3
ACAD_MLEADERSTYLE
350
66
  3
ACAD_MLINESTYLE
350
5F
  3
ACAD_PLOTSETTINGS
350
61
  3
ACAD_PLOTSTYLENAME
350
E
  3
ACAD_SCALELIST
350
42
  3
ACAD_SECTIONVIEWSTYLE
350
68
  3
ACAD_TABLESTYLE
350
64
  3
ACAD_VISUALSTYLE
350
29
  3
ACDB_RECOMPOSE_DATA
350
1DF
  3
AcDbVariableDictionary
350
16E
  0
DICTIONARY
  5
179
330
70
100
AcDbDictionary
280
     1
281
     1
  3
ACAD_SORTENTS
360
17A
  0
XRECORD
  5
178
102
{ACAD_REACTORS
330
C
102
}
330
C
100
AcDbXrecord
280
     1
300
ACD
300
2022
300

  0
DICTIONARY
  5
63
102
{ACAD_REACTORS
330
C
102
}
330
C
100
AcDbDictionary
281
     1
  0
DICTIONARY
  5
6A
102
{ACAD_REACTORS
330
C
102
}
330
C
100
AcDbDictionary
281
     1
  3
Imperial24
350
6B
  0
DICTIONARY
  5
D
102
{ACAD_REACTORS
330
C
102
}
330
C
100
AcDbDictionary
281
     1
  0
DICTIONARY
  5
62
102
{ACAD_REACTORS
330
C
102
}
330
C
100
AcDbDictionary
281
     1
  3
Layout1
350
6F
  3
Layout2
350
77
  3
Model
350
73
  0
DICTIONARY
  5
10
102
{ACAD_REACTORS
330
C
102
}
330
C
100
AcDbDictionary
281
     1
  3
ByBlock
350
19
  3
ByLayer
350
11
  3
Global
350
21
  0
DICTIONARY
  5
66
102
{ACAD_REACTORS
330
C
102
}
330
C
100
AcDbDictionary
281
     1
  3
Standard
350
67
  0
DICTIONARY
  5
5F
102
{ACAD_REACTORS
330
C
102
}
330
C
100
AcDbDictionary
281
     1
  3
Standard
350
60
  0
DICTIONARY
  5
61
102
{ACAD_REACTORS
330
C
102
}
330
C
100
AcDbDictionary
281
     1
  0
ACDBDICTIONARYWDFLT
  5
E
102
{ACAD_REACTORS
330
C
102
}
330
C
100
AcDbDictionary
281
     1
  3
Normal
350
F
100
AcDbDictionaryWithDefault
340
F
  0
DICTIONARY
  5
42
102
{ACAD_REACTORS
330
C
102
}
330
C
100
AcDbDictionary
281
     1
  3
A0
350
43
  3
A1
350
44
  3
A2
350
45
  3
A3
350
46
  3
A4
350
47
  3
A5
350
48
  3
A6
350
49
  3
A7
350
4A
  3
A8
350
4B
  3
A9
350
4C
  3
B0
350
4D
  3
B1
350
4E
  3
B2
350
4F
  3
B3
350
50
  3
B4
350
51
  3
B5
350
52
  3
B6
350
53
  0
DICTIONARY
  5
68
102
{ACAD_REACTORS
330
C
102
}
330
C
100
AcDbDictionary
281
     1
  3
Imperial24
350
69
  0
DICTIONARY
  5
64
102
{ACAD_REACTORS
330
C
102
}
330
C
100
AcDbDictionary
281
     1
  3
Standard
350
65
  0
DICTIONARY
  5
29
102
{ACAD_REACTORS
330
C
102
}
330
C
100
AcDbDictionary
281
     1
  3
2dWireframe
350
2F
  3
Basic
350
2E
  3
Brighten
350
35
  3
ColorChange
350
39
  3
Conceptual
350
32
  3
Dim
350
34
  3
EdgeColorOff
350
41
  3
Facepattern
350
38
  3
Flat
350
2A
  3
FlatWithEdges
350
2B
  3
Gouraud
350
2C
  3
GouraudWithEdges
350
2D
  3
Hidden
350
31
  3
JitterOff
350
3F
  3
Linepattern
350
37
  3
OverhangOff
350
40
  3
Realistic
350
33
  3
Shaded
350
3E
  3
Shaded with edges
350
3D
  3
Shades of Gray
350
3A
  3
Sketchy
350
3B
  3
Thicken
350
36
  3
Wireframe
350
30
  3
X-Ray
350
3C
  0
XRECORD
  5
1DF
102
{ACAD_REACTORS
330
C
102
}
330
C
100
AcDbXrecord
280
     1
 90
        1
330
65
330
1C4
330
1CD
330
1D5
  0
DICTIONARY
  5
16E
102
{ACAD_REACTORS
330
C
102
}
330
C
100
AcDbDictionary
281
     1
  3
CANNOSCALE
350
173
  3
CMLEADERSTYLE
350
170
  3
CTABLESTYLE
350
16F
  3
CVIEWDETAILSTYLE
350
171
  3
CVIEWSECTIONSTYLE
350
172
  0
SORTENTSTABLE
  5
17A
102
{ACAD_REACTORS
330
179
102
}
330
179
100
AcDbSortentsTable
330
70
331
D2
  5
17F
331
D3
  5
180
331
D4
  5
181
331
D5
  5
182
331
D6
  5
183
331
D8
  5
184
331
DB
  5
185
331
DD
  5
186
331
DE
  5
187
331
E0
  5
188
331
E1
  5
189
331
E2
  5
18A
331
E6
  5
18B
331
E7
  5
18C
331
E8
  5
18D
331
E9
  5
18E
331
EB
  5
18F
331
EF
  5
190
331
F0
  5
191
331
F1
  5
192
331
F3
  5
193
331
F8
  5
194
331
FC
  5
195
331
FD
  5
196
331
FE
  5
197
331
FF
  5
198
331
101
  5
199
331
104
  5
19A
331
106
  5
19B
331
10B
  5
19C
331
10C
  5
19D
331
10F
  5
19E
331
110
  5
19F
331
112
  5
1A0
331
113
  5
1A1
331
115
  5
1A2
331
116
  5
1A3
331
117
  5
1A4
331
11A
  5
1A5
331
11B
  5
1A6
331
11C
  5
1A7
331
11D
  5
1A8
331
120
  5
1A9
331
123
  5
1AA
331
124
  5
1AB
331
126
  5
1AC
331
127
  5
1AD
331
128
  5
1AE
331
129
  5
1AF
331
12A
  5
1B0
331
12C
  5
1B1
331
12D
  5
1B2
331
12E
  5
1B3
331
12F
  5
1B4
331
130
  5
1B5
331
133
  5
1B6
331
134
  5
1B7
331
135
  5
1B8
331
190
  5
130
331
191
  5
133
  0
ACDBDETAILVIEWSTYLE
  5
6B
102
{ACAD_XDICTIONARY
360
1E2
102
}
102
{ACAD_REACTORS
330
6A
102
}
330
6A
100
AcDbModelDocViewStyle
 70
     0
  3
Imperial24
290
     0
100
AcDbDetailViewStyle
 70
     0
 71
     0
 90
        3
 71
     1
340
55
 62
   256
 40
0.24
340
0
 62
   256
 40
0.24
300

 40
0.36
280
     3
 71
     2
340
5D
 90
       25
 62
   256
 71
     3
340
55
 62
   256
 40
0.24
 90
        1
 40
0.75
 90
        1
300
%<\AcVar ViewType \f "%tc1">% %<\AcVar ViewDetailId>%\PSCALE %<\AcVar ViewScale \f "%sn">%
 71
     4
340
5D
 90
       25
 62
   256
340
5D
 90
       25
 62
   256
280
     0
  0
LAYOUT
  5
6F
102
{ACAD_REACTORS
330
62
102
}
330
62
100
AcDbPlotSettings
  1

  2

  4

  6

 40
0.0
 41
0.0
 42
0.0
 43
0.0
 44
0.0
 45
0.0
 46
0.0
 47
0.0
 48
0.0
 49
0.0
140
0.0
141
0.0
142
1.0
143
1.0
 70
   688
 72
     0
 73
     0
 74
     5
  7

 75
    16
147
1.0
 76
     0
 77
     2
 78
   300
148
0.0
149
0.0
100
AcDbLayout
  1
Layout1
 70
     1
 71
     1
 10
0.0
 20
0.0
 11
12.0
 21
9.0
 12
0.0
 22
0.0
 32
0.0
 14
1.000000000000000E+20
 24
1.000000000000000E+20
 34
1.000000000000000E+20
 15
-1.000000000000000E+20
 25
-1.000000000000000E+20
 35
-1.000000000000000E+20
146
0.0
 13
0.0
 23
0.0
 33
0.0
 16
1.0
 26
0.0
 36
0.0
 17
0.0
 27
1.0
 37
0.0
 76
     0
330
6C
  0
LAYOUT
  5
77
102
{ACAD_REACTORS
330
62
102
}
330
62
100
AcDbPlotSettings
  1

  2

  4

  6

 40
0.0
 41
0.0
 42
0.0
 43
0.0
 44
0.0
 45
0.0
 46
0.0
 47
0.0
 48
0.0
 49
0.0
140
0.0
141
0.0
142
1.0
143
1.0
 70
   688
 72
     0
 73
     0
 74
     5
  7

 75
    16
147
1.0
 76
     0
 77
     2
 78
   300
148
0.0
149
0.0
100
AcDbLayout
  1
Layout2
 70
     1
 71
     2
 10
0.0
 20
0.0
 11
12.0
 21
9.0
 12
0.0
 22
0.0
 32
0.0
 14
0.0
 24
0.0
 34
0.0
 15
0.0
 25
0.0
 35
0.0
146
0.0
 13
0.0
 23
0.0
 33
0.0
 16
1.0
 26
0.0
 36
0.0
 17
0.0
 27
1.0
 37
0.0
 76
     0
330
74
  0
LAYOUT
  5
73
102
{ACAD_REACTORS
330
62
102
}
330
62
100
AcDbPlotSettings
  1

  2

  4

  6

 40
0.0
 41
0.0
 42
0.0
 43
0.0
 44
0.0
 45
0.0
 46
0.0
 47
0.0
 48
0.0
 49
0.0
140
0.0
141
0.0
142
1.0
143
1.0
 70
  1712
 72
     0
 73
     0
 74
     0
  7

 75
     0
147
1.0
 76
     0
 77
     2
 78
   300
148
0.0
149
0.0
100
AcDbLayout
  1
Model
 70
     1
 71
     0
 10
0.0
 20
0.0
 11
12.0
 21
9.0
 12
0.0
 22
0.0
 32
0.0
 14
0.0
 24
0.0
 34
0.0
 15
0.0
 25
0.0
 35
0.0
146
0.0
 13
0.0
 23
0.0
 33
0.0
 16
1.0
 26
0.0
 36
0.0
 17
0.0
 27
1.0
 37
0.0
 76
     0
330
70
331
57
  0
MATERIAL
  5
19
102
{ACAD_XDICTIONARY
360
1A
102
}
102
{ACAD_REACTORS
330
10
102
}
330
10
100
AcDbMaterial
  1
ByBlock
 72
     0
 43
0.0208333333333333
 43
0.0
 43
0.0
 43
0.0
 43
0.0
 43
0.0208333333333333
 43
0.0
 43
0.0
 43
0.0
 43
0.0
 43
1.0
 43
0.0
 43
0.0
 43
0.0
 43
0.0
 43
1.0
 77
     0
 47
0.0208333333333333
 47
0.0
 47
0.0
 47
0.0
 47
0.0
 47
0.0208333333333333
 47
0.0
 47
0.0
 47
0.0
 47
0.0
 47
1.0
 47
0.0
 47
0.0
 47
0.0
 47
0.0
 47
1.0
171
     0
 49
0.0208333333333333
 49
0.0
 49
0.0
 49
0.0
 49
0.0
 49
0.0208333333333333
 49
0.0
 49
0.0
 49
0.0
 49
0.0
 49
1.0
 49
0.0
 49
0.0
 49
0.0
 49
0.0
 49
1.0
175
     0
142
0.0208333333333333
142
0.0
142
0.0
142
0.0
142
0.0
142
0.0208333333333333
142
0.0
142
0.0
142
0.0
142
0.0
142
1.0
142
0.0
142
0.0
142
0.0
142
0.0
142
1.0
179
     0
144
0.0208333333333333
144
0.0
144
0.0
144
0.0
144
0.0
144
0.0208333333333333
144
0.0
144
0.0
144
0.0
144
0.0
144
1.0
144
0.0
144
0.0
144
0.0
144
0.0
144
1.0
147
0.0208333333333333
147
0.0
147
0.0
147
0.0
147
0.0
147
0.0208333333333333
147
0.0
147
0.0
147
0.0
147
0.0
147
1.0
147
0.0
147
0.0
147
0.0
147
0.0
147
1.0
  0
MATERIAL
  5
11
102
{ACAD_XDICTIONARY
360
12
102
}
102
{ACAD_REACTORS
330
10
102
}
330
10
100
AcDbMaterial
  1
ByLayer
 72
     0
 43
0.0208333333333333
 43
0.0
 43
0.0
 43
0.0
 43
0.0
 43
0.0208333333333333
 43
0.0
 43
0.0
 43
0.0
 43
0.0
 43
1.0
 43
0.0
 43
0.0
 43
0.0
 43
0.0
 43
1.0
 77
     0
 47
0.0208333333333333
 47
0.0
 47
0.0
 47
0.0
 47
0.0
 47
0.0208333333333333
 47
0.0
 47
0.0
 47
0.0
 47
0.0
 47
1.0
 47
0.0
 47
0.0
 47
0.0
 47
0.0
 47
1.0
171
     0
 49
0.0208333333333333
 49
0.0
 49
0.0
 49
0.0
 49
0.0
 49
0.0208333333333333
 49
0.0
 49
0.0
 49
0.0
 49
0.0
 49
1.0
 49
0.0
 49
0.0
 49
0.0
 49
0.0
 49
1.0
175
     0
142
0.0208333333333333
142
0.0
142
0.0
142
0.0
142
0.0
142
0.0208333333333333
142
0.0
142
0.0
142
0.0
142
0.0
142
1.0
142
0.0
142
0.0
142
0.0
142
0.0
142
1.0
179
     0
144
0.0208333333333333
144
0.0
144
0.0
144
0.0
144
0.0
144
0.0208333333333333
144
0.0
144
0.0
144
0.0
144
0.0
144
1.0
144
0.0
144
0.0
144
0.0
144
0.0
144
1.0
147
0.0208333333333333
147
0.0
147
0.0
147
0.0
147
0.0
147
0.0208333333333333
147
0.0
147
0.0
147
0.0
147
0.0
147
1.0
147
0.0
147
0.0
147
0.0
147
0.0
147
1.0
  0
MATERIAL
  5
21
102
{ACAD_XDICTIONARY
360
22
102
}
102
{ACAD_REACTORS
330
10
102
}
330
10
100
AcDbMaterial
  1
Global
 72
     0
 43
0.0208333333333333
 43
0.0
 43
0.0
 43
0.0
 43
0.0
 43
0.0208333333333333
 43
0.0
 43
0.0
 43
0.0
 43
0.0
 43
1.0
 43
0.0
 43
0.0
 43
0.0
 43
0.0
 43
1.0
 77
     0
 47
0.0208333333333333
 47
0.0
 47
0.0
 47
0.0
 47
0.0
 47
0.0208333333333333
 47
0.0
 47
0.0
 47
0.0
 47
0.0
 47
1.0
 47
0.0
 47
0.0
 47
0.0
 47
0.0
 47
1.0
171
     0
 49
0.0208333333333333
 49
0.0
 49
0.0
 49
0.0
 49
0.0
 49
0.0208333333333333
 49
0.0
 49
0.0
 49
0.0
 49
0.0
 49
1.0
 49
0.0
 49
0.0
 49
0.0
 49
0.0
 49
1.0
175
     0
142
0.0208333333333333
142
0.0
142
0.0
142
0.0
142
0.0
142
0.0208333333333333
142
0.0
142
0.0
142
0.0
142
0.0
142
1.0
142
0.0
142
0.0
142
0.0
142
0.0
142
1.0
179
     0
144
0.0208333333333333
144
0.0
144
0.0
144
0.0
144
0.0
144
0.0208333333333333
144
0.0
144
0.0
144
0.0
144
0.0
144
1.0
144
0.0
144
0.0
144
0.0
144
0.0
144
1.0
147
0.0208333333333333
147
0.0
147
0.0
147
0.0
147
0.0
147
0.0208333333333333
147
0.0
147
0.0
147
0.0
147
0.0
147
1.0
147
0.0
147
0.0
147
0.0
147
0.0
147
1.0
  0
MLEADERSTYLE
  5
67
102
{ACAD_REACTORS
330
66
102
}
330
66
100
AcDbMLeaderStyle
179
     2
170
     2
171
     1
172
     0
 90
        2
 40
0.0
 41
0.0
173
     1
 91
-1056964608
340
5B
 92
       -2
290
     1
 42
0.09
291
     1
 43
0.36
  3
Standard
 44
0.18
300

342
55
174
     1
178
     6
175
     1
176
     0
 93
-1056964608
 45
0.18
292
     0
297
     0
 46
0.18
 94
-1056964608
 47
1.0
 49
1.0
140
1.0
293
     1
141
0.0
294
     1
177
     0
142
1.0
295
     0
296
     0
143
0.125
271
     0
272
     9
273
     9
298
     1
  0
MLINESTYLE
  5
60
102
{ACAD_REACTORS
330
5F
102
}
330
5F
100
AcDbMlineStyle
  2
STANDARD
 70
     0
  3

 62
   256
 51
90.0
 52
90.0
 71
     2
 49
0.5
 62
   256
  6
BYLAYER
 49
-0.5
 62
   256
  6
BYLAYER
  0
ACDBPLACEHOLDER
  5
F
102
{ACAD_REACTORS
330
E
102
}
330
E
  0
SCALE
  5
43
102
{ACAD_REACTORS
330
42
102
}
330
42
100
AcDbScale
 70
     0
300
1:1
140
1.0
141
1.0
290
     1
  0
SCALE
  5
44
102
{ACAD_REACTORS
330
42
102
}
330
42
100
AcDbScale
 70
     0
300
1/128" = 1'-0"
140
0.0078125
141
12.0
290
     0
  0
SCALE
  5
45
102
{ACAD_REACTORS
330
42
102
}
330
42
100
AcDbScale
 70
     0
300
1/64" = 1'-0"
140
0.015625
141
12.0
290
     0
  0
SCALE
  5
46
102
{ACAD_REACTORS
330
42
102
}
330
42
100
AcDbScale
 70
     0
300
1/32" = 1'-0"
140
0.03125
141
12.0
290
     0
  0
SCALE
  5
47
102
{ACAD_REACTORS
330
42
102
}
330
42
100
AcDbScale
 70
     0
300
1/16" = 1'-0"
140
0.0625
141
12.0
290
     0
  0
SCALE
  5
48
102
{ACAD_REACTORS
330
42
102
}
330
42
100
AcDbScale
 70
     0
300
3/32" = 1'-0"
140
0.09375
141
12.0
290
     0
  0
SCALE
  5
49
102
{ACAD_REACTORS
330
42
102
}
330
42
100
AcDbScale
 70
     0
300
1/8" = 1'-0"
140
0.125
141
12.0
290
     0
  0
SCALE
  5
4A
102
{ACAD_REACTORS
330
42
102
}
330
42
100
AcDbScale
 70
     0
300
3/16" = 1'-0"
140
0.1875
141
12.0
290
     0
  0
SCALE
  5
4B
102
{ACAD_REACTORS
330
42
102
}
330
42
100
AcDbScale
 70
     0
300
1/4" = 1'-0"
140
0.25
141
12.0
290
     0
  0
SCALE
  5
4C
102
{ACAD_REACTORS
330
42
102
}
330
42
100
AcDbScale
 70
     0
300
3/8" = 1'-0"
140
0.375
141
12.0
290
     0
  0
SCALE
  5
4D
102
{ACAD_REACTORS
330
42
102
}
330
42
100
AcDbScale
 70
     0
300
1/2" = 1'-0"
140
0.5
141
12.0
290
     0
  0
SCALE
  5
4E
102
{ACAD_REACTORS
330
42
102
}
330
42
100
AcDbScale
 70
     0
300
3/4" = 1'-0"
140
0.75
141
12.0
290
     0
  0
SCALE
  5
4F
102
{ACAD_REACTORS
330
42
102
}
330
42
100
AcDbScale
 70
     0
300
1" = 1'-0"
140
1.0
141
12.0
290
     0
  0
SCALE
  5
50
102
{ACAD_REACTORS
330
42
102
}
330
42
100
AcDbScale
 70
     0
300
1-1/2" = 1'-0"
140
1.5
141
12.0
290
     0
  0
SCALE
  5
51
102
{ACAD_REACTORS
330
42
102
}
330
42
100
AcDbScale
 70
     0
300
3" = 1'-0"
140
3.0
141
12.0
290
     0
  0
SCALE
  5
52
102
{ACAD_REACTORS
330
42
102
}
330
42
100
AcDbScale
 70
     0
300
6" = 1'-0"
140
6.0
141
12.0
290
     0
  0
SCALE
  5
53
102
{ACAD_REACTORS
330
42
102
}
330
42
100
AcDbScale
 70
     0
300
1'-0" = 1'-0"
140
12.0
141
12.0
290
     0
  0
ACDBSECTIONVIEWSTYLE
  5
69
102
{ACAD_XDICTIONARY
360
1E0
102
}
102
{ACAD_REACTORS
330
68
102
}
330
68
100
AcDbModelDocViewStyle
 70
     0
  3
Imperial24
290
     0
100
AcDbSectionViewStyle
 70
     0
 71
     0
 90
       78
 71
     1
340
55
 62
   256
 40
0.24
340
0
340
0
 62
   256
 40
0.24
300
I, O, Q, S, X, Z
 40
0.48
 90
        3
 40
0.18
 90
        1
 71
     2
340
5D
 90
       25
 62
   256
340
5D
 90
       50
 62
   256
 40
0.24
 40
0.0
 40
0.24
 71
     3
340
55
 62
   256
 40
0.24
 90
        1
 40
0.75
 90
        1
300
%<\AcVar ViewType \f "%tc1">% %<\AcVar ViewSectionStartId>%-%<\AcVar ViewSectionEndId>%\PSCALE %<\AcVar ViewScale \f "%sn">%
 71
     4
 62
   256
 62
   257
300
ANSI31
 40
1.0
 90
        0
290
     0
290
     0
 90
        6
 40
0.0
 40
1.570796326794896
 40
0.2617993877991494
 40
1.308996938995747
 40
-0.2617993877991494
 40
1.832595714594046
  0
TABLESTYLE
  5
65
102
{ACAD_XDICTIONARY
360
1DD
102
}
102
{ACAD_REACTORS
330
64
102
}
330
64
100
AcDbTableStyle
280
     0
  3
Standard
 70
     0
 71
     0
 40
0.06
 41
0.06
280
     0
281
     0
  7
Standard
140
0.18
170
     2
 62
     0
 63
     7
283
     0
 90
      512
 91
        0
  1

274
    -2
284
     1
 64
     0
275
    -2
285
     1
 65
     0
276
    -2
286
     1
 66
     0
277
    -2
287
     1
 67
     0
278
    -2
288
     1
 68
     0
279
    -2
289
     1
 69
     0
  7
Standard
140
0.25
170
     5
 62
     0
 63
     7
283
     0
 90
      512
 91
        0
  1

274
    -2
284
     1
 64
     0
275
    -2
285
     1
 65
     0
276
    -2
286
     1
 66
     0
277
    -2
287
     1
 67
     0
278
    -2
288
     1
 68
     0
279
    -2
289
     1
 69
     0
  7
Standard
140
0.18
170
     5
 62
     0
 63
     7
283
     0
 90
      512
 91
        0
  1

274
    -2
284
     1
 64
     0
275
    -2
285
     1
 65
     0
276
    -2
286
     1
 66
     0
277
    -2
287
     1
 67
     0
278
    -2
288
     1
 68
     0
279
    -2
289
     1
 69
     0
  0
VISUALSTYLE
  5
2F
102
{ACAD_REACTORS
330
29
102
}
330
29
100
AcDbVisualStyle
  2
2dWireframe
 70
     4
177
     3
291
     0
 70
    58
 90
        0
176
     1
 90
        2
176
     1
 90
        0
176
     1
 90
        0
176
     1
 40
0.6
176
     1
 40
30.0
176
     1
 62
     7
420
 16777215
176
     1
 90
        1
176
     1
 90
        4
176
     1
 62
     7
176
     1
 62
   257
176
     1
 90
        1
176
     1
 90
        1
176
     1
 40
1.0
176
     1
 90
        0
176
     1
 62
   257
176
     1
 40
1.0
176
     1
 90
        1
176
     1
 90
        6
176
     1
 90
        2
176
     1
 62
     7
176
     1
 90
        5
176
     1
 90
        0
176
     1
 90
        0
176
     1
290
     0
176
     1
 90
        1
176
     1
 40
0.0
176
     1
 90
        0
176
     1
290
     1
176
     1
290
     1
176
     1
290
     0
176
     1
290
     0
176
     1
290
     0
176
     1
290
     0
176
     1
290
     0
176
     1
290
     0
176
     1
290
     0
176
     1
 90
       50
176
     1
 40
0.0
176
     1
 40
1.0
176
     1
 90
        0
176
     1
 62
    18
420
        0
176
     1
 90
       50
176
     1
 90
        3
176
     1
 62
     5
420
      255
176
     1
290
     0
176
     1
 90
       50
176
     1
 90
       50
176
     1
 90
       50
176
     1
290
     0
176
     1
 90
       50
176
     1
 62
   256
176
     0
 40
1.0
176
     0
 90
        2
176
     1
  1
strokes_ogs.tif
176
     1
290
     0
176
     1
 40
1.0
176
     1
 40
1.0
176
     1
1001
ACAD
1000
AcDbSavedByObjectVersion
1070
     0
  0
VISUALSTYLE
  5
2E
102
{ACAD_REACTORS
330
29
102
}
330
29
100
AcDbVisualStyle
  2
Basic
 70
     7
177
     3
291
     1
 70
    58
 90
        1
176
     1
 90
        0
176
     1
 90
        1
176
     1
 90
        0
176
     1
 40
0.6
176
     1
 40
30.0
176
     1
 62
     7
420
 16777215
176
     1
 90
        0
176
     1
 90
        4
176
     1
 62
     7
176
     1
 62
   257
176
     1
 90
        1
176
     1
 90
        1
176
     1
 40
1.0
176
     1
 90
        8
176
     1
 62
     7
176
     1
 40
1.0
176
     1
 90
        1
176
     1
 90
        6
176
     1
 90
        2
176
     1
 62
     7
176
     1
 90
        5
176
     1
 90
        0
176
     1
 90
        0
176
     1
290
     0
176
     1
 90
        1
176
     1
 40
0.0
176
     1
 90
        0
176
     1
290
     0
176
     1
290
     1
176
     1
290
     1
176
     1
290
     0
176
     1
290
     0
176
     1
290
     0
176
     1
290
     0
176
     1
290
     0
176
     1
290
     0
176
     1
 90
       50
176
     1
 40
0.0
176
     1
 40
1.0
176
     1
 90
        0
176
     1
 62
    18
420
        0
176
     1
 90
       50
176
     1
 90
        3
176
     1
 62
     5
420
      255
176
     1
290
     0
176
     1
 90
       50
176
     1
 90
       50
176
     1
 90
       50
176
     1
290
     0
176
     1
 90
       50
176
     1
 62
   256
176
     0
 40
1.0
176
     0
 90
        2
176
     1
  1
strokes_ogs.tif
176
     1
290
     0
176
     1
 40
1.0
176
     1
 40
1.0
176
     1
1001
ACAD
1000
AcDbSavedByObjectVersion
1070
     0
  0
VISUALSTYLE
  5
35
102
{ACAD_REACTORS
330
29
102
}
330
29
100
AcDbVisualStyle
  2
Brighten
 70
    12
177
     3
291
     1
 70
    58
 90
        2
176
     1
 90
        2
176
     1
 90
        0
176
     1
 90
        0
176
     1
 40
0.6
176
     1
 40
30.0
176
     1
 62
     7
420
 16777215
176
     1
 90
        1
176
     1
 90
        4
176
     1
 62
     7
176
     1
 62
   257
176
     1
 90
        1
176
     1
 90
        1
176
     1
 40
1.0
176
     1
 90
        8
176
     1
 62
     7
176
     1
 40
1.0
176
     1
 90
        1
176
     1
 90
        6
176
     1
 90
        2
176
     1
 62
     7
176
     1
 90
        5
176
     1
 90
        0
176
     1
 90
        0
176
     1
290
     0
176
     1
 90
        1
176
     1
 40
50.0
176
     1
 90
        0
176
     1
290
     0
176
     1
290
     1
176
     1
290
     1
176
     1
290
     0
176
     1
290
     0
176
     1
290
     0
176
     1
290
     0
176
     1
290
     0
176
     1
290
     0
176
     1
 90
       50
176
     1
 40
0.0
176
     1
 40
1.0
176
     1
 90
        0
176
     1
 62
    18
420
        0
176
     1
 90
       50
176
     1
 90
        3
176
     1
 62
     5
420
      255
176
     1
290
     0
176
     1
 90
       50
176
     1
 90
       50
176
     1
 90
       50
176
     1
290
     0
176
     1
 90
       50
176
     1
 62
   256
176
     0
 40
1.0
176
     0
 90
        2
176
     1
  1
strokes_ogs.tif
176
     1
290
     0
176
     1
 40
1.0
176
     1
 40
1.0
176
     1
1001
ACAD
1000
AcDbSavedByObjectVersion
1070
     0
  0
VISUALSTYLE
  5
39
102
{ACAD_REACTORS
330
29
102
}
330
29
100
AcDbVisualStyle
  2
ColorChange
 70
    16
177
     3
291
     1
 70
    58
 90
        2
176
     1
 90
        2
176
     1
 90
        3
176
     1
 90
        0
176
     1
 40
0.6
176
     1
 40
30.0
176
     1
 62
     8
420
  8421504
176
     1
 90
        1
176
     1
 90
        4
176
     1
 62
     7
176
     1
 62
   257
176
     1
 90
        1
176
     1
 90
        1
176
     1
 40
1.0
176
     1
 90
        8
176
     1
 62
     8
420
  8421504
176
     1
 40
1.0
176
     1
 90
        1
176
     1
 90
        6
176
     1
 90
        2
176
     1
 62
     7
176
     1
 90
        5
176
     1
 90
        0
176
     1
 90
        0
176
     1
290
     0
176
     1
 90
        1
176
     1
 40
0.0
176
     1
 90
        0
176
     1
290
     0
176
     1
290
     1
176
     1
290
     1
176
     1
290
     0
176
     1
290
     0
176
     1
290
     0
176
     1
290
     0
176
     1
290
     0
176
     1
290
     0
176
     1
 90
       50
176
     1
 40
0.0
176
     1
 40
1.0
176
     1
 90
        0
176
     1
 62
    18
420
        0
176
     1
 90
       50
176
     1
 90
        3
176
     1
 62
     5
420
      255
176
     1
290
     0
176
     1
 90
       50
176
     1
 90
       50
176
     1
 90
       50
176
     1
290
     0
176
     1
 90
       50
176
     1
 62
   256
176
     0
 40
1.0
176
     0
 90
        2
176
     1
  1
strokes_ogs.tif
176
     1
290
     0
176
     1
 40
1.0
176
     1
 40
1.0
176
     1
1001
ACAD
1000
AcDbSavedByObjectVersion
1070
     0
  0
VISUALSTYLE
  5
32
102
{ACAD_REACTORS
330
29
102
}
330
29
100
AcDbVisualStyle
  2
Conceptual
 70
     9
177
     3
291
     0
 70
    58
 90
        3
176
     1
 90
        2
176
     1
 90
        0
176
     1
 90
        0
176
     1
 40
0.6
176
     1
 40
30.0
176
     1
 62
     7
420
 16777215
176
     1
 90
        2
176
     1
 90
        2
176
     1
 62
     7
176
     1
 62
   257
176
     1
 90
        1
176
     1
 90
        1
176
     1
 40
179.0
176
     1
 90
        8
176
     1
 62
     7
176
     1
 40
1.0
176
     1
 90
        1
176
     1
 90
        6
176
     1
 90
        2
176
     1
 62
     7
176
     1
 90
        3
176
     1
 90
        0
176
     1
 90
        0
176
     1
290
     0
176
     1
 90
        1
176
     1
 40
0.0
176
     1
 90
        0
176
     1
290
     0
176
     1
290
     1
176
     1
290
     1
176
     1
290
     0
176
     1
290
     0
176
     1
290
     0
176
     1
290
     0
176
     1
290
     0
176
     1
290
     0
176
     1
 90
       50
176
     1
 40
0.0
176
     1
 40
1.0
176
     1
 90
        0
176
     1
 62
    18
420
        0
176
     1
 90
       50
176
     1
 90
        3
176
     1
 62
     5
420
      255
176
     1
290
     0
176
     1
 90
       50
176
     1
 90
       50
176
     1
 90
       50
176
     1
290
     0
176
     1
 90
       50
176
     1
 62
   256
176
     0
 40
1.0
176
     0
 90
        2
176
     1
  1
strokes_ogs.tif
176
     1
290
     0
176
     1
 40
1.0
176
     1
 40
1.0
176
     1
1001
ACAD
1000
AcDbSavedByObjectVersion
1070
     0
  0
VISUALSTYLE
  5
34
102
{ACAD_REACTORS
330
29
102
}
330
29
100
AcDbVisualStyle
  2
Dim
 70
    11
177
     3
291
     1
 70
    58
 90
        2
176
     1
 90
        2
176
     1
 90
        0
176
     1
 90
        0
176
     1
 40
0.6
176
     1
 40
30.0
176
     1
 62
     7
420
 16777215
176
     1
 90
        1
176
     1
 90
        4
176
     1
 62
     7
176
     1
 62
   257
176
     1
 90
        1
176
     1
 90
        1
176
     1
 40
1.0
176
     1
 90
        8
176
     1
 62
     7
176
     1
 40
1.0
176
     1
 90
        1
176
     1
 90
        6
176
     1
 90
        2
176
     1
 62
     7
176
     1
 90
        5
176
     1
 90
        0
176
     1
 90
        0
176
     1
290
     0
176
     1
 90
        1
176
     1
 40
-50.0
176
     1
 90
        0
176
     1
290
     0
176
     1
290
     1
176
     1
290
     1
176
     1
290
     0
176
     1
290
     0
176
     1
290
     0
176
     1
290
     0
176
     1
290
     0
176
     1
290
     0
176
     1
 90
       50
176
     1
 40
0.0
176
     1
 40
1.0
176
     1
 90
        0
176
     1
 62
    18
420
        0
176
     1
 90
       50
176
     1
 90
        3
176
     1
 62
     5
420
      255
176
     1
290
     0
176
     1
 90
       50
176
     1
 90
       50
176
     1
 90
       50
176
     1
290
     0
176
     1
 90
       50
176
     1
 62
   256
176
     0
 40
1.0
176
     0
 90
        2
176
     1
  1
strokes_ogs.tif
176
     1
290
     0
176
     1
 40
1.0
176
     1
 40
1.0
176
     1
1001
ACAD
1000
AcDbSavedByObjectVersion
1070
     0
  0
VISUALSTYLE
  5
41
102
{ACAD_REACTORS
330
29
102
}
330
29
100
AcDbVisualStyle
  2
EdgeColorOff
 70
    22
177
     3
291
     1
 70
    58
 90
        2
176
     0
 90
        2
176
     0
 90
        0
176
     0
 90
        0
176
     0
 40
0.6
176
     0
 40
30.0
176
     0
 62
     7
420
 16777215
176
     0
 90
        1
176
     0
 90
        4
176
     0
 62
     7
176
     0
 62
   257
176
     0
 90
        1
176
     0
 90
        1
176
     0
 40
1.0
176
     0
 90
        8
176
     2
 62
     7
176
     0
 40
1.0
176
     0
 90
        1
176
     0
 90
        6
176
     0
 90
        2
176
     0
 62
     7
176
     0
 90
        5
176
     0
 90
        0
176
     0
 90
        0
176
     0
290
     0
176
     0
 90
        1
176
     0
 40
0.0
176
     0
 90
        0
176
     0
290
     0
176
     0
290
     1
176
     0
290
     1
176
     0
290
     0
176
     0
290
     0
176
     0
290
     0
176
     0
290
     0
176
     0
290
     0
176
     0
290
     0
176
     0
 90
       50
176
     0
 40
0.0
176
     0
 40
1.0
176
     0
 90
        0
176
     0
 62
    18
420
        0
176
     0
 90
       50
176
     0
 90
        3
176
     0
 62
     5
420
      255
176
     0
290
     0
176
     0
 90
       50
176
     0
 90
       50
176
     0
 90
       50
176
     0
290
     0
176
     0
 90
       50
176
     0
 62
   256
176
     0
 40
1.0
176
     0
 90
        2
176
     0
  1
strokes_ogs.tif
176
     0
290
     0
176
     0
 40
1.0
176
     0
 40
1.0
176
     0
1001
ACAD
1000
AcDbSavedByObjectVersion
1070
     0
  0
VISUALSTYLE
  5
38
102
{ACAD_REACTORS
330
29
102
}
330
29
100
AcDbVisualStyle
  2
Facepattern
 70
    15
177
     3
291
     1
 70
    58
 90
        2
176
     1
 90
        2
176
     1
 90
        0
176
     1
 90
        0
176
     1
 40
0.6
176
     1
 40
30.0
176
     1
 62
     7
420
 16777215
176
     1
 90
        1
176
     1
 90
        4
176
     1
 62
     7
176
     1
 62
   257
176
     1
 90
        1
176
     1
 90
        1
176
     1
 40
1.0
176
     1
 90
        8
176
     1
 62
     7
176
     1
 40
1.0
176
     1
 90
        1
176
     1
 90
        6
176
     1
 90
        2
176
     1
 62
     7
176
     1
 90
        5
176
     1
 90
        0
176
     1
 90
        0
176
     1
290
     0
176
     1
 90
        1
176
     1
 40
0.0
176
     1
 90
        0
176
     1
290
     0
176
     1
290
     1
176
     1
290
     1
176
     1
290
     0
176
     1
290
     0
176
     1
290
     0
176
     1
290
     0
176
     1
290
     0
176
     1
290
     0
176
     1
 90
       50
176
     1
 40
0.0
176
     1
 40
1.0
176
     1
 90
        0
176
     1
 62
    18
420
        0
176
     1
 90
       50
176
     1
 90
        3
176
     1
 62
     5
420
      255
176
     1
290
     0
176
     1
 90
       50
176
     1
 90
       50
176
     1
 90
       50
176
     1
290
     0
176
     1
 90
       50
176
     1
 62
   256
176
     0
 40
1.0
176
     0
 90
        2
176
     1
  1
strokes_ogs.tif
176
     1
290
     0
176
     1
 40
1.0
176
     1
 40
1.0
176
     1
1001
ACAD
1000
AcDbSavedByObjectVersion
1070
     0
  0
VISUALSTYLE
  5
2A
102
{ACAD_REACTORS
330
29
102
}
330
29
100
AcDbVisualStyle
  2
Flat
 70
     0
177
     3
291
     1
 70
    58
 90
        2
176
     1
 90
        1
176
     1
 90
        1
176
     1
 90
        2
176
     1
 40
0.6
176
     1
 40
30.0
176
     1
 62
     7
420
 16777215
176
     1
 90
        0
176
     1
 90
        0
176
     1
 62
     7
176
     1
 62
   257
176
     1
 90
        1
176
     1
 90
        1
176
     1
 40
1.0
176
     1
 90
        8
176
     1
 62
     7
176
     1
 40
1.0
176
     1
 90
        1
176
     1
 90
        6
176
     1
 90
        2
176
     1
 62
     7
176
     1
 90
        5
176
     1
 90
        0
176
     1
 90
        0
176
     1
290
     0
176
     1
 90
       13
176
     1
 40
0.0
176
     1
 90
        0
176
     1
290
     0
176
     1
290
     1
176
     1
290
     1
176
     1
290
     0
176
     1
290
     0
176
     1
290
     0
176
     1
290
     0
176
     1
290
     0
176
     1
290
     0
176
     1
 90
       50
176
     1
 40
0.0
176
     1
 40
1.0
176
     1
 90
        0
176
     1
 62
    18
420
        0
176
     1
 90
       50
176
     1
 90
        3
176
     1
 62
     5
420
      255
176
     1
290
     0
176
     1
 90
       50
176
     1
 90
       50
176
     1
 90
       50
176
     1
290
     0
176
     1
 90
       50
176
     1
 62
   256
176
     0
 40
1.0
176
     0
 90
        2
176
     1
  1
strokes_ogs.tif
176
     1
290
     0
176
     1
 40
1.0
176
     1
 40
1.0
176
     1
1001
ACAD
1000
AcDbSavedByObjectVersion
1070
     0
  0
VISUALSTYLE
  5
2B
102
{ACAD_REACTORS
330
29
102
}
330
29
100
AcDbVisualStyle
  2
FlatWithEdges
 70
     1
177
     3
291
     1
 70
    58
 90
        2
176
     1
 90
        1
176
     1
 90
        1
176
     1
 90
        2
176
     1
 40
0.6
176
     1
 40
30.0
176
     1
 62
     7
420
 16777215
176
     1
 90
        1
176
     1
 90
        0
176
     1
 62
     7
176
     1
 62
   257
176
     1
 90
        1
176
     1
 90
        1
176
     1
 40
1.0
176
     1
 90
        0
176
     1
 62
   257
176
     1
 40
1.0
176
     1
 90
        1
176
     1
 90
        6
176
     1
 90
        2
176
     1
 62
     7
176
     1
 90
        5
176
     1
 90
        0
176
     1
 90
        0
176
     1
290
     0
176
     1
 90
       13
176
     1
 40
0.0
176
     1
 90
        0
176
     1
290
     0
176
     1
290
     1
176
     1
290
     1
176
     1
290
     0
176
     1
290
     0
176
     1
290
     0
176
     1
290
     0
176
     1
290
     0
176
     1
290
     0
176
     1
 90
       50
176
     1
 40
0.0
176
     1
 40
1.0
176
     1
 90
        0
176
     1
 62
    18
420
        0
176
     1
 90
       50
176
     1
 90
        3
176
     1
 62
     5
420
      255
176
     1
290
     0
176
     1
 90
       50
176
     1
 90
       50
176
     1
 90
       50
176
     1
290
     0
176
     1
 90
       50
176
     1
 62
   256
176
     0
 40
1.0
176
     0
 90
        2
176
     1
  1
strokes_ogs.tif
176
     1
290
     0
176
     1
 40
1.0
176
     1
 40
1.0
176
     1
1001
ACAD
1000
AcDbSavedByObjectVersion
1070
     0
  0
VISUALSTYLE
  5
2C
102
{ACAD_REACTORS
330
29
102
}
330
29
100
AcDbVisualStyle
  2
Gouraud
 70
     2
177
     3
291
     1
 70
    58
 90
        2
176
     1
 90
        2
176
     1
 90
        1
176
     1
 90
        2
176
     1
 40
0.6
176
     1
 40
30.0
176
     1
 62
     7
420
 16777215
176
     1
 90
        0
176
     1
 90
        0
176
     1
 62
     7
176
     1
 62
   257
176
     1
 90
        1
176
     1
 90
        1
176
     1
 40
1.0
176
     1
 90
        0
176
     1
 62
     7
176
     1
 40
1.0
176
     1
 90
        1
176
     1
 90
        6
176
     1
 90
        2
176
     1
 62
     7
176
     1
 90
        5
176
     1
 90
        0
176
     1
 90
        0
176
     1
290
     0
176
     1
 90
       13
176
     1
 40
0.0
176
     1
 90
        0
176
     1
290
     0
176
     1
290
     1
176
     1
290
     1
176
     1
290
     0
176
     1
290
     0
176
     1
290
     0
176
     1
290
     0
176
     1
290
     0
176
     1
290
     0
176
     1
 90
       50
176
     1
 40
0.0
176
     1
 40
1.0
176
     1
 90
        0
176
     1
 62
    18
420
        0
176
     1
 90
       50
176
     1
 90
        3
176
     1
 62
     5
420
      255
176
     1
290
     0
176
     1
 90
       50
176
     1
 90
       50
176
     1
 90
       50
176
     1
290
     0
176
     1
 90
       50
176
     1
 62
   256
176
     0
 40
1.0
176
     0
 90
        2
176
     1
  1
strokes_ogs.tif
176
     1
290
     0
176
     1
 40
1.0
176
     1
 40
1.0
176
     1
1001
ACAD
1000
AcDbSavedByObjectVersion
1070
     0
  0
VISUALSTYLE
  5
2D
102
{ACAD_REACTORS
330
29
102
}
330
29
100
AcDbVisualStyle
  2
GouraudWithEdges
 70
     3
177
     3
291
     1
 70
    58
 90
        2
176
     1
 90
        2
176
     1
 90
        1
176
     1
 90
        2
176
     1
 40
0.6
176
     1
 40
30.0
176
     1
 62
     7
420
 16777215
176
     1
 90
        1
176
     1
 90
        0
176
     1
 62
     7
176
     1
 62
   257
176
     1
 90
        1
176
     1
 90
        1
176
     1
 40
1.0
176
     1
 90
        0
176
     1
 62
   257
176
     1
 40
1.0
176
     1
 90
        1
176
     1
 90
        6
176
     1
 90
        2
176
     1
 62
     7
176
     1
 90
        5
176
     1
 90
        0
176
     1
 90
        0
176
     1
290
     0
176
     1
 90
       13
176
     1
 40
0.0
176
     1
 90
        0
176
     1
290
     0
176
     1
290
     1
176
     1
290
     1
176
     1
290
     0
176
     1
290
     0
176
     1
290
     0
176
     1
290
     0
176
     1
290
     0
176
     1
290
     0
176
     1
 90
       50
176
     1
 40
0.0
176
     1
 40
1.0
176
     1
 90
        0
176
     1
 62
    18
420
        0
176
     1
 90
       50
176
     1
 90
        3
176
     1
 62
     5
420
      255
176
     1
290
     0
176
     1
 90
       50
176
     1
 90
       50
176
     1
 90
       50
176
     1
290
     0
176
     1
 90
       50
176
     1
 62
   256
176
     0
 40
1.0
176
     0
 90
        2
176
     1
  1
strokes_ogs.tif
176
     1
290
     0
176
     1
 40
1.0
176
     1
 40
1.0
176
     1
1001
ACAD
1000
AcDbSavedByObjectVersion
1070
     0
  0
VISUALSTYLE
  5
31
102
{ACAD_REACTORS
330
29
102
}
330
29
100
AcDbVisualStyle
  2
Hidden
 70
     6
177
     3
291
     0
 70
    58
 90
        1
176
     1
 90
        2
176
     1
 90
        2
176
     1
 90
        0
176
     1
 40
0.6
176
     1
 40
30.0
176
     1
 62
     7
420
 16777215
176
     1
 90
        2
176
     1
 90
        2
176
     1
 62
     7
176
     1
 62
   257
176
     1
 90
        2
176
     1
 90
        1
176
     1
 40
40.0
176
     1
 90
        0
176
     1
 62
   257
176
     1
 40
1.0
176
     1
 90
        1
176
     1
 90
        6
176
     1
 90
        2
176
     1
 62
     7
176
     1
 90
        3
176
     1
 90
        0
176
     1
 90
        0
176
     1
290
     0
176
     1
 90
        1
176
     1
 40
0.0
176
     1
 90
        0
176
     1
290
     0
176
     1
290
     1
176
     1
290
     1
176
     1
290
     0
176
     1
290
     0
176
     1
290
     0
176
     1
290
     0
176
     1
290
     0
176
     1
290
     0
176
     1
 90
       50
176
     1
 40
0.0
176
     1
 40
1.0
176
     1
 90
        0
176
     1
 62
    18
420
        0
176
     1
 90
       50
176
     1
 90
        3
176
     1
 62
     5
420
      255
176
     1
290
     0
176
     1
 90
       50
176
     1
 90
       50
176
     1
 90
       50
176
     1
290
     0
176
     1
 90
       50
176
     1
 62
   256
176
     0
 40
1.0
176
     0
 90
        2
176
     1
  1
strokes_ogs.tif
176
     1
290
     0
176
     1
 40
1.0
176
     1
 40
1.0
176
     1
1001
ACAD
1000
AcDbSavedByObjectVersion
1070
     0
  0
VISUALSTYLE
  5
3F
102
{ACAD_REACTORS
330
29
102
}
330
29
100
AcDbVisualStyle
  2
JitterOff
 70
    20
177
     3
291
     1
 70
    58
 90
        2
176
     0
 90
        2
176
     0
 90
        0
176
     0
 90
        0
176
     0
 40
0.6
176
     0
 40
30.0
176
     0
 62
     7
420
 16777215
176
     0
 90
        1
176
     0
 90
        4
176
     0
 62
     7
176
     0
 62
   257
176
     0
 90
        1
176
     0
 90
        1
176
     0
 40
1.0
176
     0
 90
       10
176
     2
 62
     7
176
     0
 40
1.0
176
     0
 90
        1
176
     0
 90
        6
176
     0
 90
        2
176
     0
 62
     7
176
     0
 90
        5
176
     0
 90
        0
176
     0
 90
        0
176
     0
290
     0
176
     0
 90
        1
176
     0
 40
0.0
176
     0
 90
        0
176
     0
290
     0
176
     0
290
     1
176
     0
290
     1
176
     0
290
     0
176
     0
290
     0
176
     0
290
     0
176
     0
290
     0
176
     0
290
     0
176
     0
290
     0
176
     0
 90
       50
176
     0
 40
0.0
176
     0
 40
1.0
176
     0
 90
        0
176
     0
 62
    18
420
        0
176
     0
 90
       50
176
     0
 90
        3
176
     0
 62
     5
420
      255
176
     0
290
     0
176
     0
 90
       50
176
     0
 90
       50
176
     0
 90
       50
176
     0
290
     0
176
     0
 90
       50
176
     0
 62
   256
176
     0
 40
1.0
176
     0
 90
        2
176
     0
  1
strokes_ogs.tif
176
     0
290
     0
176
     0
 40
1.0
176
     0
 40
1.0
176
     0
1001
ACAD
1000
AcDbSavedByObjectVersion
1070
     0
  0
VISUALSTYLE
  5
37
102
{ACAD_REACTORS
330
29
102
}
330
29
100
AcDbVisualStyle
  2
Linepattern
 70
    14
177
     3
291
     1
 70
    58
 90
        2
176
     1
 90
        2
176
     1
 90
        0
176
     1
 90
        0
176
     1
 40
0.6
176
     1
 40
30.0
176
     1
 62
     7
420
 16777215
176
     1
 90
        1
176
     1
 90
        4
176
     1
 62
     7
176
     1
 62
   257
176
     1
 90
        7
176
     1
 90
        7
176
     1
 40
1.0
176
     1
 90
        8
176
     1
 62
     7
176
     1
 40
1.0
176
     1
 90
        1
176
     1
 90
        6
176
     1
 90
        2
176
     1
 62
     7
176
     1
 90
        5
176
     1
 90
        0
176
     1
 90
        0
176
     1
290
     0
176
     1
 90
        1
176
     1
 40
0.0
176
     1
 90
        0
176
     1
290
     0
176
     1
290
     1
176
     1
290
     1
176
     1
290
     0
176
     1
290
     0
176
     1
290
     0
176
     1
290
     0
176
     1
290
     0
176
     1
290
     0
176
     1
 90
       50
176
     1
 40
0.0
176
     1
 40
1.0
176
     1
 90
        0
176
     1
 62
    18
420
        0
176
     1
 90
       50
176
     1
 90
        3
176
     1
 62
     5
420
      255
176
     1
290
     0
176
     1
 90
       50
176
     1
 90
       50
176
     1
 90
       50
176
     1
290
     0
176
     1
 90
       50
176
     1
 62
   256
176
     0
 40
1.0
176
     0
 90
        2
176
     1
  1
strokes_ogs.tif
176
     1
290
     0
176
     1
 40
1.0
176
     1
 40
1.0
176
     1
1001
ACAD
1000
AcDbSavedByObjectVersion
1070
     0
  0
VISUALSTYLE
  5
40
102
{ACAD_REACTORS
330
29
102
}
330
29
100
AcDbVisualStyle
  2
OverhangOff
 70
    21
177
     3
291
     1
 70
    58
 90
        2
176
     0
 90
        2
176
     0
 90
        0
176
     0
 90
        0
176
     0
 40
0.6
176
     0
 40
30.0
176
     0
 62
     7
420
 16777215
176
     0
 90
        1
176
     0
 90
        4
176
     0
 62
     7
176
     0
 62
   257
176
     0
 90
        1
176
     0
 90
        1
176
     0
 40
1.0
176
     0
 90
        9
176
     2
 62
     7
176
     0
 40
1.0
176
     0
 90
        1
176
     0
 90
        6
176
     0
 90
        2
176
     0
 62
     7
176
     0
 90
        5
176
     0
 90
        0
176
     0
 90
        0
176
     0
290
     0
176
     0
 90
        1
176
     0
 40
0.0
176
     0
 90
        0
176
     0
290
     0
176
     0
290
     1
176
     0
290
     1
176
     0
290
     0
176
     0
290
     0
176
     0
290
     0
176
     0
290
     0
176
     0
290
     0
176
     0
290
     0
176
     0
 90
       50
176
     0
 40
0.0
176
     0
 40
1.0
176
     0
 90
        0
176
     0
 62
    18
420
        0
176
     0
 90
       50
176
     0
 90
        3
176
     0
 62
     5
420
      255
176
     0
290
     0
176
     0
 90
       50
176
     0
 90
       50
176
     0
 90
       50
176
     0
290
     0
176
     0
 90
       50
176
     0
 62
   256
176
     0
 40
1.0
176
     0
 90
        2
176
     0
  1
strokes_ogs.tif
176
     0
290
     0
176
     0
 40
1.0
176
     0
 40
1.0
176
     0
1001
ACAD
1000
AcDbSavedByObjectVersion
1070
     0
  0
VISUALSTYLE
  5
33
102
{ACAD_REACTORS
330
29
102
}
330
29
100
AcDbVisualStyle
  2
Realistic
 70
     8
177
     3
291
     0
 70
    58
 90
        2
176
     1
 90
        3
176
     1
 90
        0
176
     1
 90
        2
176
     1
 40
0.6
176
     1
 40
30.0
176
     1
 62
     7
420
 16777215
176
     1
 90
        0
176
     1
 90
        0
176
     1
 62
     7
176
     1
 62
   257
176
     1
 90
        1
176
     1
 90
        1
176
     1
 40
1.0
176
     1
 90
        8
176
     1
 62
   257
176
     1
 40
1.0
176
     1
 90
        1
176
     1
 90
        6
176
     1
 90
        2
176
     1
 62
     7
176
     1
 90
        3
176
     1
 90
        0
176
     1
 90
        0
176
     1
290
     0
176
     1
 90
       13
176
     1
 40
0.0
176
     1
 90
        0
176
     1
290
     0
176
     1
290
     1
176
     1
290
     1
176
     1
290
     0
176
     1
290
     0
176
     1
290
     0
176
     1
290
     0
176
     1
290
     0
176
     1
290
     0
176
     1
 90
       50
176
     1
 40
0.0
176
     1
 40
1.0
176
     1
 90
        0
176
     1
 62
    18
420
        0
176
     1
 90
       50
176
     1
 90
        3
176
     1
 62
     5
420
      255
176
     1
290
     0
176
     1
 90
       50
176
     1
 90
       50
176
     1
 90
       50
176
     1
290
     0
176
     1
 90
       50
176
     1
 62
   256
176
     0
 40
1.0
176
     0
 90
        2
176
     1
  1
strokes_ogs.tif
176
     1
290
     0
176
     1
 40
1.0
176
     1
 40
1.0
176
     1
1001
ACAD
1000
AcDbSavedByObjectVersion
1070
     0
  0
VISUALSTYLE
  5
3E
102
{ACAD_REACTORS
330
29
102
}
330
29
100
AcDbVisualStyle
  2
Shaded
 70
    27
177
     3
291
     0
 70
    58
 90
        2
176
     1
 90
        2
176
     1
 90
        1
176
     1
 90
        2
176
     1
 40
0.6
176
     1
 40
30.0
176
     1
 62
     7
420
 16777215
176
     1
 90
        0
176
     1
 90
        4
176
     1
 62
     7
176
     1
 62
   257
176
     1
 90
        1
176
     1
 90
        1
176
     1
 40
1.0
176
     1
 90
        8
176
     1
 62
   257
176
     1
 40
1.0
176
     1
 90
        1
176
     1
 90
        6
176
     1
 90
        2
176
     1
 62
     8
420
  7895160
176
     1
 90
        3
176
     1
 90
        0
176
     1
 90
        0
176
     1
290
     0
176
     1
 90
        5
176
     1
 40
0.0
176
     1
 90
        0
176
     1
290
     0
176
     1
290
     1
176
     1
290
     1
176
     1
290
     0
176
     1
290
     0
176
     1
290
     0
176
     1
290
     0
176
     1
290
     0
176
     1
290
     0
176
     1
 90
       50
176
     1
 40
0.0
176
     1
 40
1.0
176
     1
 90
        0
176
     1
 62
    18
420
        0
176
     1
 90
       50
176
     1
 90
        3
176
     1
 62
     5
420
      255
176
     1
290
     0
176
     1
 90
       50
176
     1
 90
       50
176
     1
 90
       50
176
     1
290
     0
176
     1
 90
       50
176
     1
 62
   256
176
     0
 40
1.0
176
     0
 90
        2
176
     1
  1
strokes_ogs.tif
176
     1
290
     0
176
     1
 40
1.0
176
     1
 40
1.0
176
     1
1001
ACAD
1000
AcDbSavedByObjectVersion
1070
     0
  0
VISUALSTYLE
  5
3D
102
{ACAD_REACTORS
330
29
102
}
330
29
100
AcDbVisualStyle
  2
Shaded with edges
 70
    26
177
     3
291
     0
 70
    58
 90
        2
176
     1
 90
        2
176
     1
 90
        1
176
     1
 90
        2
176
     1
 40
0.6
176
     1
 40
30.0
176
     1
 62
     7
420
 16777215
176
     1
 90
        1
176
     1
 90
        2
176
     1
 62
     7
176
     1
 62
   257
176
     1
 90
        2
176
     1
 90
        1
176
     1
 40
1.0
176
     1
 90
        8
176
     1
 62
   257
176
     1
 40
1.0
176
     1
 90
        1
176
     1
 90
        6
176
     1
 90
        2
176
     1
 62
     7
176
     1
 90
        3
176
     1
 90
        0
176
     1
 90
        0
176
     1
290
     0
176
     1
 90
        5
176
     1
 40
0.0
176
     1
 90
        0
176
     1
290
     0
176
     1
290
     1
176
     1
290
     1
176
     1
290
     0
176
     1
290
     0
176
     1
290
     0
176
     1
290
     0
176
     1
290
     0
176
     1
290
     0
176
     1
 90
       50
176
     1
 40
0.0
176
     1
 40
1.0
176
     1
 90
        0
176
     1
 62
    18
420
        0
176
     1
 90
       50
176
     1
 90
        3
176
     1
 62
     5
420
      255
176
     1
290
     0
176
     1
 90
       50
176
     1
 90
       50
176
     1
 90
       50
176
     1
290
     0
176
     1
 90
       50
176
     1
 62
   256
176
     0
 40
1.0
176
     0
 90
        2
176
     1
  1
strokes_ogs.tif
176
     1
290
     0
176
     1
 40
1.0
176
     1
 40
1.0
176
     1
1001
ACAD
1000
AcDbSavedByObjectVersion
1070
     0
  0
VISUALSTYLE
  5
3A
102
{ACAD_REACTORS
330
29
102
}
330
29
100
AcDbVisualStyle
  2
Shades of Gray
 70
    23
177
     3
291
     0
 70
    58
 90
        2
176
     1
 90
        2
176
     1
 90
        3
176
     1
 90
        0
176
     1
 40
0.6
176
     1
 40
30.0
176
     1
 62
     7
420
 16777215
176
     1
 90
        2
176
     1
 90
        2
176
     1
 62
     7
176
     1
 62
     7
176
     1
 90
        1
176
     1
 90
        1
176
     1
 40
40.0
176
     1
 90
        8
176
     1
 62
     7
176
     1
 40
1.0
176
     1
 90
        1
176
     1
 90
        6
176
     1
 90
        2
176
     1
 62
     7
176
     1
 90
        3
176
     1
 90
        0
176
     1
 90
        0
176
     1
290
     0
176
     1
 90
        1
176
     1
 40
0.0
176
     1
 90
        0
176
     1
290
     0
176
     1
290
     1
176
     1
290
     1
176
     1
290
     0
176
     1
290
     0
176
     1
290
     0
176
     1
290
     0
176
     1
290
     0
176
     1
290
     0
176
     1
 90
       50
176
     1
 40
0.0
176
     1
 40
1.0
176
     1
 90
        0
176
     1
 62
    18
420
        0
176
     1
 90
       50
176
     1
 90
        3
176
     1
 62
     5
420
      255
176
     1
290
     0
176
     1
 90
       50
176
     1
 90
       50
176
     1
 90
       50
176
     1
290
     0
176
     1
 90
       50
176
     1
 62
   256
176
     0
 40
1.0
176
     0
 90
        2
176
     1
  1
strokes_ogs.tif
176
     1
290
     0
176
     1
 40
1.0
176
     1
 40
1.0
176
     1
1001
ACAD
1000
AcDbSavedByObjectVersion
1070
     0
  0
VISUALSTYLE
  5
3B
102
{ACAD_REACTORS
330
29
102
}
330
29
100
AcDbVisualStyle
  2
Sketchy
 70
    24
177
     3
291
     0
 70
    58
 90
        1
176
     1
 90
        2
176
     1
 90
        2
176
     1
 90
        0
176
     1
 40
0.6
176
     1
 40
30.0
176
     1
 62
     7
420
 16777215
176
     1
 90
        2
176
     1
 90
        2
176
     1
 62
     7
176
     1
 62
     7
176
     1
 90
        1
176
     1
 90
        1
176
     1
 40
40.0
176
     1
 90
       11
176
     1
 62
     7
176
     1
 40
1.0
176
     1
 90
        1
176
     1
 90
        6
176
     1
 90
        2
176
     1
 62
     7
176
     1
 90
        6
176
     1
 90
        0
176
     1
 90
        0
176
     1
290
     0
176
     1
 90
        1
176
     1
 40
0.0
176
     1
 90
        0
176
     1
290
     0
176
     1
290
     1
176
     1
290
     1
176
     1
290
     0
176
     1
290
     0
176
     1
290
     0
176
     1
290
     0
176
     1
290
     0
176
     1
290
     0
176
     1
 90
       50
176
     1
 40
0.0
176
     1
 40
1.0
176
     1
 90
        0
176
     1
 62
    18
420
        0
176
     1
 90
       50
176
     1
 90
        3
176
     1
 62
     5
420
      255
176
     1
290
     0
176
     1
 90
       50
176
     1
 90
       50
176
     1
 90
       50
176
     1
290
     0
176
     1
 90
       50
176
     1
 62
   256
176
     0
 40
1.0
176
     0
 90
        2
176
     1
  1
strokes_ogs.tif
176
     1
290
     0
176
     1
 40
1.0
176
     1
 40
1.0
176
     1
1001
ACAD
1000
AcDbSavedByObjectVersion
1070
     0
  0
VISUALSTYLE
  5
36
102
{ACAD_REACTORS
330
29
102
}
330
29
100
AcDbVisualStyle
  2
Thicken
 70
    13
177
     3
291
     1
 70
    58
 90
        2
176
     1
 90
        2
176
     1
 90
        0
176
     1
 90
        0
176
     1
 40
0.6
176
     1
 40
30.0
176
     1
 62
     7
420
 16777215
176
     1
 90
        1
176
     1
 90
        4
176
     1
 62
     7
176
     1
 62
   257
176
     1
 90
        1
176
     1
 90
        1
176
     1
 40
1.0
176
     1
 90
       12
176
     1
 62
     7
176
     1
 40
1.0
176
     1
 90
        1
176
     1
 90
        6
176
     1
 90
        2
176
     1
 62
     7
176
     1
 90
        5
176
     1
 90
        0
176
     1
 90
        0
176
     1
290
     0
176
     1
 90
        1
176
     1
 40
0.0
176
     1
 90
        0
176
     1
290
     0
176
     1
290
     1
176
     1
290
     1
176
     1
290
     0
176
     1
290
     0
176
     1
290
     0
176
     1
290
     0
176
     1
290
     0
176
     1
290
     0
176
     1
 90
       50
176
     1
 40
0.0
176
     1
 40
1.0
176
     1
 90
        0
176
     1
 62
    18
420
        0
176
     1
 90
       50
176
     1
 90
        3
176
     1
 62
     5
420
      255
176
     1
290
     0
176
     1
 90
       50
176
     1
 90
       50
176
     1
 90
       50
176
     1
290
     0
176
     1
 90
       50
176
     1
 62
   256
176
     0
 40
1.0
176
     0
 90
        2
176
     1
  1
strokes_ogs.tif
176
     1
290
     0
176
     1
 40
1.0
176
     1
 40
1.0
176
     1
1001
ACAD
1000
AcDbSavedByObjectVersion
1070
     0
  0
VISUALSTYLE
  5
30
102
{ACAD_REACTORS
330
29
102
}
330
29
100
AcDbVisualStyle
  2
Wireframe
 70
     5
177
     3
291
     0
 70
    58
 90
        0
176
     1
 90
        2
176
     1
 90
        0
176
     1
 90
        0
176
     1
 40
0.6
176
     1
 40
30.0
176
     1
 62
     7
420
 16777215
176
     1
 90
        1
176
     1
 90
        4
176
     1
 62
     7
176
     1
 62
   257
176
     1
 90
        1
176
     1
 90
        1
176
     1
 40
1.0
176
     1
 90
        0
176
     1
 62
   257
176
     1
 40
1.0
176
     1
 90
        1
176
     1
 90
        6
176
     1
 90
        2
176
     1
 62
     7
176
     1
 90
        3
176
     1
 90
        0
176
     1
 90
        0
176
     1
290
     0
176
     1
 90
        1
176
     1
 40
0.0
176
     1
 90
        0
176
     1
290
     0
176
     1
290
     1
176
     1
290
     1
176
     1
290
     0
176
     1
290
     0
176
     1
290
     0
176
     1
290
     0
176
     1
290
     0
176
     1
290
     0
176
     1
 90
       50
176
     1
 40
0.0
176
     1
 40
1.0
176
     1
 90
        0
176
     1
 62
    18
420
        0
176
     1
 90
       50
176
     1
 90
        3
176
     1
 62
     5
420
      255
176
     1
290
     0
176
     1
 90
       50
176
     1
 90
       50
176
     1
 90
       50
176
     1
290
     0
176
     1
 90
       50
176
     1
 62
   256
176
     0
 40
1.0
176
     0
 90
        2
176
     1
  1
strokes_ogs.tif
176
     1
290
     0
176
     1
 40
1.0
176
     1
 40
1.0
176
     1
1001
ACAD
1000
AcDbSavedByObjectVersion
1070
     0
  0
VISUALSTYLE
  5
3C
102
{ACAD_REACTORS
330
29
102
}
330
29
100
AcDbVisualStyle
  2
X-Ray
 70
    25
177
     3
291
     0
 70
    58
 90
        2
176
     1
 90
        2
176
     1
 90
        1
176
     1
 90
        1
176
     1
 40
0.5
176
     1
 40
30.0
176
     1
 62
     7
420
 16777215
176
     1
 90
        1
176
     1
 90
        0
176
     1
 62
     7
176
     1
 62
   257
176
     1
 90
        1
176
     1
 90
        1
176
     1
 40
1.0
176
     1
 90
        8
176
     1
 62
     7
176
     1
 40
1.0
176
     1
 90
        1
176
     1
 90
        6
176
     1
 90
        2
176
     1
 62
     7
176
     1
 90
        3
176
     1
 90
        0
176
     1
 90
        0
176
     1
290
     0
176
     1
 90
       13
176
     1
 40
0.0
176
     1
 90
        0
176
     1
290
     0
176
     1
290
     1
176
     1
290
     1
176
     1
290
     0
176
     1
290
     0
176
     1
290
     0
176
     1
290
     0
176
     1
290
     0
176
     1
290
     0
176
     1
 90
       50
176
     1
 40
0.0
176
     1
 40
1.0
176
     1
 90
        0
176
     1
 62
    18
420
        0
176
     1
 90
       50
176
     1
 90
        3
176
     1
 62
     5
420
      255
176
     1
290
     0
176
     1
 90
       50
176
     1
 90
       50
176
     1
 90
       50
176
     1
290
     0
176
     1
 90
       50
176
     1
 62
   256
176
     0
 40
1.0
176
     0
 90
        2
176
     1
  1
strokes_ogs.tif
176
     1
290
     0
176
     1
 40
1.0
176
     1
 40
1.0
176
     1
1001
ACAD
1000
AcDbSavedByObjectVersion
1070
     0
  0
DICTIONARYVAR
  5
173
102
{ACAD_REACTORS
330
16E
102
}
330
16E
100
DictionaryVariables
280
     0
  1
1:1
  0
DICTIONARYVAR
  5
170
102
{ACAD_REACTORS
330
16E
102
}
330
16E
100
DictionaryVariables
280
     0
  1
STANDARD
  0
DICTIONARYVAR
  5
16F
102
{ACAD_REACTORS
330
16E
102
}
330
16E
100
DictionaryVariables
280
     0
  1
STANDARD
  0
DICTIONARYVAR
  5
171
102
{ACAD_REACTORS
330
16E
102
}
330
16E
100
DictionaryVariables
280
     0
  1
Imperial24
  0
DICTIONARYVAR
  5
172
102
{ACAD_REACTORS
330
16E
102
}
330
16E
100
DictionaryVariables
280
     0
  1
Imperial24
  0
DICTIONARY
  5
1E2
330
6B
100
AcDbDictionary
280
     1
281
     1
  3
ACAD_XREC_ROUNDTRIP
360
1E3
  0
DICTIONARY
  5
1A
330
19
100
AcDbDictionary
280
     1
281
     1
  3
BUMPTILE
360
1C
  3
DIFFUSETILE
360
1B
  3
OPACITYTILE
360
1F
  3
REFLECTIONTILE
360
1E
  3
REFRACTIONTILE
360
20
  3
SPECULARTILE
360
1D
  0
DICTIONARY
  5
12
330
11
100
AcDbDictionary
280
     1
281
     1
  3
BUMPTILE
360
14
  3
DIFFUSETILE
360
13
  3
OPACITYTILE
360
17
  3
REFLECTIONTILE
360
16
  3
REFRACTIONTILE
360
18
  3
SPECULARTILE
360
15
  0
DICTIONARY
  5
22
330
21
100
AcDbDictionary
280
     1
281
     1
  3
BUMPTILE
360
24
  3
DIFFUSETILE
360
23
  3
OPACITYTILE
360
27
  3
REFLECTIONTILE
360
26
  3
REFRACTIONTILE
360
28
  3
SPECULARTILE
360
25
  0
DICTIONARY
  5
1E0
330
69
100
AcDbDictionary
280
     1
281
     1
  3
ACAD_XREC_ROUNDTRIP
360
1E1
  0
DICTIONARY
  5
1DD
330
65
100
AcDbDictionary
280
     1
281
     1
  3
ACAD_ROUNDTRIP_2008_TABLESTYLE_CELLSTYLEMAP
360
1DE
  0
XRECORD
  5
1E3
102
{ACAD_REACTORS
330
1E2
102
}
330
1E2
100
AcDbXrecord
280
     1
102
DISPLAYNAME
  1
Imperial24
102
FLAGS
 90
        0
  0
XRECORD
  5
1C
102
{ACAD_REACTORS
330
1A
102
}
330
1A
100
AcDbXrecord
280
     1
270
     1
271
     1
  0
XRECORD
  5
1B
102
{ACAD_REACTORS
330
1A
102
}
330
1A
100
AcDbXrecord
280
     1
270
     1
271
     1
  0
XRECORD
  5
1F
102
{ACAD_REACTORS
330
1A
102
}
330
1A
100
AcDbXrecord
280
     1
270
     1
271
     1
  0
XRECORD
  5
1E
102
{ACAD_REACTORS
330
1A
102
}
330
1A
100
AcDbXrecord
280
     1
270
     1
271
     1
  0
XRECORD
  5
20
102
{ACAD_REACTORS
330
1A
102
}
330
1A
100
AcDbXrecord
280
     1
270
     1
271
     1
  0
XRECORD
  5
1D
102
{ACAD_REACTORS
330
1A
102
}
330
1A
100
AcDbXrecord
280
     1
270
     1
271
     1
  0
XRECORD
  5
14
102
{ACAD_REACTORS
330
12
102
}
330
12
100
AcDbXrecord
280
     1
270
     1
271
     1
  0
XRECORD
  5
13
102
{ACAD_REACTORS
330
12
102
}
330
12
100
AcDbXrecord
280
     1
270
     1
271
     1
  0
XRECORD
  5
17
102
{ACAD_REACTORS
330
12
102
}
330
12
100
AcDbXrecord
280
     1
270
     1
271
     1
  0
XRECORD
  5
16
102
{ACAD_REACTORS
330
12
102
}
330
12
100
AcDbXrecord
280
     1
270
     1
271
     1
  0
XRECORD
  5
18
102
{ACAD_REACTORS
330
12
102
}
330
12
100
AcDbXrecord
280
     1
270
     1
271
     1
  0
XRECORD
  5
15
102
{ACAD_REACTORS
330
12
102
}
330
12
100
AcDbXrecord
280
     1
270
     1
271
     1
  0
XRECORD
  5
24
102
{ACAD_REACTORS
330
22
102
}
330
22
100
AcDbXrecord
280
     1
270
     1
271
     1
  0
XRECORD
  5
23
102
{ACAD_REACTORS
330
22
102
}
330
22
100
AcDbXrecord
280
     1
270
     1
271
     1
  0
XRECORD
  5
27
102
{ACAD_REACTORS
330
22
102
}
330
22
100
AcDbXrecord
280
     1
270
     1
271
     1
  0
XRECORD
  5
26
102
{ACAD_REACTORS
330
22
102
}
330
22
100
AcDbXrecord
280
     1
270
     1
271
     1
  0
XRECORD
  5
28
102
{ACAD_REACTORS
330
22
102
}
330
22
100
AcDbXrecord
280
     1
270
     1
271
     1
  0
XRECORD
  5
25
102
{ACAD_REACTORS
330
22
102
}
330
22
100
AcDbXrecord
280
     1
270
     1
271
     1
  0
XRECORD
  5
1E1
102
{ACAD_REACTORS
330
1E0
102
}
330
1E0
100
AcDbXrecord
280
     1
102
DISPLAYNAME
  1
Imperial24
102
FLAGS
 90
        0
  0
CELLSTYLEMAP
  5
1DE
102
{ACAD_REACTORS
330
1DD
102
}
330
1DD
100
AcDbCellStyleMap
 90
        3
300
CELLSTYLE
  1
TABLEFORMAT_BEGIN
 90
        5
170
     1
 91
        0
 92
    32768
 62
   257
 93
        1
300
CONTENTFORMAT
  1
CONTENTFORMAT_BEGIN
 90
        0
 91
        0
 92
      512
 93
        0
300

 40
0.0
140
1.0
 94
        5
 62
     0
340
55
144
0.25
309
CONTENTFORMAT_END
171
     0
 94
        0
309
TABLEFORMAT_END
  1
CELLSTYLE_BEGIN
 90
        1
 91
        1
300
_TITLE
309
CELLSTYLE_END
300
CELLSTYLE
  1
TABLEFORMAT_BEGIN
 90
        5
170
     1
 91
        0
 92
        0
 62
   257
 93
        1
300
CONTENTFORMAT
  1
CONTENTFORMAT_BEGIN
 90
        0
 91
        0
 92
      512
 93
        0
300

 40
0.0
140
1.0
 94
        5
 62
     0
340
55
144
0.18
309
CONTENTFORMAT_END
171
     0
 94
        0
309
TABLEFORMAT_END
  1
CELLSTYLE_BEGIN
 90
        2
 91
        1
300
_HEADER
309
CELLSTYLE_END
300
CELLSTYLE
  1
TABLEFORMAT_BEGIN
 90
        5
170
     1
 91
        0
 92
        0
 62
   257
 93
        1
300
CONTENTFORMAT
  1
CONTENTFORMAT_BEGIN
 90
        0
 91
        0
 92
      512
 93
        0
300

 40
0.0
140
1.0
 94
        2
 62
     0
340
55
144
0.18
309
CONTENTFORMAT_END
171
     0
 94
        0
309
TABLEFORMAT_END
  1
CELLSTYLE_BEGIN
 90
        3
 91
        2
300
_DATA
309
CELLSTYLE_END
  0
ENDSEC
  0
EOF
