  0
SECTION
  2
HEADER
  9
$ACADVER
  1
AC1027
  9
$ACADMAINTVER
 70
   125
  9
$DWGCODEPAGE
  3
ANSI_1252
  9
$LASTSAVEDBY
  1
ufficio.tecnico
  9
$REQUIREDVERSIONS
160
                 0
  9
$INSBASE
 10
0.0
 20
0.0
 30
0.0
  9
$EXTMIN
 10
6.034618732215303
 20
-16.12077975252943
 30
0.0
  9
$EXTMAX
 10
15.00583389930477
 20
-14.07369048828701
 30
0.0
  9
$LIMMIN
 10
0.0
 20
0.0
  9
$LIMMAX
 10
12.0
 20
9.0
  9
$ORTHOMODE
 70
     1
  9
$REGENMODE
 70
     1
  9
$FILLMODE
 70
     1
  9
$QTEXTMODE
 70
     0
  9
$MIRRTEXT
 70
     0
  9
$LTSCALE
 40
1.0
  9
$ATTMODE
 70
     1
  9
$TEXTSIZE
 40
0.2
  9
$TRACEWID
 40
0.05
  9
$TEXTSTYLE
  7
Standard
  9
$CLAYER
  8
0
  9
$CELTYPE
  6
ByLayer
  9
$CECOLOR
 62
   256
  9
$CELTSCALE
 40
1.0
  9
$DISPSILH
 70
     0
  9
$DIMSCALE
 40
1.0
  9
$DIMASZ
 40
0.18
  9
$DIMEXO
 40
0.0625
  9
$DIMDLI
 40
0.38
  9
$DIMRND
 40
0.0
  9
$DIMDLE
 40
0.0
  9
$DIMEXE
 40
0.18
  9
$DIMTP
 40
0.0
  9
$DIMTM
 40
0.0
  9
$DIMTXT
 40
0.18
  9
$DIMCEN
 40
0.09
  9
$DIMTSZ
 40
0.0
  9
$DIMTOL
 70
     0
  9
$DIMLIM
 70
     0
  9
$DIMTIH
 70
     1
  9
$DIMTOH
 70
     1
  9
$DIMSE1
 70
     0
  9
$DIMSE2
 70
     0
  9
$DIMTAD
 70
     0
  9
$DIMZIN
 70
     0
  9
$DIMBLK
  1

  9
$DIMASO
 70
     1
  9
$DIMSHO
 70
     1
  9
$DIMPOST
  1

  9
$DIMAPOST
  1

  9
$DIMALT
 70
     0
  9
$DIMALTD
 70
     2
  9
$DIMALTF
 40
25.4
  9
$DIMLFAC
 40
1.0
  9
$DIMTOFL
 70
     0
  9
$DIMTVP
 40
0.0
  9
$DIMTIX
 70
     0
  9
$DIMSOXD
 70
     0
  9
$DIMSAH
 70
     0
  9
$DIMBLK1
  1

  9
$DIMBLK2
  1

  9
$DIMSTYLE
  2
Standard
  9
$DIMCLRD
 70
     0
  9
$DIMCLRE
 70
     0
  9
$DIMCLRT
 70
     0
  9
$DIMTFAC
 40
1.0
  9
$DIMGAP
 40
0.09
  9
$DIMJUST
 70
     0
  9
$DIMSD1
 70
     0
  9
$DIMSD2
 70
     0
  9
$DIMTOLJ
 70
     1
  9
$DIMTZIN
 70
     0
  9
$DIMALTZ
 70
     0
  9
$DIMALTTZ
 70
     0
  9
$DIMUPT
 70
     0
  9
$DIMDEC
 70
     4
  9
$DIMTDEC
 70
     4
  9
$DIMALTU
 70
     2
  9
$DIMALTTD
 70
     2
  9
$DIMTXSTY
  7
Standard
  9
$DIMAUNIT
 70
     0
  9
$DIMADEC
 70
     0
  9
$DIMALTRND
 40
0.0
  9
$DIMAZIN
 70
     0
  9
$DIMDSEP
 70
    46
  9
$DIMATFIT
 70
     3
  9
$DIMFRAC
 70
     0
  9
$DIMLDRBLK
  1

  9
$DIMLUNIT
 70
     2
  9
$DIMLWD
 70
    -2
  9
$DIMLWE
 70
    -2
  9
$DIMTMOVE
 70
     0
  9
$DIMFXL
 40
1.0
  9
$DIMFXLON
 70
     0
  9
$DIMJOGANG
 40
0.7853981633974483
  9
$DIMTFILL
 70
     0
  9
$DIMTFILLCLR
 70
     0
  9
$DIMARCSYM
 70
     0
  9
$DIMLTYPE
  6

  9
$DIMLTEX1
  6

  9
$DIMLTEX2
  6

  9
$DIMTXTDIRECTION
 70
     0
  9
$LUNITS
 70
     2
  9
$LUPREC
 70
     4
  9
$SKETCHINC
 40
0.1
  9
$FILLETRAD
 40
0.0
  9
$AUNITS
 70
     0
  9
$AUPREC
 70
     0
  9
$MENU
  1
.
  9
$ELEVATION
 40
0.0
  9
$PELEVATION
 40
0.0
  9
$THICKNESS
 40
0.0
  9
$LIMCHECK
 70
     0
  9
$CHAMFERA
 40
0.0
  9
$CHAMFERB
 40
0.0
  9
$CHAMFERC
 40
0.0
  9
$CHAMFERD
 40
0.0
  9
$SKPOLY
 70
     0
  9
$TDCREATE
 40
2459858.678101852
  9
$TDUCREATE
 40
2459858.594768518
  9
$TDUPDATE
 40
2459864.602372685
  9
$TDUUPDATE
 40
2459864.519039352
  9
$TDINDWG
 40
0.0013425926
  9
$TDUSRTIMER
 40
0.0013425926
  9
$USRTIMER
 70
     1
  9
$ANGBASE
 50
0.0
  9
$ANGDIR
 70
     0
  9
$PDMODE
 70
     0
  9
$PDSIZE
 40
0.0
  9
$PLINEWID
 40
0.0
  9
$SPLFRAME
 70
     0
  9
$SPLINETYPE
 70
     6
  9
$SPLINESEGS
 70
     8
  9
$HANDSEED
  5
1C0
  9
$SURFTAB1
 70
     6
  9
$SURFTAB2
 70
     6
  9
$SURFTYPE
 70
     6
  9
$SURFU
 70
     6
  9
$SURFV
 70
     6
  9
$UCSBASE
  2

  9
$UCSNAME
  2

  9
$UCSORG
 10
0.0
 20
0.0
 30
0.0
  9
$UCSXDIR
 10
1.0
 20
0.0
 30
0.0
  9
$UCSYDIR
 10
0.0
 20
1.0
 30
0.0
  9
$UCSORTHOREF
  2

  9
$UCSORTHOVIEW
 70
     0
  9
$UCSORGTOP
 10
0.0
 20
0.0
 30
0.0
  9
$UCSORGBOTTOM
 10
0.0
 20
0.0
 30
0.0
  9
$UCSORGLEFT
 10
0.0
 20
0.0
 30
0.0
  9
$UCSORGRIGHT
 10
0.0
 20
0.0
 30
0.0
  9
$UCSORGFRONT
 10
0.0
 20
0.0
 30
0.0
  9
$UCSORGBACK
 10
0.0
 20
0.0
 30
0.0
  9
$PUCSBASE
  2

  9
$PUCSNAME
  2

  9
$PUCSORG
 10
0.0
 20
0.0
 30
0.0
  9
$PUCSXDIR
 10
1.0
 20
0.0
 30
0.0
  9
$PUCSYDIR
 10
0.0
 20
1.0
 30
0.0
  9
$PUCSORTHOREF
  2

  9
$PUCSORTHOVIEW
 70
     0
  9
$PUCSORGTOP
 10
0.0
 20
0.0
 30
0.0
  9
$PUCSORGBOTTOM
 10
0.0
 20
0.0
 30
0.0
  9
$PUCSORGLEFT
 10
0.0
 20
0.0
 30
0.0
  9
$PUCSORGRIGHT
 10
0.0
 20
0.0
 30
0.0
  9
$PUCSORGFRONT
 10
0.0
 20
0.0
 30
0.0
  9
$PUCSORGBACK
 10
0.0
 20
0.0
 30
0.0
  9
$USERI1
 70
     0
  9
$USERI2
 70
     0
  9
$USERI3
 70
     0
  9
$USERI4
 70
     0
  9
$USERI5
 70
     0
  9
$USERR1
 40
0.0
  9
$USERR2
 40
0.0
  9
$USERR3
 40
0.0
  9
$USERR4
 40
0.0
  9
$USERR5
 40
0.0
  9
$WORLDVIEW
 70
     1
  9
$SHADEDGE
 70
     3
  9
$SHADEDIF
 70
    70
  9
$TILEMODE
 70
     1
  9
$MAXACTVP
 70
    64
  9
$PINSBASE
 10
0.0
 20
0.0
 30
0.0
  9
$PLIMCHECK
 70
     0
  9
$PEXTMIN
 10
1.000000000000000E+20
 20
1.000000000000000E+20
 30
1.000000000000000E+20
  9
$PEXTMAX
 10
-1.000000000000000E+20
 20
-1.000000000000000E+20
 30
-1.000000000000000E+20
  9
$PLIMMIN
 10
0.0
 20
0.0
  9
$PLIMMAX
 10
12.0
 20
9.0
  9
$UNITMODE
 70
     0
  9
$VISRETAIN
 70
     1
  9
$PLINEGEN
 70
     0
  9
$PSLTSCALE
 70
     1
  9
$TREEDEPTH
 70
  3020
  9
$CMLSTYLE
  2
Standard
  9
$CMLJUST
 70
     0
  9
$CMLSCALE
 40
1.0
  9
$PROXYGRAPHICS
 70
     1
  9
$MEASUREMENT
 70
     0
  9
$CELWEIGHT
370
    -1
  9
$ENDCAPS
280
     0
  9
$JOINSTYLE
280
     0
  9
$LWDISPLAY
290
     1
  9
$INSUNITS
 70
     5
  9
$HYPERLINKBASE
  1

  9
$STYLESHEET
  1

  9
$XEDIT
290
     1
  9
$CEPSNTYPE
380
     0
  9
$PSTYLEMODE
290
     1
  9
$FINGERPRINTGUID
  2
{BC706171-D008-1D4A-8F5B-43CB0750D9A5}
  9
$VERSIONGUID
  2
{C75C9B68-DCE1-6047-8A79-B1FCD77E1B25}
  9
$EXTNAMES
290
     1
  9
$PSVPSCALE
 40
0.0
  9
$OLESTARTUP
290
     0
  9
$SORTENTS
280
   127
  9
$INDEXCTL
280
     0
  9
$HIDETEXT
280
     1
  9
$XCLIPFRAME
280
     2
  9
$HALOGAP
280
     0
  9
$OBSCOLOR
 70
   257
  9
$OBSLTYPE
280
     0
  9
$INTERSECTIONDISPLAY
280
     0
  9
$INTERSECTIONCOLOR
 70
   257
  9
$DIMASSOC
280
     2
  9
$PROJECTNAME
  1

  9
$CAMERADISPLAY
290
     0
  9
$LENSLENGTH
 40
50.0
  9
$CAMERAHEIGHT
 40
0.0
  9
$STEPSPERSEC
 40
2.0
  9
$STEPSIZE
 40
6.0
  9
$3DDWFPREC
 40
2.0
  9
$PSOLWIDTH
 40
0.25
  9
$PSOLHEIGHT
 40
4.0
  9
$LOFTANG1
 40
1.570796326794896
  9
$LOFTANG2
 40
1.570796326794896
  9
$LOFTMAG1
 40
0.0
  9
$LOFTMAG2
 40
0.0
  9
$LOFTPARAM
 70
     7
  9
$LOFTNORMALS
280
     1
  9
$LATITUDE
 40
37.795
  9
$LONGITUDE
 40
-122.394
  9
$NORTHDIRECTION
 40
0.0
  9
$TIMEZONE
 70
 -8000
  9
$LIGHTGLYPHDISPLAY
280
     1
  9
$TILEMODELIGHTSYNCH
280
     1
  9
$CMATERIAL
347
11
  9
$SOLIDHIST
280
     0
  9
$SHOWHIST
280
     1
  9
$DWFFRAME
280
     2
  9
$DGNFRAME
280
     0
  9
$REALWORLDSCALE
290
     1
  9
$INTERFERECOLOR
 62
     1
  9
$INTERFEREOBJVS
345
33
  9
$INTERFEREVPVS
346
30
  9
$CSHADOW
280
     0
  9
$SHADOWPLANELOCATION
 40
0.0
  0
ENDSEC
  0
SECTION
  2
CLASSES
  0
CLASS
  1
ACDBDICTIONARYWDFLT
  2
AcDbDictionaryWithDefault
  3
ObjectDBX Classes
 90
        0
 91
        1
280
     0
281
     0
  0
CLASS
  1
MATERIAL
  2
AcDbMaterial
  3
ObjectDBX Classes
 90
     1153
 91
        3
280
     0
281
     0
  0
CLASS
  1
VISUALSTYLE
  2
AcDbVisualStyle
  3
ObjectDBX Classes
 90
     4095
 91
       24
280
     0
281
     0
  0
CLASS
  1
SCALE
  2
AcDbScale
  3
ObjectDBX Classes
 90
     1153
 91
       17
280
     0
281
     0
  0
CLASS
  1
TABLESTYLE
  2
AcDbTableStyle
  3
ObjectDBX Classes
 90
     4095
 91
        1
280
     0
281
     0
  0
CLASS
  1
MLEADERSTYLE
  2
AcDbMLeaderStyle
  3
ACDB_MLEADERSTYLE_CLASS
 90
     4095
 91
        1
280
     0
281
     0
  0
CLASS
  1
ACDBSECTIONVIEWSTYLE
  2
AcDbSectionViewStyle
  3
ObjectDBX Classes
 90
     1025
 91
        1
280
     0
281
     0
  0
CLASS
  1
ACDBDETAILVIEWSTYLE
  2
AcDbDetailViewStyle
  3
ObjectDBX Classes
 90
     1025
 91
        1
280
     0
281
     0
  0
CLASS
  1
DICTIONARYVAR
  2
AcDbDictionaryVar
  3
ObjectDBX Classes
 90
        0
 91
        5
280
     0
281
     0
  0
CLASS
  1
SORTENTSTABLE
  2
AcDbSortentsTable
  3
ObjectDBX Classes
 90
        0
 91
        3
280
     0
281
     0
  0
CLASS
  1
CELLSTYLEMAP
  2
AcDbCellStyleMap
  3
ObjectDBX Classes
 90
     1152
 91
        2
280
     0
281
     0
  0
ENDSEC
  0
SECTION
  2
TABLES
  0
TABLE
  2
VPORT
  5
8
330
0
100
AcDbSymbolTable
 70
     1
1001
ACAD
1000
DbSaveVer
1071
      249
  0
VPORT
  5
57
330
8
100
AcDbSymbolTableRecord
100
AcDbViewportTableRecord
  2
*Active
 70
     0
 10
0.0
 20
0.0
 11
1.0
 21
1.0
 12
0.2348424479813786
 22
-1.827819781230784
 13
0.0
 23
0.0
 14
1.0
 24
1.0
 15
0.0
 25
0.0
 16
0.0
 26
0.0
 36
1.0
 17
10.50000721959722
 27
-14.85000416295415
 37
0.0
 40
12.05014959024464
 41
1.855329949238578
 42
50.0
 43
0.0
 44
0.0
 50
0.0
 51
0.0
 71
     0
 72
   100
 73
     1
 74
     1
 75
     0
 76
     0
 77
     0
 78
     0
281
     0
 65
     1
110
0.0
120
0.0
130
0.0
111
1.0
121
0.0
131
0.0
112
0.0
122
1.0
132
0.0
 79
     0
146
0.0
348
2F
 60
     3
 61
     5
292
     1
282
     1
141
0.0
142
0.0
 63
   250
421
  3355443
1001
ACAD_NAV_VCDISPLAY
1070
     3
  0
ENDTAB
  0
TABLE
  2
LTYPE
  5
5
330
0
100
AcDbSymbolTable
 70
     3
  0
LTYPE
  5
5B
330
5
100
AcDbSymbolTableRecord
100
AcDbLinetypeTableRecord
  2
ByBlock
 70
     0
  3

 72
    65
 73
     0
 40
0.0
  0
LTYPE
  5
5C
330
5
100
AcDbSymbolTableRecord
100
AcDbLinetypeTableRecord
  2
ByLayer
 70
     0
  3

 72
    65
 73
     0
 40
0.0
  0
LTYPE
  5
5D
330
5
100
AcDbSymbolTableRecord
100
AcDbLinetypeTableRecord
  2
Continuous
 70
     0
  3
Solid line
 72
    65
 73
     0
 40
0.0
  0
ENDTAB
  0
TABLE
  2
LAYER
  5
2
330
0
100
AcDbSymbolTable
 70
     2
  0
LAYER
  5
54
330
2
100
AcDbSymbolTableRecord
100
AcDbLayerTableRecord
  2
0
 70
     0
 62
     7
  6
Continuous
370
    -3
390
F
347
21
348
0
  0
LAYER
  5
78
330
2
100
AcDbSymbolTableRecord
100
AcDbLayerTableRecord
  2
Livello 1
 70
     0
 62
     7
  6
Continuous
370
     0
390
F
347
21
348
0
  0
ENDTAB
  0
TABLE
  2
STYLE
  5
3
330
0
100
AcDbSymbolTable
 70
     2
  0
STYLE
  5
55
330
3
100
AcDbSymbolTableRecord
100
AcDbTextStyleTableRecord
  2
Standard
 70
     0
 40
0.0
 41
1.0
 50
0.0
 71
     0
 42
0.2
  3
txt
  4

  0
STYLE
  5
5A
330
3
100
AcDbSymbolTableRecord
100
AcDbTextStyleTableRecord
  2
Annotative
 70
     0
 40
0.0
 41
1.0
 50
0.0
 71
     0
 42
0.2
  3
txt
  4

1001
AcadAnnotative
1000
AnnotativeData
1002
{
1070
     1
1070
     1
1002
}
  0
ENDTAB
  0
TABLE
  2
VIEW
  5
6
330
0
100
AcDbSymbolTable
 70
     0
  0
ENDTAB
  0
TABLE
  2
UCS
  5
7
330
0
100
AcDbSymbolTable
 70
     0
  0
ENDTAB
  0
TABLE
  2
APPID
  5
9
330
0
100
AcDbSymbolTable
 70
     4
  0
APPID
  5
56
330
9
100
AcDbSymbolTableRecord
100
AcDbRegAppTableRecord
  2
ACAD
 70
     0
  0
APPID
  5
5E
330
9
100
AcDbSymbolTableRecord
100
AcDbRegAppTableRecord
  2
AcadAnnotative
 70
     0
  0
APPID
  5
195
330
9
100
AcDbSymbolTableRecord
100
AcDbRegAppTableRecord
  2
ACAD_EXEMPT_FROM_CAD_STANDARDS
 70
     0
  0
APPID
  5
1A1
330
9
100
AcDbSymbolTableRecord
100
AcDbRegAppTableRecord
  2
ACAD_NAV_VCDISPLAY
 70
     0
  0
ENDTAB
  0
TABLE
  2
DIMSTYLE
  5
A
330
0
100
AcDbSymbolTable
 70
     3
100
AcDbDimStyleTable
 71
     1
340
58
  0
DIMSTYLE
105
58
330
A
100
AcDbSymbolTableRecord
100
AcDbDimStyleTableRecord
  2
Standard
 70
     0
340
55
  0
DIMSTYLE
105
59
330
A
100
AcDbSymbolTableRecord
100
AcDbDimStyleTableRecord
  2
Annotative
 70
     0
340
55
1001
AcadAnnotative
1000
AnnotativeData
1002
{
1070
     1
1070
     1
1002
}
  0
ENDTAB
  0
TABLE
  2
BLOCK_RECORD
  5
1
330
0
100
AcDbSymbolTable
 70
    18
  0
BLOCK_RECORD
  5
70
102
{ACAD_XDICTIONARY
360
184
102
}
330
1
100
AcDbSymbolTableRecord
100
AcDbBlockTableRecord
  2
*Model_Space
340
73
 70
     0
280
     1
281
     0
  0
BLOCK_RECORD
  5
6C
330
1
100
AcDbSymbolTableRecord
100
AcDbBlockTableRecord
  2
*Paper_Space
340
6F
 70
     0
280
     1
281
     0
  0
BLOCK_RECORD
  5
74
330
1
100
AcDbSymbolTableRecord
100
AcDbBlockTableRecord
  2
*Paper_Space0
340
77
 70
     0
280
     1
281
     0
  0
BLOCK_RECORD
  5
79
330
1
100
AcDbSymbolTableRecord
100
AcDbBlockTableRecord
  2
Block_0
340
0
 70
     0
280
     1
281
     0
  0
BLOCK_RECORD
  5
7D
330
1
100
AcDbSymbolTableRecord
100
AcDbBlockTableRecord
  2
Block_1
340
0
102
{BLKREFS
331
7E
102
}
 70
     0
280
     1
281
     0
  0
BLOCK_RECORD
  5
8D
330
1
100
AcDbSymbolTableRecord
100
AcDbBlockTableRecord
  2
Block_2
340
0
 70
     0
280
     1
281
     0
  0
BLOCK_RECORD
  5
94
330
1
100
AcDbSymbolTableRecord
100
AcDbBlockTableRecord
  2
Block_3
340
0
 70
     0
280
     1
281
     0
  0
BLOCK_RECORD
  5
9B
330
1
100
AcDbSymbolTableRecord
100
AcDbBlockTableRecord
  2
Block_4
340
0
 70
     0
280
     1
281
     0
  0
BLOCK_RECORD
  5
9F
330
1
100
AcDbSymbolTableRecord
100
AcDbBlockTableRecord
  2
Block_5
340
0
102
{BLKREFS
331
A0
102
}
 70
     0
280
     1
281
     0
  0
BLOCK_RECORD
  5
A3
330
1
100
AcDbSymbolTableRecord
100
AcDbBlockTableRecord
  2
Block_6
340
0
102
{BLKREFS
331
A4
102
}
 70
     0
280
     1
281
     0
  0
BLOCK_RECORD
  5
AC
330
1
100
AcDbSymbolTableRecord
100
AcDbBlockTableRecord
  2
Block_7
340
0
102
{BLKREFS
331
AD
102
}
 70
     0
280
     1
281
     0
  0
BLOCK_RECORD
  5
B3
330
1
100
AcDbSymbolTableRecord
100
AcDbBlockTableRecord
  2
Block_8
340
0
102
{BLKREFS
331
B4
102
}
 70
     0
280
     1
281
     0
  0
BLOCK_RECORD
  5
BA
330
1
100
AcDbSymbolTableRecord
100
AcDbBlockTableRecord
  2
Block_9
340
0
 70
     0
280
     1
281
     0
  0
BLOCK_RECORD
  5
BE
330
1
100
AcDbSymbolTableRecord
100
AcDbBlockTableRecord
  2
Block_10
340
0
102
{BLKREFS
331
BF
102
}
 70
     0
280
     1
281
     0
  0
BLOCK_RECORD
  5
C2
330
1
100
AcDbSymbolTableRecord
100
AcDbBlockTableRecord
  2
Block_11
340
0
102
{BLKREFS
331
C3
102
}
 70
     0
280
     1
281
     0
  0
BLOCK_RECORD
  5
CB
330
1
100
AcDbSymbolTableRecord
100
AcDbBlockTableRecord
  2
Block_12
340
0
102
{BLKREFS
331
CC
102
}
 70
     0
280
     1
281
     0
  0
BLOCK_RECORD
  5
D2
330
1
100
AcDbSymbolTableRecord
100
AcDbBlockTableRecord
  2
Block_13
340
0
102
{BLKREFS
331
D3
102
}
 70
     0
280
     1
281
     0
  0
ENDTAB
  0
ENDSEC
  0
SECTION
  2
BLOCKS
  0
BLOCK
  5
71
330
70
100
AcDbEntity
  8
0
100
AcDbBlockBegin
  2
*Model_Space
 70
     0
 10
0.0
 20
0.0
 30
0.0
  3
*Model_Space
  1

  0
ENDBLK
  5
72
330
70
100
AcDbEntity
  8
0
100
AcDbBlockEnd
  0
BLOCK
  5
6D
330
6C
100
AcDbEntity
 67
     1
  8
0
100
AcDbBlockBegin
  2
*Paper_Space
 70
     0
 10
0.0
 20
0.0
 30
0.0
  3
*Paper_Space
  1

  0
ENDBLK
  5
6E
330
6C
100
AcDbEntity
 67
     1
  8
0
100
AcDbBlockEnd
  0
BLOCK
  5
75
330
74
100
AcDbEntity
 67
     1
  8
0
100
AcDbBlockBegin
  2
*Paper_Space0
 70
     0
 10
0.0
 20
0.0
 30
0.0
  3
*Paper_Space0
  1

  0
ENDBLK
  5
76
330
74
100
AcDbEntity
 67
     1
  8
0
100
AcDbBlockEnd
  0
BLOCK
  5
7B
330
79
100
AcDbEntity
  8
0
100
AcDbBlockBegin
  2
Block_0
 70
     0
 10
0.0
 20
0.0
 30
0.0
  3
Block_0
  1

  0
INSERT
  5
7E
330
79
100
AcDbEntity
  8
Livello 1
100
AcDbBlockReference
  2
Block_1
 10
0.0
 20
0.0
 30
0.0
  0
ENDBLK
  5
7C
330
79
100
AcDbEntity
  8
0
100
AcDbBlockEnd
  0
BLOCK
  5
7F
330
7D
100
AcDbEntity
  8
0
100
AcDbBlockBegin
  2
Block_1
 70
     0
 10
0.0
 20
0.0
 30
0.0
  3
Block_1
  1

  0
SPLINE
  5
81
330
7D
100
AcDbEntity
  8
Livello 1
100
AcDbSpline
210
0.0
220
0.0
230
1.0
 70
     9
 71
     3
 72
    17
 73
    13
 74
     0
 42
0.000000001
 43
0.0000000001
 40
0.0
 40
0.0
 40
0.0
 40
0.0
 40
1.0
 40
1.0
 40
1.0
 40
2.0
 40
2.0
 40
2.0
 40
3.0
 40
3.0
 40
3.0
 40
4.0
 40
4.0
 40
4.0
 40
4.0
 10
10.21004000938325
 20
-15.5509887656435
 30
0.0
 10
10.21682684748919
 20
-15.55946370053721
 30
0.0
 10
10.22724826133207
 20
-15.56528591190729
 30
0.0
 10
10.24080471206653
 20
-15.56528591190729
 30
0.0
 10
10.27012247464601
 20
-15.56528591190729
 30
0.0
 10
10.28466077759376
 20
-15.53865532380631
 30
0.0
 10
10.28466077759376
 20
-15.51199028475047
 30
0.0
 10
10.28466077759376
 20
-15.50038031296518
 30
0.0
 10
10.28199082859269
 20
-15.488977046909
 30
0.0
 10
10.27616861722262
 20
-15.47953748527942
 30
0.0
 10
10.27616861722262
 20
-15.47953748527942
 30
0.0
 10
10.21004000938325
 20
-15.5509887656435
 30
0.0
 10
10.21004000938325
 20
-15.5509887656435
 30
0.0
  0
SPLINE
  5
82
330
7D
100
AcDbEntity
  8
Livello 1
100
AcDbSpline
210
0.0
220
0.0
230
1.0
 70
     9
 71
     3
 72
    17
 73
    13
 74
     0
 42
0.000000001
 43
0.0000000001
 40
0.0
 40
0.0
 40
0.0
 40
0.0
 40
1.0
 40
1.0
 40
1.0
 40
2.0
 40
2.0
 40
2.0
 40
3.0
 40
3.0
 40
3.0
 40
4.0
 40
4.0
 40
4.0
 40
4.0
 10
10.27181057143378
 20
-15.47323296054141
 30
0.0
 10
10.2647998021213
 20
-15.46451686896373
 30
0.0
 10
10.25437838827842
 20
-15.45869465759366
 30
0.0
 10
10.24080471206653
 20
-15.45869465759366
 30
0.0
 10
10.21150417496448
 20
-15.45869465759366
 30
0.0
 10
10.19696587201673
 20
-15.48535969664949
 30
0.0
 10
10.19696587201673
 20
-15.51199028475047
 30
0.0
 10
10.19696587201673
 20
-15.52363470749062
 30
0.0
 10
10.1996358210178
 20
-15.53500352259194
 30
0.0
 10
10.20568196359441
 20
-15.54468424090549
 30
0.0
 10
10.20568196359441
 20
-15.54468424090549
 30
0.0
 10
10.27181057143378
 20
-15.47323296054141
 30
0.0
 10
10.27181057143378
 20
-15.47323296054141
 30
0.0
  0
SPLINE
  5
83
330
7D
100
AcDbEntity
  8
Livello 1
100
AcDbSpline
210
0.0
220
0.0
230
1.0
 70
    11
 71
     3
 72
    41
 73
    37
 74
     0
 42
0.000000001
 43
0.0000000001
 40
0.0
 40
0.0
 40
0.0
 40
0.0
 40
1.0
 40
1.0
 40
1.0
 40
2.0
 40
2.0
 40
2.0
 40
3.0
 40
3.0
 40
3.0
 40
4.0
 40
4.0
 40
4.0
 40
5.0
 40
5.0
 40
5.0
 40
6.0
 40
6.0
 40
6.0
 40
7.0
 40
7.0
 40
7.0
 40
8.0
 40
8.0
 40
8.0
 40
9.0
 40
9.0
 40
9.0
 40
10.0
 40
10.0
 40
10.0
 40
11.0
 40
11.0
 40
11.0
 40
12.0
 40
12.0
 40
12.0
 40
12.0
 10
10.29992255059342
 20
-15.45363036723034
 30
0.0
 10
10.29992255059342
 20
-15.45363036723034
 30
0.0
 10
10.28683118774947
 20
-15.46789306253927
 30
0.0
 10
10.28683118774947
 20
-15.46789306253927
 30
0.0
 10
10.29556450480458
 20
-15.48001979864735
 30
0.0
 10
10.29992255059342
 20
-15.49552272833098
 30
0.0
 10
10.29992255059342
 20
-15.51199028475047
 30
0.0
 10
10.29992255059342
 20
-15.54785372875192
 30
0.0
 10
10.27907972290766
 20
-15.57813611806727
 30
0.0
 10
10.24080471206653
 20
-15.57813611806727
 30
0.0
 10
10.22361368559514
 20
-15.57813611806727
 30
0.0
 10
10.20979885269928
 20
-15.57207275001323
 30
0.0
 10
10.20011813438573
 20
-15.56166856164777
 30
0.0
 10
10.20011813438573
 20
-15.56166856164777
 30
0.0
 10
10.18582098812194
 20
-15.5771714913314
 30
0.0
 10
10.18582098812194
 20
-15.5771714913314
 30
0.0
 10
10.18582098812194
 20
-15.5771714913314
 30
0.0
 10
10.18049831559723
 20
-15.5723139066972
 30
0.0
 10
10.18049831559723
 20
-15.5723139066972
 30
0.0
 10
10.18049831559723
 20
-15.5723139066972
 30
0.0
 10
10.19527777522895
 20
-15.55608750696167
 30
0.0
 10
10.19527777522895
 20
-15.55608750696167
 30
0.0
 10
10.18630330148988
 20
-15.54444308422153
 30
0.0
 10
10.18170409901707
 20
-15.52869899785393
 30
0.0
 10
10.18170409901707
 20
-15.51199028475047
 30
0.0
 10
10.18170409901707
 20
-15.47616129170387
 30
0.0
 10
10.20254692670283
 20
-15.44587890238853
 30
0.0
 10
10.24080471206653
 20
-15.44587890238853
 30
0.0
 10
10.25825412069932
 20
-15.44587890238853
 30
0.0
 10
10.27231011027914
 20
-15.45214897617168
 30
0.0
 10
10.28199082859269
 20
-15.46234645880802
 30
0.0
 10
10.28199082859269
 20
-15.46234645880802
 30
0.0
 10
10.29458265259128
 20
-15.44877278259614
 30
0.0
 10
10.29458265259128
 20
-15.44877278259614
 30
0.0
 10
10.29458265259128
 20
-15.44877278259614
 30
0.0
 10
10.29992255059342
 20
-15.45363036723034
 30
0.0
 10
10.29992255059342
 20
-15.45363036723034
 30
0.0
  0
HATCH
  5
84
330
7D
100
AcDbEntity
  8
Livello 1
 62
    18
420
        0
440
 33554687
100
AcDbHatch
 10
0.0
 20
0.0
 30
0.0
210
0.0
220
0.0
230
1.0
  2
SOLID
 70
     1
 71
     1
 91
        3
 92
        1
 93
        1
 72
     4
 94
        3
 73
     0
 74
     0
 95
       17
 96
       13
 40
0.0
 40
0.0
 40
0.0
 40
0.0
 40
1.0
 40
1.0
 40
1.0
 40
2.0
 40
2.0
 40
2.0
 40
3.0
 40
3.0
 40
3.0
 40
4.0
 40
4.0
 40
4.0
 40
4.0
 10
10.21004000938325
 20
-15.5509887656435
 10
10.21682684748919
 20
-15.55946370053721
 10
10.22724826133207
 20
-15.56528591190729
 10
10.24080471206653
 20
-15.56528591190729
 10
10.27012247464601
 20
-15.56528591190729
 10
10.28466077759376
 20
-15.53865532380631
 10
10.28466077759376
 20
-15.51199028475047
 10
10.28466077759376
 20
-15.50038031296518
 10
10.28199082859269
 20
-15.488977046909
 10
10.27616861722262
 20
-15.47953748527942
 10
10.27616861722262
 20
-15.47953748527942
 10
10.21004000938325
 20
-15.5509887656435
 10
10.21004000938325
 20
-15.5509887656435
 97
        0
 97
        1
330
81
 92
        1
 93
        1
 72
     4
 94
        3
 73
     0
 74
     0
 95
       17
 96
       13
 40
0.0
 40
0.0
 40
0.0
 40
0.0
 40
1.0
 40
1.0
 40
1.0
 40
2.0
 40
2.0
 40
2.0
 40
3.0
 40
3.0
 40
3.0
 40
4.0
 40
4.0
 40
4.0
 40
4.0
 10
10.27181057143378
 20
-15.47323296054141
 10
10.2647998021213
 20
-15.46451686896373
 10
10.25437838827842
 20
-15.45869465759366
 10
10.24080471206653
 20
-15.45869465759366
 10
10.21150417496448
 20
-15.45869465759366
 10
10.19696587201673
 20
-15.48535969664949
 10
10.19696587201673
 20
-15.51199028475047
 10
10.19696587201673
 20
-15.52363470749062
 10
10.1996358210178
 20
-15.53500352259194
 10
10.20568196359441
 20
-15.54468424090549
 10
10.20568196359441
 20
-15.54468424090549
 10
10.27181057143378
 20
-15.47323296054141
 10
10.27181057143378
 20
-15.47323296054141
 97
        0
 97
        1
330
82
 92
        1
 93
        1
 72
     4
 94
        3
 73
     0
 74
     0
 95
       41
 96
       37
 40
0.0
 40
0.0
 40
0.0
 40
0.0
 40
1.0
 40
1.0
 40
1.0
 40
2.0
 40
2.0
 40
2.0
 40
3.0
 40
3.0
 40
3.0
 40
4.0
 40
4.0
 40
4.0
 40
5.0
 40
5.0
 40
5.0
 40
6.0
 40
6.0
 40
6.0
 40
7.0
 40
7.0
 40
7.0
 40
8.0
 40
8.0
 40
8.0
 40
9.0
 40
9.0
 40
9.0
 40
10.0
 40
10.0
 40
10.0
 40
11.0
 40
11.0
 40
11.0
 40
12.0
 40
12.0
 40
12.0
 40
12.0
 10
10.29992255059342
 20
-15.45363036723034
 10
10.29992255059342
 20
-15.45363036723034
 10
10.28683118774947
 20
-15.46789306253927
 10
10.28683118774947
 20
-15.46789306253927
 10
10.29556450480458
 20
-15.48001979864735
 10
10.29992255059342
 20
-15.49552272833098
 10
10.29992255059342
 20
-15.51199028475047
 10
10.29992255059342
 20
-15.54785372875192
 10
10.27907972290766
 20
-15.57813611806727
 10
10.24080471206653
 20
-15.57813611806727
 10
10.22361368559514
 20
-15.57813611806727
 10
10.20979885269928
 20
-15.57207275001323
 10
10.20011813438573
 20
-15.56166856164777
 10
10.20011813438573
 20
-15.56166856164777
 10
10.18582098812194
 20
-15.5771714913314
 10
10.18582098812194
 20
-15.5771714913314
 10
10.18582098812194
 20
-15.5771714913314
 10
10.18049831559723
 20
-15.5723139066972
 10
10.18049831559723
 20
-15.5723139066972
 10
10.18049831559723
 20
-15.5723139066972
 10
10.19527777522895
 20
-15.55608750696167
 10
10.19527777522895
 20
-15.55608750696167
 10
10.18630330148988
 20
-15.54444308422153
 10
10.18170409901707
 20
-15.52869899785393
 10
10.18170409901707
 20
-15.51199028475047
 10
10.18170409901707
 20
-15.47616129170387
 10
10.20254692670283
 20
-15.44587890238853
 10
10.24080471206653
 20
-15.44587890238853
 10
10.25825412069932
 20
-15.44587890238853
 10
10.27231011027914
 20
-15.45214897617168
 10
10.28199082859269
 20
-15.46234645880802
 10
10.28199082859269
 20
-15.46234645880802
 10
10.29458265259128
 20
-15.44877278259614
 10
10.29458265259128
 20
-15.44877278259614
 10
10.29458265259128
 20
-15.44877278259614
 10
10.29992255059342
 20
-15.45363036723034
 10
10.29992255059342
 20
-15.45363036723034
 97
        0
 97
        1
330
83
 75
     2
 76
     1
 98
        1
 10
0.0
 20
0.0
450
        0
451
        0
460
0.0
461
0.0
452
        0
462
0.0
453
        0
470

  0
SPLINE
  5
85
330
7D
100
AcDbEntity
  8
Livello 1
100
AcDbSpline
210
0.0
220
0.0
230
1.0
 70
    11
 71
     3
 72
    17
 73
    13
 74
     0
 42
0.000000001
 43
0.0000000001
 40
0.0
 40
0.0
 40
0.0
 40
0.0
 40
1.0
 40
1.0
 40
1.0
 40
2.0
 40
2.0
 40
2.0
 40
3.0
 40
3.0
 40
3.0
 40
4.0
 40
4.0
 40
4.0
 40
4.0
 10
10.46079128427716
 20
-15.51950059290832
 30
0.0
 10
10.46079128427716
 20
-15.51950059290832
 30
0.0
 10
10.46079128427716
 20
-15.42720648485847
 30
0.0
 10
10.46079128427716
 20
-15.42720648485847
 30
0.0
 10
10.46079128427716
 20
-15.42720648485847
 30
0.0
 10
10.46030897090923
 20
-15.42720648485847
 30
0.0
 10
10.46030897090923
 20
-15.42720648485847
 30
0.0
 10
10.46030897090923
 20
-15.42720648485847
 30
0.0
 10
10.39635077322556
 20
-15.51950059290832
 30
0.0
 10
10.39635077322556
 20
-15.51950059290832
 30
0.0
 10
10.39635077322556
 20
-15.51950059290832
 30
0.0
 10
10.46079128427716
 20
-15.51950059290832
 30
0.0
 10
10.46079128427716
 20
-15.51950059290832
 30
0.0
  0
SPLINE
  5
86
330
7D
100
AcDbEntity
  8
Livello 1
100
AcDbSpline
210
0.0
220
0.0
230
1.0
 70
    11
 71
     3
 72
    38
 73
    34
 74
     0
 42
0.000000001
 43
0.0000000001
 40
0.0
 40
0.0
 40
0.0
 40
0.0
 40
1.0
 40
1.0
 40
1.0
 40
2.0
 40
2.0
 40
2.0
 40
3.0
 40
3.0
 40
3.0
 40
4.0
 40
4.0
 40
4.0
 40
5.0
 40
5.0
 40
5.0
 40
6.0
 40
6.0
 40
6.0
 40
7.0
 40
7.0
 40
7.0
 40
8.0
 40
8.0
 40
8.0
 40
9.0
 40
9.0
 40
9.0
 40
10.0
 40
10.0
 40
10.0
 40
11.0
 40
11.0
 40
11.0
 40
11.0
 10
10.38255316580714
 20
-15.51757133943658
 30
0.0
 10
10.38255316580714
 20
-15.51757133943658
 30
0.0
 10
10.46103244096113
 20
-15.40491671706891
 30
0.0
 10
10.46103244096113
 20
-15.40491671706891
 30
0.0
 10
10.46103244096113
 20
-15.40491671706891
 30
0.0
 10
10.47484727385698
 20
-15.40491671706891
 30
0.0
 10
10.47484727385698
 20
-15.40491671706891
 30
0.0
 10
10.47484727385698
 20
-15.40491671706891
 30
0.0
 10
10.47484727385698
 20
-15.51950059290832
 30
0.0
 10
10.47484727385698
 20
-15.51950059290832
 30
0.0
 10
10.47484727385698
 20
-15.51950059290832
 30
0.0
 10
10.50027207853812
 20
-15.51950059290832
 30
0.0
 10
10.50027207853812
 20
-15.51950059290832
 30
0.0
 10
10.50027207853812
 20
-15.51950059290832
 30
0.0
 10
10.50027207853812
 20
-15.5323507990683
 30
0.0
 10
10.50027207853812
 20
-15.5323507990683
 30
0.0
 10
10.50027207853812
 20
-15.5323507990683
 30
0.0
 10
10.47484727385698
 20
-15.5323507990683
 30
0.0
 10
10.47484727385698
 20
-15.5323507990683
 30
0.0
 10
10.47484727385698
 20
-15.5323507990683
 30
0.0
 10
10.47484727385698
 20
-15.5744843168529
 30
0.0
 10
10.47484727385698
 20
-15.5744843168529
 30
0.0
 10
10.47484727385698
 20
-15.5744843168529
 30
0.0
 10
10.46079128427716
 20
-15.5744843168529
 30
0.0
 10
10.46079128427716
 20
-15.5744843168529
 30
0.0
 10
10.46079128427716
 20
-15.5744843168529
 30
0.0
 10
10.46079128427716
 20
-15.5323507990683
 30
0.0
 10
10.46079128427716
 20
-15.5323507990683
 30
0.0
 10
10.46079128427716
 20
-15.5323507990683
 30
0.0
 10
10.38255316580714
 20
-15.5323507990683
 30
0.0
 10
10.38255316580714
 20
-15.5323507990683
 30
0.0
 10
10.38255316580714
 20
-15.5323507990683
 30
0.0
 10
10.38255316580714
 20
-15.51757133943658
 30
0.0
 10
10.38255316580714
 20
-15.51757133943658
 30
0.0
  0
HATCH
  5
87
330
7D
100
AcDbEntity
  8
Livello 1
 62
    18
420
        0
440
 33554687
100
AcDbHatch
 10
0.0
 20
0.0
 30
0.0
210
0.0
220
0.0
230
1.0
  2
SOLID
 70
     1
 71
     1
 91
        2
 92
        1
 93
        1
 72
     4
 94
        3
 73
     0
 74
     0
 95
       17
 96
       13
 40
0.0
 40
0.0
 40
0.0
 40
0.0
 40
1.0
 40
1.0
 40
1.0
 40
2.0
 40
2.0
 40
2.0
 40
3.0
 40
3.0
 40
3.0
 40
4.0
 40
4.0
 40
4.0
 40
4.0
 10
10.46079128427716
 20
-15.51950059290832
 10
10.46079128427716
 20
-15.51950059290832
 10
10.46079128427716
 20
-15.42720648485847
 10
10.46079128427716
 20
-15.42720648485847
 10
10.46079128427716
 20
-15.42720648485847
 10
10.46030897090923
 20
-15.42720648485847
 10
10.46030897090923
 20
-15.42720648485847
 10
10.46030897090923
 20
-15.42720648485847
 10
10.39635077322556
 20
-15.51950059290832
 10
10.39635077322556
 20
-15.51950059290832
 10
10.39635077322556
 20
-15.51950059290832
 10
10.46079128427716
 20
-15.51950059290832
 10
10.46079128427716
 20
-15.51950059290832
 97
        0
 97
        1
330
85
 92
        1
 93
        1
 72
     4
 94
        3
 73
     0
 74
     0
 95
       38
 96
       34
 40
0.0
 40
0.0
 40
0.0
 40
0.0
 40
1.0
 40
1.0
 40
1.0
 40
2.0
 40
2.0
 40
2.0
 40
3.0
 40
3.0
 40
3.0
 40
4.0
 40
4.0
 40
4.0
 40
5.0
 40
5.0
 40
5.0
 40
6.0
 40
6.0
 40
6.0
 40
7.0
 40
7.0
 40
7.0
 40
8.0
 40
8.0
 40
8.0
 40
9.0
 40
9.0
 40
9.0
 40
10.0
 40
10.0
 40
10.0
 40
11.0
 40
11.0
 40
11.0
 40
11.0
 10
10.38255316580714
 20
-15.51757133943658
 10
10.38255316580714
 20
-15.51757133943658
 10
10.46103244096113
 20
-15.40491671706891
 10
10.46103244096113
 20
-15.40491671706891
 10
10.46103244096113
 20
-15.40491671706891
 10
10.47484727385698
 20
-15.40491671706891
 10
10.47484727385698
 20
-15.40491671706891
 10
10.47484727385698
 20
-15.40491671706891
 10
10.47484727385698
 20
-15.51950059290832
 10
10.47484727385698
 20
-15.51950059290832
 10
10.47484727385698
 20
-15.51950059290832
 10
10.50027207853812
 20
-15.51950059290832
 10
10.50027207853812
 20
-15.51950059290832
 10
10.50027207853812
 20
-15.51950059290832
 10
10.50027207853812
 20
-15.5323507990683
 10
10.50027207853812
 20
-15.5323507990683
 10
10.50027207853812
 20
-15.5323507990683
 10
10.47484727385698
 20
-15.5323507990683
 10
10.47484727385698
 20
-15.5323507990683
 10
10.47484727385698
 20
-15.5323507990683
 10
10.47484727385698
 20
-15.5744843168529
 10
10.47484727385698
 20
-15.5744843168529
 10
10.47484727385698
 20
-15.5744843168529
 10
10.46079128427716
 20
-15.5744843168529
 10
10.46079128427716
 20
-15.5744843168529
 10
10.46079128427716
 20
-15.5744843168529
 10
10.46079128427716
 20
-15.5323507990683
 10
10.46079128427716
 20
-15.5323507990683
 10
10.46079128427716
 20
-15.5323507990683
 10
10.38255316580714
 20
-15.5323507990683
 10
10.38255316580714
 20
-15.5323507990683
 10
10.38255316580714
 20
-15.5323507990683
 10
10.38255316580714
 20
-15.51757133943658
 10
10.38255316580714
 20
-15.51757133943658
 97
        0
 97
        1
330
86
 75
     2
 76
     1
 98
        1
 10
0.0
 20
0.0
450
        0
451
        0
460
0.0
461
0.0
452
        0
462
0.0
453
        0
470

  0
SPLINE
  5
88
330
7D
100
AcDbEntity
  8
Livello 1
100
AcDbSpline
210
0.0
220
0.0
230
1.0
 70
     9
 71
     3
 72
    53
 73
    49
 74
     0
 42
0.000000001
 43
0.0000000001
 40
0.0
 40
0.0
 40
0.0
 40
0.0
 40
1.0
 40
1.0
 40
1.0
 40
2.0
 40
2.0
 40
2.0
 40
3.0
 40
3.0
 40
3.0
 40
4.0
 40
4.0
 40
4.0
 40
5.0
 40
5.0
 40
5.0
 40
6.0
 40
6.0
 40
6.0
 40
7.0
 40
7.0
 40
7.0
 40
8.0
 40
8.0
 40
8.0
 40
9.0
 40
9.0
 40
9.0
 40
10.0
 40
10.0
 40
10.0
 40
11.0
 40
11.0
 40
11.0
 40
12.0
 40
12.0
 40
12.0
 40
13.0
 40
13.0
 40
13.0
 40
14.0
 40
14.0
 40
14.0
 40
15.0
 40
15.0
 40
15.0
 40
16.0
 40
16.0
 40
16.0
 40
16.0
 10
10.53381008308703
 20
-15.52604627433029
 30
0.0
 10
10.53453355313893
 20
-15.54954182553969
 30
0.0
 10
10.55222411845569
 20
-15.56528591190729
 30
0.0
 10
10.57547851298113
 20
-15.56528591190729
 30
0.0
 10
10.60166123866903
 20
-15.56528591190729
 30
0.0
 10
10.61788763840455
 20
-15.54371961416962
 30
0.0
 10
10.61788763840455
 20
-15.51901827954038
 30
0.0
 10
10.61788763840455
 20
-15.49407578822717
 30
0.0
 10
10.59969753424243
 20
-15.47492105732918
 30
0.0
 10
10.57451388624526
 20
-15.47492105732918
 30
0.0
 10
10.55949326992957
 20
-15.47492105732918
 30
0.0
 10
10.54495496698181
 20
-15.48219020880306
 30
0.0
 10
10.53672118877207
 20
-15.49504041496304
 30
0.0
 10
10.53672118877207
 20
-15.49504041496304
 30
0.0
 10
10.52364705140554
 20
-15.49504041496304
 30
0.0
 10
10.52364705140554
 20
-15.49504041496304
 30
0.0
 10
10.52364705140554
 20
-15.49504041496304
 30
0.0
 10
10.54011460782504
 20
-15.40712157817947
 30
0.0
 10
10.54011460782504
 20
-15.40712157817947
 30
0.0
 10
10.54011460782504
 20
-15.40712157817947
 30
0.0
 10
10.62491563319446
 20
-15.40712157817947
 30
0.0
 10
10.62491563319446
 20
-15.40712157817947
 30
0.0
 10
10.62491563319446
 20
-15.40712157817947
 30
0.0
 10
10.62491563319446
 20
-15.42114311680443
 30
0.0
 10
10.62491563319446
 20
-15.42114311680443
 30
0.0
 10
10.62491563319446
 20
-15.42114311680443
 30
0.0
 10
10.55077717835189
 20
-15.42114311680443
 30
0.0
 10
10.55077717835189
 20
-15.42114311680443
 30
0.0
 10
10.55077717835189
 20
-15.42114311680443
 30
0.0
 10
10.53987345114107
 20
-15.47736707512371
 30
0.0
 10
10.53987345114107
 20
-15.47736707512371
 30
0.0
 10
10.53987345114107
 20
-15.47736707512371
 30
0.0
 10
10.54035576450901
 20
-15.47784938849164
 30
0.0
 10
10.54035576450901
 20
-15.47784938849164
 30
0.0
 10
10.54884792488015
 20
-15.46789306253927
 30
0.0
 10
10.56314507114393
 20
-15.46210530212406
 30
0.0
 10
10.57620198303303
 20
-15.46210530212406
 30
0.0
 10
10.61110080029861
 20
-15.46210530212406
 30
0.0
 10
10.63314941140421
 20
-15.48656548006933
 30
0.0
 10
10.63314941140421
 20
-15.52070637632815
 30
0.0
 10
10.63314941140421
 20
-15.55391709680596
 30
0.0
 10
10.60672552903234
 20
-15.57813611806727
 30
0.0
 10
10.57427272956129
 20
-15.57813611806727
 30
0.0
 10
10.54278455682611
 20
-15.57813611806727
 30
0.0
 10
10.51927178013928
 20
-15.55825791711738
 30
0.0
 10
10.51854831008737
 20
-15.52604627433029
 30
0.0
 10
10.51854831008737
 20
-15.52604627433029
 30
0.0
 10
10.53381008308703
 20
-15.52604627433029
 30
0.0
 10
10.53381008308703
 20
-15.52604627433029
 30
0.0
  0
HATCH
  5
89
330
7D
100
AcDbEntity
  8
Livello 1
 62
    18
420
        0
440
 33554687
100
AcDbHatch
 10
0.0
 20
0.0
 30
0.0
210
0.0
220
0.0
230
1.0
  2
SOLID
 70
     1
 71
     1
 91
        1
 92
        1
 93
        1
 72
     4
 94
        3
 73
     0
 74
     0
 95
       53
 96
       49
 40
0.0
 40
0.0
 40
0.0
 40
0.0
 40
1.0
 40
1.0
 40
1.0
 40
2.0
 40
2.0
 40
2.0
 40
3.0
 40
3.0
 40
3.0
 40
4.0
 40
4.0
 40
4.0
 40
5.0
 40
5.0
 40
5.0
 40
6.0
 40
6.0
 40
6.0
 40
7.0
 40
7.0
 40
7.0
 40
8.0
 40
8.0
 40
8.0
 40
9.0
 40
9.0
 40
9.0
 40
10.0
 40
10.0
 40
10.0
 40
11.0
 40
11.0
 40
11.0
 40
12.0
 40
12.0
 40
12.0
 40
13.0
 40
13.0
 40
13.0
 40
14.0
 40
14.0
 40
14.0
 40
15.0
 40
15.0
 40
15.0
 40
16.0
 40
16.0
 40
16.0
 40
16.0
 10
10.53381008308703
 20
-15.52604627433029
 10
10.53453355313893
 20
-15.54954182553969
 10
10.55222411845569
 20
-15.56528591190729
 10
10.57547851298113
 20
-15.56528591190729
 10
10.60166123866903
 20
-15.56528591190729
 10
10.61788763840455
 20
-15.54371961416962
 10
10.61788763840455
 20
-15.51901827954038
 10
10.61788763840455
 20
-15.49407578822717
 10
10.59969753424243
 20
-15.47492105732918
 10
10.57451388624526
 20
-15.47492105732918
 10
10.55949326992957
 20
-15.47492105732918
 10
10.54495496698181
 20
-15.48219020880306
 10
10.53672118877207
 20
-15.49504041496304
 10
10.53672118877207
 20
-15.49504041496304
 10
10.52364705140554
 20
-15.49504041496304
 10
10.52364705140554
 20
-15.49504041496304
 10
10.52364705140554
 20
-15.49504041496304
 10
10.54011460782504
 20
-15.40712157817947
 10
10.54011460782504
 20
-15.40712157817947
 10
10.54011460782504
 20
-15.40712157817947
 10
10.62491563319446
 20
-15.40712157817947
 10
10.62491563319446
 20
-15.40712157817947
 10
10.62491563319446
 20
-15.40712157817947
 10
10.62491563319446
 20
-15.42114311680443
 10
10.62491563319446
 20
-15.42114311680443
 10
10.62491563319446
 20
-15.42114311680443
 10
10.55077717835189
 20
-15.42114311680443
 10
10.55077717835189
 20
-15.42114311680443
 10
10.55077717835189
 20
-15.42114311680443
 10
10.53987345114107
 20
-15.47736707512371
 10
10.53987345114107
 20
-15.47736707512371
 10
10.53987345114107
 20
-15.47736707512371
 10
10.54035576450901
 20
-15.47784938849164
 10
10.54035576450901
 20
-15.47784938849164
 10
10.54884792488015
 20
-15.46789306253927
 10
10.56314507114393
 20
-15.46210530212406
 10
10.57620198303303
 20
-15.46210530212406
 10
10.61110080029861
 20
-15.46210530212406
 10
10.63314941140421
 20
-15.48656548006933
 10
10.63314941140421
 20
-15.52070637632815
 10
10.63314941140421
 20
-15.55391709680596
 10
10.60672552903234
 20
-15.57813611806727
 10
10.57427272956129
 20
-15.57813611806727
 10
10.54278455682611
 20
-15.57813611806727
 10
10.51927178013928
 20
-15.55825791711738
 10
10.51854831008737
 20
-15.52604627433029
 10
10.51854831008737
 20
-15.52604627433029
 10
10.53381008308703
 20
-15.52604627433029
 10
10.53381008308703
 20
-15.52604627433029
 97
        0
 97
        1
330
88
 75
     2
 76
     1
 98
        1
 10
0.0
 20
0.0
450
        0
451
        0
460
0.0
461
0.0
452
        0
462
0.0
453
        0
470

  0
SPLINE
  5
8A
330
7D
100
AcDbEntity
  8
Livello 1
100
AcDbSpline
210
0.0
220
0.0
230
1.0
 70
     9
 71
     3
 72
    17
 73
    13
 74
     0
 42
0.000000001
 43
0.0000000001
 40
0.0
 40
0.0
 40
0.0
 40
0.0
 40
1.0
 40
1.0
 40
1.0
 40
2.0
 40
2.0
 40
2.0
 40
3.0
 40
3.0
 40
3.0
 40
4.0
 40
4.0
 40
4.0
 40
4.0
 10
10.66787597389553
 20
-15.49066514369678
 30
0.0
 10
10.66787597389553
 20
-15.52022406296022
 30
0.0
 10
10.67294026425885
 20
-15.56528591190729
 30
0.0
 10
10.7116975884679
 20
-15.56528591190729
 30
0.0
 10
10.75045491267696
 20
-15.56528591190729
 30
0.0
 10
10.75555365399514
 20
-15.52022406296022
 30
0.0
 10
10.75555365399514
 20
-15.49066514369678
 30
0.0
 10
10.75555365399514
 20
-15.46138183207215
 30
0.0
 10
10.75045491267696
 20
-15.41631998312508
 30
0.0
 10
10.7116975884679
 20
-15.41631998312508
 30
0.0
 10
10.67294026425885
 20
-15.41631998312508
 30
0.0
 10
10.66787597389553
 20
-15.46138183207215
 30
0.0
 10
10.66787597389553
 20
-15.49066514369678
 30
0.0
  0
SPLINE
  5
8B
330
7D
100
AcDbEntity
  8
Livello 1
100
AcDbSpline
210
0.0
220
0.0
230
1.0
 70
     9
 71
     3
 72
    17
 73
    13
 74
     0
 42
0.000000001
 43
0.0000000001
 40
0.0
 40
0.0
 40
0.0
 40
0.0
 40
1.0
 40
1.0
 40
1.0
 40
2.0
 40
2.0
 40
2.0
 40
3.0
 40
3.0
 40
3.0
 40
4.0
 40
4.0
 40
4.0
 40
4.0
 10
10.77081542699479
 20
-15.49066514369678
 30
0.0
 10
10.77081542699479
 20
-15.53042154559656
 30
0.0
 10
10.76113470868124
 20
-15.57813611806727
 30
0.0
 10
10.7116975884679
 20
-15.57813611806727
 30
0.0
 10
10.66229491920942
 20
-15.57813611806727
 30
0.0
 10
10.65261420089587
 20
-15.53042154559656
 30
0.0
 10
10.65261420089587
 20
-15.49090630038074
 30
0.0
 10
10.65261420089587
 20
-15.45118434943581
 30
0.0
 10
10.66229491920942
 20
-15.4034697769651
 30
0.0
 10
10.7116975884679
 20
-15.4034697769651
 30
0.0
 10
10.76113470868124
 20
-15.4034697769651
 30
0.0
 10
10.77081542699479
 20
-15.45118434943581
 30
0.0
 10
10.77081542699479
 20
-15.49066514369678
 30
0.0
  0
HATCH
  5
8C
330
7D
100
AcDbEntity
  8
Livello 1
 62
    18
420
        0
440
 33554687
100
AcDbHatch
 10
0.0
 20
0.0
 30
0.0
210
0.0
220
0.0
230
1.0
  2
SOLID
 70
     1
 71
     1
 91
        2
 92
        1
 93
        1
 72
     4
 94
        3
 73
     0
 74
     0
 95
       17
 96
       13
 40
0.0
 40
0.0
 40
0.0
 40
0.0
 40
1.0
 40
1.0
 40
1.0
 40
2.0
 40
2.0
 40
2.0
 40
3.0
 40
3.0
 40
3.0
 40
4.0
 40
4.0
 40
4.0
 40
4.0
 10
10.66787597389553
 20
-15.49066514369678
 10
10.66787597389553
 20
-15.52022406296022
 10
10.67294026425885
 20
-15.56528591190729
 10
10.7116975884679
 20
-15.56528591190729
 10
10.75045491267696
 20
-15.56528591190729
 10
10.75555365399514
 20
-15.52022406296022
 10
10.75555365399514
 20
-15.49066514369678
 10
10.75555365399514
 20
-15.46138183207215
 10
10.75045491267696
 20
-15.41631998312508
 10
10.7116975884679
 20
-15.41631998312508
 10
10.67294026425885
 20
-15.41631998312508
 10
10.66787597389553
 20
-15.46138183207215
 10
10.66787597389553
 20
-15.49066514369678
 97
        0
 97
        1
330
8A
 92
        1
 93
        1
 72
     4
 94
        3
 73
     0
 74
     0
 95
       17
 96
       13
 40
0.0
 40
0.0
 40
0.0
 40
0.0
 40
1.0
 40
1.0
 40
1.0
 40
2.0
 40
2.0
 40
2.0
 40
3.0
 40
3.0
 40
3.0
 40
4.0
 40
4.0
 40
4.0
 40
4.0
 10
10.77081542699479
 20
-15.49066514369678
 10
10.77081542699479
 20
-15.53042154559656
 10
10.76113470868124
 20
-15.57813611806727
 10
10.7116975884679
 20
-15.57813611806727
 10
10.66229491920942
 20
-15.57813611806727
 10
10.65261420089587
 20
-15.53042154559656
 10
10.65261420089587
 20
-15.49090630038074
 10
10.65261420089587
 20
-15.45118434943581
 10
10.66229491920942
 20
-15.4034697769651
 10
10.7116975884679
 20
-15.4034697769651
 10
10.76113470868124
 20
-15.4034697769651
 10
10.77081542699479
 20
-15.45118434943581
 10
10.77081542699479
 20
-15.49066514369678
 97
        0
 97
        1
330
8B
 75
     2
 76
     1
 98
        1
 10
0.0
 20
0.0
450
        0
451
        0
460
0.0
461
0.0
452
        0
462
0.0
453
        0
470

  0
ENDBLK
  5
80
330
7D
100
AcDbEntity
  8
0
100
AcDbBlockEnd
  0
BLOCK
  5
8F
330
8D
100
AcDbEntity
  8
0
100
AcDbBlockBegin
  2
Block_2
 70
     0
 10
0.0
 20
0.0
 30
0.0
  3
Block_2
  1

  0
LINE
  5
91
330
8D
100
AcDbEntity
  8
Livello 1
 62
    18
420
        0
370
     9
100
AcDbLine
 10
10.17151705577393
 20
-15.49317483152414
 30
0.0
 11
6.971268315838277
 21
-15.49317483152414
 31
0.0
  0
LWPOLYLINE
  5
92
330
8D
100
AcDbEntity
  8
Livello 1
100
AcDbPolyline
 90
        3
 70
     1
 43
0.0
 10
6.714555543155071
 20
-15.49405191459562
 10
6.969452495902274
 20
-15.40907455803286
 10
6.969452495902274
 20
-15.57727510501543
  0
HATCH
  5
93
330
8D
100
AcDbEntity
  8
Livello 1
 62
    18
420
        0
440
 33554687
100
AcDbHatch
 10
0.0
 20
0.0
 30
0.0
210
0.0
220
0.0
230
1.0
  2
SOLID
 70
     1
 71
     1
 91
        1
 92
        1
 93
        3
 72
     1
 10
6.714555543155071
 20
-15.49405191459562
 11
6.969452495902274
 21
-15.40907455803286
 72
     1
 10
6.969452495902274
 20
-15.40907455803286
 11
6.969452495902274
 21
-15.57727510501543
 72
     1
 10
6.969452495902274
 20
-15.57727510501543
 11
6.714555543155071
 21
-15.49405191459562
 97
        1
330
92
 75
     0
 76
     1
 98
        1
 10
0.0
 20
0.0
450
        0
451
        0
460
0.0
461
0.0
452
        0
462
0.0
453
        0
470

  0
ENDBLK
  5
90
330
8D
100
AcDbEntity
  8
0
100
AcDbBlockEnd
  0
BLOCK
  5
96
330
94
100
AcDbEntity
  8
0
100
AcDbBlockBegin
  2
Block_3
 70
     0
 10
0.0
 20
0.0
 30
0.0
  3
Block_3
  1

  0
LINE
  5
98
330
94
100
AcDbEntity
  8
Livello 1
 62
    18
420
        0
370
     9
100
AcDbLine
 10
10.81558954636633
 20
-15.49317483152414
 30
0.0
 11
14.11718126036347
 21
-15.49317483152414
 31
0.0
  0
LWPOLYLINE
  5
99
330
94
100
AcDbEntity
  8
Livello 1
100
AcDbPolyline
 90
        3
 70
     1
 43
0.0
 10
14.3738940330468
 20
-15.49229774845267
 10
14.11899708029957
 20
-15.57727510501543
 10
14.11899708029957
 20
-15.40907455803286
  0
HATCH
  5
9A
330
94
100
AcDbEntity
  8
Livello 1
 62
    18
420
        0
440
 33554687
100
AcDbHatch
 10
0.0
 20
0.0
 30
0.0
210
0.0
220
0.0
230
1.0
  2
SOLID
 70
     1
 71
     1
 91
        1
 92
        1
 93
        3
 72
     1
 10
14.3738940330468
 20
-15.49229774845267
 11
14.11899708029957
 21
-15.57727510501543
 72
     1
 10
14.11899708029957
 20
-15.57727510501543
 11
14.11899708029957
 21
-15.40907455803286
 72
     1
 10
14.11899708029957
 20
-15.40907455803286
 11
14.3738940330468
 21
-15.49229774845267
 97
        1
330
99
 75
     0
 76
     1
 98
        1
 10
0.0
 20
0.0
450
        0
451
        0
460
0.0
461
0.0
452
        0
462
0.0
453
        0
470

  0
ENDBLK
  5
97
330
94
100
AcDbEntity
  8
0
100
AcDbBlockEnd
  0
BLOCK
  5
9D
330
9B
100
AcDbEntity
  8
0
100
AcDbBlockBegin
  2
Block_4
 70
     0
 10
0.0
 20
0.0
 30
0.0
  3
Block_4
  1

  0
INSERT
  5
A0
330
9B
100
AcDbEntity
  8
Livello 1
100
AcDbBlockReference
  2
Block_5
 10
0.0
 20
0.0
 30
0.0
  0
INSERT
  5
AD
330
9B
100
AcDbEntity
  8
Livello 1
100
AcDbBlockReference
  2
Block_7
 10
0.0
 20
0.0
 30
0.0
  0
INSERT
  5
B4
330
9B
100
AcDbEntity
  8
Livello 1
100
AcDbBlockReference
  2
Block_8
 10
0.0
 20
0.0
 30
0.0
  0
ENDBLK
  5
9E
330
9B
100
AcDbEntity
  8
0
100
AcDbBlockEnd
  0
BLOCK
  5
A1
330
9F
100
AcDbEntity
  8
0
100
AcDbBlockBegin
  2
Block_5
 70
     0
 10
0.0
 20
0.0
 30
0.0
  3
Block_5
  1

  0
INSERT
  5
A4
330
9F
100
AcDbEntity
  8
Livello 1
100
AcDbBlockReference
  2
Block_6
 10
0.0
 20
0.0
 30
0.0
  0
ENDBLK
  5
A2
330
9F
100
AcDbEntity
  8
0
100
AcDbBlockEnd
  0
BLOCK
  5
A5
330
A3
100
AcDbEntity
  8
0
100
AcDbBlockBegin
  2
Block_6
 70
     0
 10
0.0
 20
0.0
 30
0.0
  3
Block_6
  1

  0
SPLINE
  5
A7
330
A3
100
AcDbEntity
  8
Livello 1
100
AcDbSpline
210
0.0
220
0.0
230
1.0
 70
     9
 71
     3
 72
    26
 73
    22
 74
     0
 42
0.000000001
 43
0.0000000001
 40
0.0
 40
0.0
 40
0.0
 40
0.0
 40
1.0
 40
1.0
 40
1.0
 40
2.0
 40
2.0
 40
2.0
 40
3.0
 40
3.0
 40
3.0
 40
4.0
 40
4.0
 40
4.0
 40
5.0
 40
5.0
 40
5.0
 40
6.0
 40
6.0
 40
6.0
 40
7.0
 40
7.0
 40
7.0
 40
7.0
 10
6.034618732215303
 20
-14.79411851301154
 30
0.0
 10
6.06126654579371
 20
-14.79313666079824
 30
0.0
 10
6.077734102213204
 20
-14.7926543474303
 30
0.0
 10
6.082333304686013
 20
-14.76140733137909
 30
0.0
 10
6.082333304686013
 20
-14.76140733137909
 30
0.0
 10
6.09470119747806
 20
-14.76140733137909
 30
0.0
 10
6.09470119747806
 20
-14.76140733137909
 30
0.0
 10
6.09470119747806
 20
-14.76140733137909
 30
0.0
 10
6.09470119747806
 20
-14.93097493116309
 30
0.0
 10
6.09470119747806
 20
-14.93097493116309
 30
0.0
 10
6.09470119747806
 20
-14.93097493116309
 30
0.0
 10
6.079439424478403
 20
-14.93097493116309
 30
0.0
 10
6.079439424478403
 20
-14.93097493116309
 30
0.0
 10
6.079439424478403
 20
-14.93097493116309
 30
0.0
 10
6.079439424478403
 20
-14.80502224022235
 30
0.0
 10
6.079439424478403
 20
-14.80502224022235
 30
0.0
 10
6.079439424478403
 20
-14.80502224022235
 30
0.0
 10
6.034618732215303
 20
-14.80502224022235
 30
0.0
 10
6.034618732215303
 20
-14.80502224022235
 30
0.0
 10
6.034618732215303
 20
-14.80502224022235
 30
0.0
 10
6.034618732215303
 20
-14.79411851301154
 30
0.0
 10
6.034618732215303
 20
-14.79411851301154
 30
0.0
  0
HATCH
  5
A8
330
A3
100
AcDbEntity
  8
Livello 1
 62
    18
420
        0
440
 33554687
100
AcDbHatch
 10
0.0
 20
0.0
 30
0.0
210
0.0
220
0.0
230
1.0
  2
SOLID
 70
     1
 71
     1
 91
        1
 92
        1
 93
        1
 72
     4
 94
        3
 73
     0
 74
     0
 95
       26
 96
       22
 40
0.0
 40
0.0
 40
0.0
 40
0.0
 40
1.0
 40
1.0
 40
1.0
 40
2.0
 40
2.0
 40
2.0
 40
3.0
 40
3.0
 40
3.0
 40
4.0
 40
4.0
 40
4.0
 40
5.0
 40
5.0
 40
5.0
 40
6.0
 40
6.0
 40
6.0
 40
7.0
 40
7.0
 40
7.0
 40
7.0
 10
6.034618732215303
 20
-14.79411851301154
 10
6.06126654579371
 20
-14.79313666079824
 10
6.077734102213204
 20
-14.7926543474303
 10
6.082333304686013
 20
-14.76140733137909
 10
6.082333304686013
 20
-14.76140733137909
 10
6.09470119747806
 20
-14.76140733137909
 10
6.09470119747806
 20
-14.76140733137909
 10
6.09470119747806
 20
-14.76140733137909
 10
6.09470119747806
 20
-14.93097493116309
 10
6.09470119747806
 20
-14.93097493116309
 10
6.09470119747806
 20
-14.93097493116309
 10
6.079439424478403
 20
-14.93097493116309
 10
6.079439424478403
 20
-14.93097493116309
 10
6.079439424478403
 20
-14.93097493116309
 10
6.079439424478403
 20
-14.80502224022235
 10
6.079439424478403
 20
-14.80502224022235
 10
6.079439424478403
 20
-14.80502224022235
 10
6.034618732215303
 20
-14.80502224022235
 10
6.034618732215303
 20
-14.80502224022235
 10
6.034618732215303
 20
-14.80502224022235
 10
6.034618732215303
 20
-14.79411851301154
 10
6.034618732215303
 20
-14.79411851301154
 97
        0
 97
        1
330
A7
 75
     2
 76
     1
 98
        1
 10
0.0
 20
0.0
450
        0
451
        0
460
0.0
461
0.0
452
        0
462
0.0
453
        0
470

  0
SPLINE
  5
A9
330
A3
100
AcDbEntity
  8
Livello 1
100
AcDbSpline
210
0.0
220
0.0
230
1.0
 70
    11
 71
     3
 72
    17
 73
    13
 74
     0
 42
0.000000001
 43
0.0000000001
 40
0.0
 40
0.0
 40
0.0
 40
0.0
 40
1.0
 40
1.0
 40
1.0
 40
2.0
 40
2.0
 40
2.0
 40
3.0
 40
3.0
 40
3.0
 40
4.0
 40
4.0
 40
4.0
 40
4.0
 10
6.231178655126232
 20
-14.8759912072185
 30
0.0
 10
6.231178655126232
 20
-14.8759912072185
 30
0.0
 10
6.231178655126232
 20
-14.78369709916866
 30
0.0
 10
6.231178655126232
 20
-14.78369709916866
 30
0.0
 10
6.231178655126232
 20
-14.78369709916866
 30
0.0
 10
6.230696341758298
 20
-14.78369709916866
 30
0.0
 10
6.230696341758298
 20
-14.78369709916866
 30
0.0
 10
6.230696341758298
 20
-14.78369709916866
 30
0.0
 10
6.166738144074634
 20
-14.8759912072185
 30
0.0
 10
6.166738144074634
 20
-14.8759912072185
 30
0.0
 10
6.166738144074634
 20
-14.8759912072185
 30
0.0
 10
6.231178655126232
 20
-14.8759912072185
 30
0.0
 10
6.231178655126232
 20
-14.8759912072185
 30
0.0
  0
SPLINE
  5
AA
330
A3
100
AcDbEntity
  8
Livello 1
100
AcDbSpline
210
0.0
220
0.0
230
1.0
 70
    11
 71
     3
 72
    38
 73
    34
 74
     0
 42
0.000000001
 43
0.0000000001
 40
0.0
 40
0.0
 40
0.0
 40
0.0
 40
1.0
 40
1.0
 40
1.0
 40
2.0
 40
2.0
 40
2.0
 40
3.0
 40
3.0
 40
3.0
 40
4.0
 40
4.0
 40
4.0
 40
5.0
 40
5.0
 40
5.0
 40
6.0
 40
6.0
 40
6.0
 40
7.0
 40
7.0
 40
7.0
 40
8.0
 40
8.0
 40
8.0
 40
9.0
 40
9.0
 40
9.0
 40
10.0
 40
10.0
 40
10.0
 40
11.0
 40
11.0
 40
11.0
 40
11.0
 10
6.152940536656208
 20
-14.87404472826933
 30
0.0
 10
6.152940536656208
 20
-14.87404472826933
 30
0.0
 10
6.2314198118102
 20
-14.76140733137909
 30
0.0
 10
6.2314198118102
 20
-14.76140733137909
 30
0.0
 10
6.2314198118102
 20
-14.76140733137909
 30
0.0
 10
6.245234644706052
 20
-14.76140733137909
 30
0.0
 10
6.245234644706052
 20
-14.76140733137909
 30
0.0
 10
6.245234644706052
 20
-14.76140733137909
 30
0.0
 10
6.245234644706052
 20
-14.8759912072185
 30
0.0
 10
6.245234644706052
 20
-14.8759912072185
 30
0.0
 10
6.245234644706052
 20
-14.8759912072185
 30
0.0
 10
6.270659449387196
 20
-14.8759912072185
 30
0.0
 10
6.270659449387196
 20
-14.8759912072185
 30
0.0
 10
6.270659449387196
 20
-14.8759912072185
 30
0.0
 10
6.270659449387196
 20
-14.88880696242363
 30
0.0
 10
6.270659449387196
 20
-14.88880696242363
 30
0.0
 10
6.270659449387196
 20
-14.88880696242363
 30
0.0
 10
6.245234644706052
 20
-14.88880696242363
 30
0.0
 10
6.245234644706052
 20
-14.88880696242363
 30
0.0
 10
6.245234644706052
 20
-14.88880696242363
 30
0.0
 10
6.245234644706052
 20
-14.93097493116309
 30
0.0
 10
6.245234644706052
 20
-14.93097493116309
 30
0.0
 10
6.245234644706052
 20
-14.93097493116309
 30
0.0
 10
6.231178655126232
 20
-14.93097493116309
 30
0.0
 10
6.231178655126232
 20
-14.93097493116309
 30
0.0
 10
6.231178655126232
 20
-14.93097493116309
 30
0.0
 10
6.231178655126232
 20
-14.88880696242363
 30
0.0
 10
6.231178655126232
 20
-14.88880696242363
 30
0.0
 10
6.231178655126232
 20
-14.88880696242363
 30
0.0
 10
6.152940536656208
 20
-14.88880696242363
 30
0.0
 10
6.152940536656208
 20
-14.88880696242363
 30
0.0
 10
6.152940536656208
 20
-14.88880696242363
 30
0.0
 10
6.152940536656208
 20
-14.87404472826933
 30
0.0
 10
6.152940536656208
 20
-14.87404472826933
 30
0.0
  0
HATCH
  5
AB
330
A3
100
AcDbEntity
  8
Livello 1
 62
    18
420
        0
440
 33554687
100
AcDbHatch
 10
0.0
 20
0.0
 30
0.0
210
0.0
220
0.0
230
1.0
  2
SOLID
 70
     1
 71
     1
 91
        2
 92
        1
 93
        1
 72
     4
 94
        3
 73
     0
 74
     0
 95
       17
 96
       13
 40
0.0
 40
0.0
 40
0.0
 40
0.0
 40
1.0
 40
1.0
 40
1.0
 40
2.0
 40
2.0
 40
2.0
 40
3.0
 40
3.0
 40
3.0
 40
4.0
 40
4.0
 40
4.0
 40
4.0
 10
6.231178655126232
 20
-14.8759912072185
 10
6.231178655126232
 20
-14.8759912072185
 10
6.231178655126232
 20
-14.78369709916866
 10
6.231178655126232
 20
-14.78369709916866
 10
6.231178655126232
 20
-14.78369709916866
 10
6.230696341758298
 20
-14.78369709916866
 10
6.230696341758298
 20
-14.78369709916866
 10
6.230696341758298
 20
-14.78369709916866
 10
6.166738144074634
 20
-14.8759912072185
 10
6.166738144074634
 20
-14.8759912072185
 10
6.166738144074634
 20
-14.8759912072185
 10
6.231178655126232
 20
-14.8759912072185
 10
6.231178655126232
 20
-14.8759912072185
 97
        0
 97
        1
330
A9
 92
        1
 93
        1
 72
     4
 94
        3
 73
     0
 74
     0
 95
       38
 96
       34
 40
0.0
 40
0.0
 40
0.0
 40
0.0
 40
1.0
 40
1.0
 40
1.0
 40
2.0
 40
2.0
 40
2.0
 40
3.0
 40
3.0
 40
3.0
 40
4.0
 40
4.0
 40
4.0
 40
5.0
 40
5.0
 40
5.0
 40
6.0
 40
6.0
 40
6.0
 40
7.0
 40
7.0
 40
7.0
 40
8.0
 40
8.0
 40
8.0
 40
9.0
 40
9.0
 40
9.0
 40
10.0
 40
10.0
 40
10.0
 40
11.0
 40
11.0
 40
11.0
 40
11.0
 10
6.152940536656208
 20
-14.87404472826933
 10
6.152940536656208
 20
-14.87404472826933
 10
6.2314198118102
 20
-14.76140733137909
 10
6.2314198118102
 20
-14.76140733137909
 10
6.2314198118102
 20
-14.76140733137909
 10
6.245234644706052
 20
-14.76140733137909
 10
6.245234644706052
 20
-14.76140733137909
 10
6.245234644706052
 20
-14.76140733137909
 10
6.245234644706052
 20
-14.8759912072185
 10
6.245234644706052
 20
-14.8759912072185
 10
6.245234644706052
 20
-14.8759912072185
 10
6.270659449387196
 20
-14.8759912072185
 10
6.270659449387196
 20
-14.8759912072185
 10
6.270659449387196
 20
-14.8759912072185
 10
6.270659449387196
 20
-14.88880696242363
 10
6.270659449387196
 20
-14.88880696242363
 10
6.270659449387196
 20
-14.88880696242363
 10
6.245234644706052
 20
-14.88880696242363
 10
6.245234644706052
 20
-14.88880696242363
 10
6.245234644706052
 20
-14.88880696242363
 10
6.245234644706052
 20
-14.93097493116309
 10
6.245234644706052
 20
-14.93097493116309
 10
6.245234644706052
 20
-14.93097493116309
 10
6.231178655126232
 20
-14.93097493116309
 10
6.231178655126232
 20
-14.93097493116309
 10
6.231178655126232
 20
-14.93097493116309
 10
6.231178655126232
 20
-14.88880696242363
 10
6.231178655126232
 20
-14.88880696242363
 10
6.231178655126232
 20
-14.88880696242363
 10
6.152940536656208
 20
-14.88880696242363
 10
6.152940536656208
 20
-14.88880696242363
 10
6.152940536656208
 20
-14.88880696242363
 10
6.152940536656208
 20
-14.87404472826933
 10
6.152940536656208
 20
-14.87404472826933
 97
        0
 97
        1
330
AA
 75
     2
 76
     1
 98
        1
 10
0.0
 20
0.0
450
        0
451
        0
460
0.0
461
0.0
452
        0
462
0.0
453
        0
470

  0
ENDBLK
  5
A6
330
A3
100
AcDbEntity
  8
0
100
AcDbBlockEnd
  0
BLOCK
  5
AE
330
AC
100
AcDbEntity
  8
0
100
AcDbBlockBegin
  2
Block_7
 70
     0
 10
0.0
 20
0.0
 30
0.0
  3
Block_7
  1

  0
LINE
  5
B0
330
AC
100
AcDbEntity
  8
Livello 1
 62
    18
420
        0
370
     9
100
AcDbLine
 10
6.140604950607053
 20
-14.7243064795797
 30
0.0
 11
6.140604950607053
 21
-14.6715997077951
 31
0.0
  0
LWPOLYLINE
  5
B1
330
AC
100
AcDbEntity
  8
Livello 1
100
AcDbPolyline
 90
        3
 70
     1
 43
0.0
 10
6.13972786753558
 20
-14.4148869351118
 10
6.22470522409834
 20
-14.66978388785904
 10
6.056504677115766
 20
-14.66978388785904
  0
HATCH
  5
B2
330
AC
100
AcDbEntity
  8
Livello 1
 62
    18
420
        0
440
 33554687
100
AcDbHatch
 10
0.0
 20
0.0
 30
0.0
210
0.0
220
0.0
230
1.0
  2
SOLID
 70
     1
 71
     1
 91
        1
 92
        1
 93
        3
 72
     1
 10
6.13972786753558
 20
-14.4148869351118
 11
6.22470522409834
 21
-14.66978388785904
 72
     1
 10
6.22470522409834
 20
-14.66978388785904
 11
6.056504677115766
 21
-14.66978388785904
 72
     1
 10
6.056504677115766
 20
-14.66978388785904
 11
6.13972786753558
 21
-14.4148869351118
 97
        1
330
B1
 75
     0
 76
     1
 98
        1
 10
0.0
 20
0.0
450
        0
451
        0
460
0.0
461
0.0
452
        0
462
0.0
453
        0
470

  0
ENDBLK
  5
AF
330
AC
100
AcDbEntity
  8
0
100
AcDbBlockEnd
  0
BLOCK
  5
B5
330
B3
100
AcDbEntity
  8
0
100
AcDbBlockBegin
  2
Block_8
 70
     0
 10
0.0
 20
0.0
 30
0.0
  3
Block_8
  1

  0
LINE
  5
B7
330
B3
100
AcDbEntity
  8
Livello 1
 62
    18
420
        0
370
     9
100
AcDbLine
 10
6.140604950607053
 20
-15.01097234964649
 30
0.0
 11
6.140604950607053
 21
-15.05455991934982
 31
0.0
  0
LWPOLYLINE
  5
B8
330
B3
100
AcDbEntity
  8
Livello 1
100
AcDbPolyline
 90
        3
 70
     1
 43
0.0
 10
6.14148203367859
 20
-15.31127269203316
 10
6.056504677115766
 20
-15.05637573928592
 10
6.22470522409834
 20
-15.05637573928592
  0
HATCH
  5
B9
330
B3
100
AcDbEntity
  8
Livello 1
 62
    18
420
        0
440
 33554687
100
AcDbHatch
 10
0.0
 20
0.0
 30
0.0
210
0.0
220
0.0
230
1.0
  2
SOLID
 70
     1
 71
     1
 91
        1
 92
        1
 93
        3
 72
     1
 10
6.14148203367859
 20
-15.31127269203316
 11
6.056504677115766
 21
-15.05637573928592
 72
     1
 10
6.056504677115766
 20
-15.05637573928592
 11
6.22470522409834
 21
-15.05637573928592
 72
     1
 10
6.22470522409834
 20
-15.05637573928592
 11
6.14148203367859
 21
-15.31127269203316
 97
        1
330
B8
 75
     0
 76
     1
 98
        1
 10
0.0
 20
0.0
450
        0
451
        0
460
0.0
461
0.0
452
        0
462
0.0
453
        0
470

  0
ENDBLK
  5
B6
330
B3
100
AcDbEntity
  8
0
100
AcDbBlockEnd
  0
BLOCK
  5
BC
330
BA
100
AcDbEntity
  8
0
100
AcDbBlockBegin
  2
Block_9
 70
     0
 10
0.0
 20
0.0
 30
0.0
  3
Block_9
  1

  0
INSERT
  5
BF
330
BA
100
AcDbEntity
  8
Livello 1
100
AcDbBlockReference
  2
Block_10
 10
0.0
 20
0.0
 30
0.0
  0
INSERT
  5
CC
330
BA
100
AcDbEntity
  8
Livello 1
100
AcDbBlockReference
  2
Block_12
 10
0.0
 20
0.0
 30
0.0
  0
INSERT
  5
D3
330
BA
100
AcDbEntity
  8
Livello 1
100
AcDbBlockReference
  2
Block_13
 10
0.0
 20
0.0
 30
0.0
  0
ENDBLK
  5
BD
330
BA
100
AcDbEntity
  8
0
100
AcDbBlockEnd
  0
BLOCK
  5
C0
330
BE
100
AcDbEntity
  8
0
100
AcDbBlockBegin
  2
Block_10
 70
     0
 10
0.0
 20
0.0
 30
0.0
  3
Block_10
  1

  0
INSERT
  5
C3
330
BE
100
AcDbEntity
  8
Livello 1
100
AcDbBlockReference
  2
Block_11
 10
0.0
 20
0.0
 30
0.0
  0
ENDBLK
  5
C1
330
BE
100
AcDbEntity
  8
0
100
AcDbBlockEnd
  0
BLOCK
  5
C4
330
C2
100
AcDbEntity
  8
0
100
AcDbBlockBegin
  2
Block_11
 70
     0
 10
0.0
 20
0.0
 30
0.0
  3
Block_11
  1

  0
SPLINE
  5
C6
330
C2
100
AcDbEntity
  8
Livello 1
100
AcDbSpline
210
0.0
220
0.0
230
1.0
 70
    11
 71
     3
 72
    17
 73
    13
 74
     0
 42
0.000000001
 43
0.0000000001
 40
0.0
 40
0.0
 40
0.0
 40
0.0
 40
1.0
 40
1.0
 40
1.0
 40
2.0
 40
2.0
 40
2.0
 40
3.0
 40
3.0
 40
3.0
 40
4.0
 40
4.0
 40
4.0
 40
4.0
 10
14.665668127844
 20
-14.64062228366623
 30
0.0
 10
14.665668127844
 20
-14.64062228366623
 30
0.0
 10
14.665668127844
 20
-14.54832817561639
 30
0.0
 10
14.665668127844
 20
-14.54832817561639
 30
0.0
 10
14.665668127844
 20
-14.54832817561639
 30
0.0
 10
14.66518581447606
 20
-14.54832817561639
 30
0.0
 10
14.66518581447606
 20
-14.54832817561639
 30
0.0
 10
14.66518581447606
 20
-14.54832817561639
 30
0.0
 10
14.60124484226982
 20
-14.64062228366623
 30
0.0
 10
14.60124484226982
 20
-14.64062228366623
 30
0.0
 10
14.60124484226982
 20
-14.64062228366623
 30
0.0
 10
14.665668127844
 20
-14.64062228366623
 30
0.0
 10
14.665668127844
 20
-14.64062228366623
 30
0.0
  0
SPLINE
  5
C7
330
C2
100
AcDbEntity
  8
Livello 1
100
AcDbSpline
210
0.0
220
0.0
230
1.0
 70
    11
 71
     3
 72
    38
 73
    34
 74
     0
 42
0.000000001
 43
0.0000000001
 40
0.0
 40
0.0
 40
0.0
 40
0.0
 40
1.0
 40
1.0
 40
1.0
 40
2.0
 40
2.0
 40
2.0
 40
3.0
 40
3.0
 40
3.0
 40
4.0
 40
4.0
 40
4.0
 40
5.0
 40
5.0
 40
5.0
 40
6.0
 40
6.0
 40
6.0
 40
7.0
 40
7.0
 40
7.0
 40
8.0
 40
8.0
 40
8.0
 40
9.0
 40
9.0
 40
9.0
 40
10.0
 40
10.0
 40
10.0
 40
11.0
 40
11.0
 40
11.0
 40
11.0
 10
14.58743000937397
 20
-14.63867580471706
 30
0.0
 10
14.58743000937397
 20
-14.63867580471706
 30
0.0
 10
14.66590928452796
 20
-14.52603840782682
 30
0.0
 10
14.66590928452796
 20
-14.52603840782682
 30
0.0
 10
14.66590928452796
 20
-14.52603840782682
 30
0.0
 10
14.67972411742382
 20
-14.52603840782682
 30
0.0
 10
14.67972411742382
 20
-14.52603840782682
 30
0.0
 10
14.67972411742382
 20
-14.52603840782682
 30
0.0
 10
14.67972411742382
 20
-14.64062228366623
 30
0.0
 10
14.67972411742382
 20
-14.64062228366623
 30
0.0
 10
14.67972411742382
 20
-14.64062228366623
 30
0.0
 10
14.70514892210496
 20
-14.64062228366623
 30
0.0
 10
14.70514892210496
 20
-14.64062228366623
 30
0.0
 10
14.70514892210496
 20
-14.64062228366623
 30
0.0
 10
14.70514892210496
 20
-14.65345526434879
 30
0.0
 10
14.70514892210496
 20
-14.65345526434879
 30
0.0
 10
14.70514892210496
 20
-14.65345526434879
 30
0.0
 10
14.67972411742382
 20
-14.65345526434879
 30
0.0
 10
14.67972411742382
 20
-14.65345526434879
 30
0.0
 10
14.67972411742382
 20
-14.65345526434879
 30
0.0
 10
14.67972411742382
 20
-14.69560600761082
 30
0.0
 10
14.67972411742382
 20
-14.69560600761082
 30
0.0
 10
14.67972411742382
 20
-14.69560600761082
 30
0.0
 10
14.665668127844
 20
-14.69560600761082
 30
0.0
 10
14.665668127844
 20
-14.69560600761082
 30
0.0
 10
14.665668127844
 20
-14.69560600761082
 30
0.0
 10
14.665668127844
 20
-14.65345526434879
 30
0.0
 10
14.665668127844
 20
-14.65345526434879
 30
0.0
 10
14.665668127844
 20
-14.65345526434879
 30
0.0
 10
14.58743000937397
 20
-14.65345526434879
 30
0.0
 10
14.58743000937397
 20
-14.65345526434879
 30
0.0
 10
14.58743000937397
 20
-14.65345526434879
 30
0.0
 10
14.58743000937397
 20
-14.63867580471706
 30
0.0
 10
14.58743000937397
 20
-14.63867580471706
 30
0.0
  0
HATCH
  5
C8
330
C2
100
AcDbEntity
  8
Livello 1
 62
    18
420
        0
440
 33554687
100
AcDbHatch
 10
0.0
 20
0.0
 30
0.0
210
0.0
220
0.0
230
1.0
  2
SOLID
 70
     1
 71
     1
 91
        2
 92
        1
 93
        1
 72
     4
 94
        3
 73
     0
 74
     0
 95
       17
 96
       13
 40
0.0
 40
0.0
 40
0.0
 40
0.0
 40
1.0
 40
1.0
 40
1.0
 40
2.0
 40
2.0
 40
2.0
 40
3.0
 40
3.0
 40
3.0
 40
4.0
 40
4.0
 40
4.0
 40
4.0
 10
14.665668127844
 20
-14.64062228366623
 10
14.665668127844
 20
-14.64062228366623
 10
14.665668127844
 20
-14.54832817561639
 10
14.665668127844
 20
-14.54832817561639
 10
14.665668127844
 20
-14.54832817561639
 10
14.66518581447606
 20
-14.54832817561639
 10
14.66518581447606
 20
-14.54832817561639
 10
14.66518581447606
 20
-14.54832817561639
 10
14.60124484226982
 20
-14.64062228366623
 10
14.60124484226982
 20
-14.64062228366623
 10
14.60124484226982
 20
-14.64062228366623
 10
14.665668127844
 20
-14.64062228366623
 10
14.665668127844
 20
-14.64062228366623
 97
        0
 97
        1
330
C6
 92
        1
 93
        1
 72
     4
 94
        3
 73
     0
 74
     0
 95
       38
 96
       34
 40
0.0
 40
0.0
 40
0.0
 40
0.0
 40
1.0
 40
1.0
 40
1.0
 40
2.0
 40
2.0
 40
2.0
 40
3.0
 40
3.0
 40
3.0
 40
4.0
 40
4.0
 40
4.0
 40
5.0
 40
5.0
 40
5.0
 40
6.0
 40
6.0
 40
6.0
 40
7.0
 40
7.0
 40
7.0
 40
8.0
 40
8.0
 40
8.0
 40
9.0
 40
9.0
 40
9.0
 40
10.0
 40
10.0
 40
10.0
 40
11.0
 40
11.0
 40
11.0
 40
11.0
 10
14.58743000937397
 20
-14.63867580471706
 10
14.58743000937397
 20
-14.63867580471706
 10
14.66590928452796
 20
-14.52603840782682
 10
14.66590928452796
 20
-14.52603840782682
 10
14.66590928452796
 20
-14.52603840782682
 10
14.67972411742382
 20
-14.52603840782682
 10
14.67972411742382
 20
-14.52603840782682
 10
14.67972411742382
 20
-14.52603840782682
 10
14.67972411742382
 20
-14.64062228366623
 10
14.67972411742382
 20
-14.64062228366623
 10
14.67972411742382
 20
-14.64062228366623
 10
14.70514892210496
 20
-14.64062228366623
 10
14.70514892210496
 20
-14.64062228366623
 10
14.70514892210496
 20
-14.64062228366623
 10
14.70514892210496
 20
-14.65345526434879
 10
14.70514892210496
 20
-14.65345526434879
 10
14.70514892210496
 20
-14.65345526434879
 10
14.67972411742382
 20
-14.65345526434879
 10
14.67972411742382
 20
-14.65345526434879
 10
14.67972411742382
 20
-14.65345526434879
 10
14.67972411742382
 20
-14.69560600761082
 10
14.67972411742382
 20
-14.69560600761082
 10
14.67972411742382
 20
-14.69560600761082
 10
14.665668127844
 20
-14.69560600761082
 10
14.665668127844
 20
-14.69560600761082
 10
14.665668127844
 20
-14.69560600761082
 10
14.665668127844
 20
-14.65345526434879
 10
14.665668127844
 20
-14.65345526434879
 10
14.665668127844
 20
-14.65345526434879
 10
14.58743000937397
 20
-14.65345526434879
 10
14.58743000937397
 20
-14.65345526434879
 10
14.58743000937397
 20
-14.65345526434879
 10
14.58743000937397
 20
-14.63867580471706
 10
14.58743000937397
 20
-14.63867580471706
 97
        0
 97
        1
330
C7
 75
     2
 76
     1
 98
        1
 10
0.0
 20
0.0
450
        0
451
        0
460
0.0
461
0.0
452
        0
462
0.0
453
        0
470

  0
SPLINE
  5
C9
330
C2
100
AcDbEntity
  8
Livello 1
100
AcDbSpline
210
0.0
220
0.0
230
1.0
 70
    11
 71
     3
 72
    41
 73
    37
 74
     0
 42
0.000000001
 43
0.0000000001
 40
0.0
 40
0.0
 40
0.0
 40
0.0
 40
1.0
 40
1.0
 40
1.0
 40
2.0
 40
2.0
 40
2.0
 40
3.0
 40
3.0
 40
3.0
 40
4.0
 40
4.0
 40
4.0
 40
5.0
 40
5.0
 40
5.0
 40
6.0
 40
6.0
 40
6.0
 40
7.0
 40
7.0
 40
7.0
 40
8.0
 40
8.0
 40
8.0
 40
9.0
 40
9.0
 40
9.0
 40
10.0
 40
10.0
 40
10.0
 40
11.0
 40
11.0
 40
11.0
 40
12.0
 40
12.0
 40
12.0
 40
12.0
 10
14.83509792380858
 20
-14.69560600761082
 30
0.0
 10
14.83509792380858
 20
-14.69560600761082
 30
0.0
 10
14.72344237913164
 20
-14.69560600761082
 30
0.0
 10
14.72344237913164
 20
-14.69560600761082
 30
0.0
 10
14.72464816255147
 20
-14.64522148613904
 30
0.0
 10
14.77625569292052
 20
-14.63287081882442
 30
0.0
 10
14.80505669117721
 20
-14.60403536961288
 30
0.0
 10
14.81428954707767
 20
-14.59459580798329
 30
0.0
 10
14.81911268075702
 20
-14.58563855972164
 30
0.0
 10
14.81911268075702
 20
-14.57206488350976
 30
0.0
 10
14.81911268075702
 20
-14.55001627240416
 30
0.0
 10
14.80168049760166
 20
-14.53742444840557
 30
0.0
 10
14.78107882659987
 20
-14.53742444840557
 30
0.0
 10
14.75324245507905
 20
-14.53742444840557
 30
0.0
 10
14.7423215023908
 20
-14.55971421619514
 30
0.0
 10
14.74280381575874
 20
-14.58465670750835
 30
0.0
 10
14.74280381575874
 20
-14.58465670750835
 30
0.0
 10
14.72754204275908
 20
-14.58465670750835
 30
0.0
 10
14.72754204275908
 20
-14.58465670750835
 30
0.0
 10
14.72681857270718
 20
-14.54977511572019
 30
0.0
 10
14.7450086768693
 20
-14.52459146772302
 30
0.0
 10
14.78180229665177
 20
-14.52459146772302
 30
0.0
 10
14.81136121591521
 20
-14.52459146772302
 30
0.0
 10
14.83437445375668
 20
-14.54081786745854
 30
0.0
 10
14.83437445375668
 20
-14.57230604019373
 30
0.0
 10
14.83437445375668
 20
-14.60065917603733
 30
0.0
 10
14.81380723370974
 20
-14.61833251587666
 30
0.0
 10
14.79175862260414
 20
-14.63262966214045
 30
0.0
 10
14.77529106618464
 20
-14.64377454603523
 30
0.0
 10
14.7450086768693
 20
-14.6587779368735
 30
0.0
 10
14.740874562287
 20
-14.681550018031
 30
0.0
 10
14.740874562287
 20
-14.681550018031
 30
0.0
 10
14.83509792380858
 20
-14.681550018031
 30
0.0
 10
14.83509792380858
 20
-14.681550018031
 30
0.0
 10
14.83509792380858
 20
-14.681550018031
 30
0.0
 10
14.83509792380858
 20
-14.69560600761082
 30
0.0
 10
14.83509792380858
 20
-14.69560600761082
 30
0.0
  0
HATCH
  5
CA
330
C2
100
AcDbEntity
  8
Livello 1
 62
    18
420
        0
440
 33554687
100
AcDbHatch
 10
0.0
 20
0.0
 30
0.0
210
0.0
220
0.0
230
1.0
  2
SOLID
 70
     1
 71
     1
 91
        1
 92
        1
 93
        1
 72
     4
 94
        3
 73
     0
 74
     0
 95
       41
 96
       37
 40
0.0
 40
0.0
 40
0.0
 40
0.0
 40
1.0
 40
1.0
 40
1.0
 40
2.0
 40
2.0
 40
2.0
 40
3.0
 40
3.0
 40
3.0
 40
4.0
 40
4.0
 40
4.0
 40
5.0
 40
5.0
 40
5.0
 40
6.0
 40
6.0
 40
6.0
 40
7.0
 40
7.0
 40
7.0
 40
8.0
 40
8.0
 40
8.0
 40
9.0
 40
9.0
 40
9.0
 40
10.0
 40
10.0
 40
10.0
 40
11.0
 40
11.0
 40
11.0
 40
12.0
 40
12.0
 40
12.0
 40
12.0
 10
14.83509792380858
 20
-14.69560600761082
 10
14.83509792380858
 20
-14.69560600761082
 10
14.72344237913164
 20
-14.69560600761082
 10
14.72344237913164
 20
-14.69560600761082
 10
14.72464816255147
 20
-14.64522148613904
 10
14.77625569292052
 20
-14.63287081882442
 10
14.80505669117721
 20
-14.60403536961288
 10
14.81428954707767
 20
-14.59459580798329
 10
14.81911268075702
 20
-14.58563855972164
 10
14.81911268075702
 20
-14.57206488350976
 10
14.81911268075702
 20
-14.55001627240416
 10
14.80168049760166
 20
-14.53742444840557
 10
14.78107882659987
 20
-14.53742444840557
 10
14.75324245507905
 20
-14.53742444840557
 10
14.7423215023908
 20
-14.55971421619514
 10
14.74280381575874
 20
-14.58465670750835
 10
14.74280381575874
 20
-14.58465670750835
 10
14.72754204275908
 20
-14.58465670750835
 10
14.72754204275908
 20
-14.58465670750835
 10
14.72681857270718
 20
-14.54977511572019
 10
14.7450086768693
 20
-14.52459146772302
 10
14.78180229665177
 20
-14.52459146772302
 10
14.81136121591521
 20
-14.52459146772302
 10
14.83437445375668
 20
-14.54081786745854
 10
14.83437445375668
 20
-14.57230604019373
 10
14.83437445375668
 20
-14.60065917603733
 10
14.81380723370974
 20
-14.61833251587666
 10
14.79175862260414
 20
-14.63262966214045
 10
14.77529106618464
 20
-14.64377454603523
 10
14.7450086768693
 20
-14.6587779368735
 10
14.740874562287
 20
-14.681550018031
 10
14.740874562287
 20
-14.681550018031
 10
14.83509792380858
 20
-14.681550018031
 10
14.83509792380858
 20
-14.681550018031
 10
14.83509792380858
 20
-14.681550018031
 10
14.83509792380858
 20
-14.69560600761082
 10
14.83509792380858
 20
-14.69560600761082
 97
        0
 97
        1
330
C9
 75
     2
 76
     1
 98
        1
 10
0.0
 20
0.0
450
        0
451
        0
460
0.0
461
0.0
452
        0
462
0.0
453
        0
470

  0
ENDBLK
  5
C5
330
C2
100
AcDbEntity
  8
0
100
AcDbBlockEnd
  0
BLOCK
  5
CD
330
CB
100
AcDbEntity
  8
0
100
AcDbBlockBegin
  2
Block_12
 70
     0
 10
0.0
 20
0.0
 30
0.0
  3
Block_12
  1

  0
LINE
  5
CF
330
CB
100
AcDbEntity
  8
Livello 1
 62
    18
420
        0
370
     9
100
AcDbLine
 10
14.70965732794753
 20
-14.38311003275491
 30
0.0
 11
14.70965732794753
 21
-14.33040326097028
 31
0.0
  0
LWPOLYLINE
  5
D0
330
CB
100
AcDbEntity
  8
Livello 1
100
AcDbPolyline
 90
        3
 70
     1
 43
0.0
 10
14.70878024487606
 20
-14.07369048828701
 10
14.79375760143876
 20
-14.32858744103421
 10
14.62555705445618
 20
-14.32858744103421
  0
HATCH
  5
D1
330
CB
100
AcDbEntity
  8
Livello 1
 62
    18
420
        0
440
 33554687
100
AcDbHatch
 10
0.0
 20
0.0
 30
0.0
210
0.0
220
0.0
230
1.0
  2
SOLID
 70
     1
 71
     1
 91
        1
 92
        1
 93
        3
 72
     1
 10
14.70878024487606
 20
-14.07369048828701
 11
14.79375760143876
 21
-14.32858744103421
 72
     1
 10
14.79375760143876
 20
-14.32858744103421
 11
14.62555705445618
 21
-14.32858744103421
 72
     1
 10
14.62555705445618
 20
-14.32858744103421
 11
14.70878024487606
 21
-14.07369048828701
 97
        1
330
D0
 75
     0
 76
     1
 98
        1
 10
0.0
 20
0.0
450
        0
451
        0
460
0.0
461
0.0
452
        0
462
0.0
453
        0
470

  0
ENDBLK
  5
CE
330
CB
100
AcDbEntity
  8
0
100
AcDbBlockEnd
  0
BLOCK
  5
D4
330
D2
100
AcDbEntity
  8
0
100
AcDbBlockBegin
  2
Block_13
 70
     0
 10
0.0
 20
0.0
 30
0.0
  3
Block_13
  1

  0
LINE
  5
D6
330
D2
100
AcDbEntity
  8
Livello 1
 62
    18
420
        0
370
     9
100
AcDbLine
 10
14.70965732794753
 20
-14.77560923612854
 30
0.0
 11
14.70965732794753
 21
-14.81919680583184
 31
0.0
  0
LWPOLYLINE
  5
D7
330
D2
100
AcDbEntity
  8
Livello 1
100
AcDbPolyline
 90
        3
 70
     1
 43
0.0
 10
14.71053441101901
 20
-15.07590957851524
 10
14.62555705445618
 20
-14.821012625768
 10
14.79375760143876
 20
-14.821012625768
  0
HATCH
  5
D8
330
D2
100
AcDbEntity
  8
Livello 1
 62
    18
420
        0
440
 33554687
100
AcDbHatch
 10
0.0
 20
0.0
 30
0.0
210
0.0
220
0.0
230
1.0
  2
SOLID
 70
     1
 71
     1
 91
        1
 92
        1
 93
        3
 72
     1
 10
14.71053441101901
 20
-15.07590957851524
 11
14.62555705445618
 21
-14.821012625768
 72
     1
 10
14.62555705445618
 20
-14.821012625768
 11
14.79375760143876
 21
-14.821012625768
 72
     1
 10
14.79375760143876
 20
-14.821012625768
 11
14.71053441101901
 21
-15.07590957851524
 97
        1
330
D7
 75
     0
 76
     1
 98
        1
 10
0.0
 20
0.0
450
        0
451
        0
460
0.0
461
0.0
452
        0
462
0.0
453
        0
470

  0
ENDBLK
  5
D5
330
D2
100
AcDbEntity
  8
0
100
AcDbBlockEnd
  0
ENDSEC
  0
SECTION
  2
ENTITIES
  0
LINE
  5
D9
330
70
100
AcDbEntity
  8
Livello 1
370
     9
100
AcDbLine
 10
7.312513532542521
 20
-14.78689455412865
 30
0.0
 11
7.264115130019691
 21
-14.92635695698877
 31
0.0
  0
LINE
  5
DA
330
70
100
AcDbEntity
  8
Livello 1
370
     9
100
AcDbLine
 10
13.60690604281775
 20
-14.78689455412865
 30
0.0
 11
7.312513532542521
 21
-14.78689455412865
 31
0.0
  0
LINE
  5
DB
330
70
100
AcDbEntity
  8
Livello 1
370
     9
100
AcDbLine
 10
11.01240234437082
 20
-14.78689455412865
 30
0.0
 11
11.0056667856052
 21
-14.78689455412865
 31
0.0
  0
LINE
  5
DC
330
70
100
AcDbEntity
  8
Livello 1
370
     9
100
AcDbLine
 10
10.91668847057071
 20
-14.78689455412865
 30
0.0
 11
10.90759593204339
 21
-14.78689455412865
 31
0.0
  0
LINE
  5
DD
330
70
100
AcDbEntity
  8
Livello 1
370
     9
100
AcDbLine
 10
10.88612226267319
 20
-14.78689455412865
 30
0.0
 11
10.8701078428696
 21
-14.78689455412865
 31
0.0
  0
LINE
  5
DE
330
70
100
AcDbEntity
  8
Livello 1
370
     9
100
AcDbLine
 10
10.69779678487788
 20
-14.78689455412865
 30
0.0
 11
10.65976836042269
 21
-14.78689455412865
 31
0.0
  0
LINE
  5
DF
330
70
100
AcDbEntity
  8
Livello 1
370
     9
100
AcDbLine
 10
13.60690604281775
 20
-14.78689455412865
 30
0.0
 11
13.65530460557302
 21
-14.92635695698877
 31
0.0
  0
LINE
  5
E0
330
70
100
AcDbEntity
  8
Livello 1
370
     9
100
AcDbLine
 10
12.74079516746976
 20
-14.91908106275809
 30
0.0
 11
12.74079516746976
 21
-14.92181068761025
 31
0.0
  0
LINE
  5
E1
330
70
100
AcDbEntity
  8
Livello 1
370
     9
100
AcDbLine
 10
12.7440744436599
 20
-14.91726441823179
 30
0.0
 11
12.76426248770553
 21
-14.91726441823179
 31
0.0
  0
SPLINE
  5
E2
330
70
100
AcDbEntity
  8
Livello 1
370
     9
100
AcDbSpline
210
0.0
220
0.0
230
1.0
 70
     8
 71
     3
 72
     8
 73
     4
 74
     0
 42
0.000000001
 43
0.0000000001
 40
0.0
 40
0.0
 40
0.0
 40
0.0
 40
1.0
 40
1.0
 40
1.0
 40
1.0
 10
12.74079516746976
 20
-14.91908106275809
 30
0.0
 10
12.74079516746976
 20
-14.91844756620532
 30
0.0
 10
12.74134481887659
 20
-14.9178047535268
 30
0.0
 10
12.74261181195011
 20
-14.91726441823179
 30
0.0
  0
LINE
  5
E3
330
70
100
AcDbEntity
  8
Livello 1
370
     9
100
AcDbLine
 10
12.87143519592008
 20
-14.91726441823179
 30
0.0
 11
12.89399885197852
 21
-14.91726441823179
 31
0.0
  0
SPLINE
  5
E4
330
70
100
AcDbEntity
  8
Livello 1
370
     9
100
AcDbSpline
210
0.0
220
0.0
230
1.0
 70
     8
 71
     3
 72
     8
 73
     4
 74
     0
 42
0.000000001
 43
0.0000000001
 40
0.0
 40
0.0
 40
0.0
 40
0.0
 40
1.0
 40
1.0
 40
1.0
 40
1.0
 10
12.89399885197852
 20
-14.91726441823179
 30
0.0
 10
12.89546148368831
 20
-14.9178047535268
 30
0.0
 10
12.89582481258443
 20
-14.91835440494756
 30
0.0
 10
12.89582481258443
 20
-14.91908106275809
 30
0.0
  0
SPLINE
  5
E5
330
70
100
AcDbEntity
  8
Livello 1
370
     9
100
AcDbSpline
210
0.0
220
0.0
230
1.0
 70
     8
 71
     3
 72
     8
 73
     4
 74
     0
 42
0.000000001
 43
0.0000000001
 40
0.0
 40
0.0
 40
0.0
 40
0.0
 40
1.0
 40
1.0
 40
1.0
 40
1.0
 10
12.86870557113684
 20
-14.91653776042133
 30
0.0
 10
12.86998188033585
 20
-14.91653776042133
 30
0.0
 10
12.87070853812797
 20
-14.91690108932656
 30
0.0
 10
12.87143519592008
 20
-14.91726441823179
 30
0.0
  0
LINE
  5
E6
330
70
100
AcDbEntity
  8
Livello 1
370
     9
100
AcDbLine
 10
10.45962071931676
 20
-14.92181068761025
 30
0.0
 11
6.845802461013088
 21
-14.92181068761025
 31
0.0
  0
SPLINE
  5
E7
330
70
100
AcDbEntity
  8
Livello 1
370
     9
100
AcDbSpline
210
0.0
220
0.0
230
1.0
 70
    24
 71
     3
 72
    26
 73
    22
 74
     0
 42
0.000000001
 43
0.0000000001
 40
0.0
 40
0.0
 40
0.0
 40
0.0
 40
1.0
 40
1.0
 40
1.0
 40
2.0
 40
2.0
 40
2.0
 40
3.0
 40
3.0
 40
3.0
 40
4.0
 40
4.0
 40
4.0
 40
5.0
 40
5.0
 40
5.0
 40
6.0
 40
6.0
 40
6.0
 40
7.0
 40
7.0
 40
7.0
 40
7.0
 10
14.07380230651656
 20
-14.92181068761025
 30
0.0
 10
14.07507861571557
 20
-14.92181068761025
 30
0.0
 10
14.0723489909322
 20
-14.92181068761025
 30
0.0
 10
14.07179933952536
 20
-14.92181068761025
 30
0.0
 10
14.06634008995881
 20
-14.92181068761025
 30
0.0
 10
14.06106716290304
 20
-14.92181068761025
 30
0.0
 10
14.05578491972171
 20
-14.92181068761025
 30
0.0
 10
14.02976498108791
 20
-14.92181068761025
 30
0.0
 10
14.0039313649649
 20
-14.92181068761025
 30
0.0
 10
13.97808843271638
 20
-14.92181068761025
 30
0.0
 10
13.85982021898338
 20
-14.92181068761025
 30
0.0
 10
13.74191533414645
 20
-14.92181068761025
 30
0.0
 10
13.62382412679873
 20
-14.92181068761025
 30
0.0
 10
13.4729880241453
 20
-14.92181068761025
 30
0.0
 10
13.32232635594086
 20
-14.92181068761025
 30
0.0
 10
13.17184298008978
 20
-14.92181068761025
 30
0.0
 10
12.87053153174275
 20
-14.92181068761025
 30
0.0
 10
12.5692107672701
 20
-14.92181068761025
 30
0.0
 10
12.26807632530828
 20
-14.92181068761025
 30
0.0
 10
11.66525778997782
 20
-14.92181068761025
 30
0.0
 10
11.06244047971987
 20
-14.92181068761025
 30
0.0
 10
10.45962071931676
 20
-14.92181068761025
 30
0.0
  0
LINE
  5
E8
330
70
100
AcDbEntity
  8
Livello 1
370
     9
100
AcDbLine
 10
13.87291869149289
 20
-14.91908106275809
 30
0.0
 11
13.87291869149289
 21
-14.92181068761025
 31
0.0
  0
LINE
  5
E9
330
70
100
AcDbEntity
  8
Livello 1
370
     9
100
AcDbLine
 10
13.717712039993
 20
-14.91908106275809
 30
0.0
 11
13.717712039993
 21
-14.92181068761025
 31
0.0
  0
SPLINE
  5
EA
330
70
100
AcDbEntity
  8
Livello 1
370
     9
100
AcDbSpline
210
0.0
220
0.0
230
1.0
 70
     8
 71
     3
 72
     8
 73
     4
 74
     0
 42
0.000000001
 43
0.0000000001
 40
0.0
 40
0.0
 40
0.0
 40
0.0
 40
1.0
 40
1.0
 40
1.0
 40
1.0
 10
13.74136568273955
 20
-14.91726441823179
 30
0.0
 10
13.74209234053173
 20
-14.91671476681103
 30
0.0
 10
13.7428283144494
 20
-14.91653776042133
 30
0.0
 10
13.7442816300337
 20
-14.91653776042133
 30
0.0
  0
LINE
  5
EB
330
70
100
AcDbEntity
  8
Livello 1
370
     9
100
AcDbLine
 10
10.5311219828379
 20
-14.91653776042133
 30
0.0
 11
10.51256426076181
 21
-14.91653776042133
 31
0.0
  0
LINE
  5
EC
330
70
100
AcDbEntity
  8
Livello 1
370
     9
100
AcDbLine
 10
10.51019796487463
 20
-14.91653776042133
 30
0.0
 11
10.40922048014424
 21
-14.91653776042133
 31
0.0
  0
LINE
  5
ED
330
70
100
AcDbEntity
  8
Livello 1
370
     9
100
AcDbLine
 10
10.40594120395403
 20
-14.91653776042133
 30
0.0
 11
10.39338306672586
 21
-14.91653776042133
 31
0.0
  0
SPLINE
  5
EE
330
70
100
AcDbEntity
  8
Livello 1
370
     9
100
AcDbSpline
210
0.0
220
0.0
230
1.0
 70
     8
 71
     3
 72
     8
 73
     4
 74
     0
 42
0.000000001
 43
0.0000000001
 40
0.0
 40
0.0
 40
0.0
 40
0.0
 40
1.0
 40
1.0
 40
1.0
 40
1.0
 10
10.38392719930256
 20
-14.91726441823179
 30
0.0
 10
10.38265089010354
 20
-14.9178047535268
 30
0.0
 10
10.38228756120748
 20
-14.91835440494756
 30
0.0
 10
10.38228756120748
 20
-14.91908106275809
 30
0.0
  0
SPLINE
  5
EF
330
70
100
AcDbEntity
  8
Livello 1
370
     9
100
AcDbSpline
210
0.0
220
0.0
230
1.0
 70
    24
 71
     3
 72
    17
 73
    13
 74
     0
 42
0.000000001
 43
0.0000000001
 40
0.0
 40
0.0
 40
0.0
 40
0.0
 40
1.0
 40
1.0
 40
1.0
 40
2.0
 40
2.0
 40
2.0
 40
3.0
 40
3.0
 40
3.0
 40
4.0
 40
4.0
 40
4.0
 40
4.0
 10
13.71953800059891
 20
-14.91726441823179
 30
0.0
 10
13.717712039993
 20
-14.91726441823179
 30
0.0
 10
13.72135593732175
 20
-14.91726441823179
 30
0.0
 10
13.72226762538216
 20
-14.91726441823179
 30
0.0
 10
13.72317128955955
 20
-14.91726441823179
 30
0.0
 10
13.72408426986251
 20
-14.91726441823179
 30
0.0
 10
13.72481092765462
 20
-14.91726441823179
 30
0.0
 10
13.72681389464575
 20
-14.91726441823179
 30
0.0
 10
13.72845353274088
 20
-14.91726441823179
 30
0.0
 10
13.73027017722123
 20
-14.91726441823179
 30
0.0
 10
13.73408978869271
 20
-14.91726441823179
 30
0.0
 10
13.73754607126807
 20
-14.91726441823179
 30
0.0
 10
13.74136568273955
 20
-14.91726441823179
 30
0.0
  0
SPLINE
  5
F0
330
70
100
AcDbEntity
  8
Livello 1
370
     9
100
AcDbSpline
210
0.0
220
0.0
230
1.0
 70
     8
 71
     3
 72
     8
 73
     4
 74
     0
 42
0.000000001
 43
0.0000000001
 40
0.0
 40
0.0
 40
0.0
 40
0.0
 40
1.0
 40
1.0
 40
1.0
 40
1.0
 10
10.53731720632216
 20
-14.91908106275809
 30
0.0
 10
10.53731720632216
 20
-14.91726441823179
 30
0.0
 10
10.535314239331
 20
-14.91653776042133
 30
0.0
 10
10.5311219828379
 20
-14.91653776042133
 30
0.0
  0
LINE
  5
F1
330
70
100
AcDbEntity
  8
Livello 1
370
     9
100
AcDbLine
 10
10.53731720632216
 20
-14.91908106275809
 30
0.0
 11
10.53731720632216
 21
-14.92181068761025
 31
0.0
  0
LINE
  5
F2
330
70
100
AcDbEntity
  8
Livello 1
370
     9
100
AcDbLine
 10
10.38228756120748
 20
-14.92181068761025
 30
0.0
 11
10.38228756120748
 21
-14.91908106275809
 31
0.0
  0
LINE
  5
F3
330
70
100
AcDbEntity
  8
Livello 1
370
     9
100
AcDbLine
 10
8.151513352227073
 20
-14.91653776042133
 30
0.0
 11
8.050526551371154
 21
-14.91653776042133
 31
0.0
  0
LINE
  5
F4
330
70
100
AcDbEntity
  8
Livello 1
370
     9
100
AcDbLine
 10
8.048160255483969
 20
-14.91653776042133
 30
0.0
 11
8.03124217150292
 21
-14.91653776042133
 31
0.0
  0
SPLINE
  5
F5
330
70
100
AcDbEntity
  8
Livello 1
370
     9
100
AcDbSpline
210
0.0
220
0.0
230
1.0
 70
     8
 71
     3
 72
     8
 73
     4
 74
     0
 42
0.000000001
 43
0.0000000001
 40
0.0
 40
0.0
 40
0.0
 40
0.0
 40
1.0
 40
1.0
 40
1.0
 40
1.0
 10
13.717712039993
 20
-14.91908106275809
 30
0.0
 10
13.717712039993
 20
-14.91844756620532
 30
0.0
 10
13.71807536888906
 20
-14.9178047535268
 30
0.0
 10
13.71953800059891
 20
-14.91726441823179
 30
0.0
  0
LINE
  5
F6
330
70
100
AcDbEntity
  8
Livello 1
370
     9
100
AcDbLine
 10
13.84926634422011
 20
-14.91726441823179
 30
0.0
 11
13.87110204701254
 21
-14.91726441823179
 31
0.0
  0
SPLINE
  5
F7
330
70
100
AcDbEntity
  8
Livello 1
370
     9
100
AcDbSpline
210
0.0
220
0.0
230
1.0
 70
    24
 71
     3
 72
    20
 73
    16
 74
     0
 42
0.000000001
 43
0.0000000001
 40
0.0
 40
0.0
 40
0.0
 40
0.0
 40
1.0
 40
1.0
 40
1.0
 40
2.0
 40
2.0
 40
2.0
 40
3.0
 40
3.0
 40
3.0
 40
4.0
 40
4.0
 40
4.0
 40
5.0
 40
5.0
 40
5.0
 40
5.0
 10
8.171161060991364
 20
-14.91653776042133
 30
0.0
 10
8.171524389887453
 20
-14.91653776042133
 30
0.0
 10
8.172074041294321
 20
-14.91653776042133
 30
0.0
 10
8.172614376575657
 20
-14.91653776042133
 30
0.0
 10
8.173350350493336
 20
-14.91653776042133
 30
0.0
 10
8.171710712398231
 20
-14.91653776042133
 30
0.0
 10
8.171347383502174
 20
-14.91653776042133
 30
0.0
 10
8.170249232698127
 20
-14.91653776042133
 30
0.0
 10
8.169344416511046
 20
-14.91653776042133
 30
0.0
 10
8.16843143620809
 20
-14.91653776042133
 30
0.0
 10
8.16661594364576
 20
-14.91653776042133
 30
0.0
 10
8.164798147247422
 20
-14.91653776042133
 30
0.0
 10
8.162796332077675
 20
-14.91653776042133
 30
0.0
 10
8.159152575170031
 20
-14.91653776042133
 30
0.0
 10
8.155332963698551
 20
-14.91653776042133
 30
0.0
 10
8.151513352227073
 20
-14.91653776042133
 30
0.0
  0
SPLINE
  5
F8
330
70
100
AcDbEntity
  8
Livello 1
370
     9
100
AcDbSpline
210
0.0
220
0.0
230
1.0
 70
     8
 71
     3
 72
     8
 73
     4
 74
     0
 42
0.000000001
 43
0.0000000001
 40
0.0
 40
0.0
 40
0.0
 40
0.0
 40
1.0
 40
1.0
 40
1.0
 40
1.0
 10
13.84580876617092
 20
-14.91653776042133
 30
0.0
 10
13.84708507536993
 20
-14.91653776042133
 30
0.0
 10
13.84763472677677
 20
-14.91690108932656
 30
0.0
 10
13.84836138456888
 20
-14.91726441823179
 30
0.0
  0
SPLINE
  5
F9
330
70
100
AcDbEntity
  8
Livello 1
370
     9
100
AcDbSpline
210
0.0
220
0.0
230
1.0
 70
     8
 71
     3
 72
     8
 73
     4
 74
     0
 42
0.000000001
 43
0.0000000001
 40
0.0
 40
0.0
 40
0.0
 40
0.0
 40
1.0
 40
1.0
 40
1.0
 40
1.0
 10
13.87110204701254
 20
-14.91726441823179
 30
0.0
 10
13.87237835621155
 20
-14.9178047535268
 30
0.0
 10
13.87274298117456
 20
-14.91835440494756
 30
0.0
 10
13.87274298117456
 20
-14.91908106275809
 30
0.0
  0
LINE
  5
FA
330
70
100
AcDbEntity
  8
Livello 1
370
     9
100
AcDbLine
 10
7.124373246916525
 20
-14.91653776042133
 30
0.0
 11
7.053952653958059
 21
-14.91653776042133
 31
0.0
  0
LINE
  5
FB
330
70
100
AcDbEntity
  8
Livello 1
370
     9
100
AcDbLine
 10
7.046676759911159
 20
-14.91908106275809
 30
0.0
 11
7.046676759911159
 21
-14.92181068761025
 31
0.0
  0
LINE
  5
FC
330
70
100
AcDbEntity
  8
Livello 1
370
     9
100
AcDbLine
 10
7.201706405025833
 20
-14.91908106275809
 30
0.0
 11
7.201706405025833
 21
-14.92181068761025
 31
0.0
  0
SPLINE
  5
FD
330
70
100
AcDbEntity
  8
Livello 1
370
     9
100
AcDbSpline
210
0.0
220
0.0
230
1.0
 70
    24
 71
     3
 72
    20
 73
    16
 74
     0
 42
0.000000001
 43
0.0000000001
 40
0.0
 40
0.0
 40
0.0
 40
0.0
 40
1.0
 40
1.0
 40
1.0
 40
2.0
 40
2.0
 40
2.0
 40
3.0
 40
3.0
 40
3.0
 40
4.0
 40
4.0
 40
4.0
 40
5.0
 40
5.0
 40
5.0
 40
5.0
 10
7.194244188468124
 20
-14.91653776042133
 30
0.0
 10
7.194607517364181
 20
-14.91653776042133
 30
0.0
 10
7.195334175156327
 20
-14.91653776042133
 30
0.0
 10
7.194970846260238
 20
-14.91653776042133
 30
0.0
 10
7.192604550372989
 20
-14.91653776042133
 30
0.0
 10
7.190061248100557
 20
-14.91653776042133
 30
0.0
 10
7.187694952213339
 20
-14.91653776042133
 30
0.0
 10
7.184779004919254
 20
-14.91653776042133
 30
0.0
 10
7.181686051239922
 20
-14.91653776042133
 30
0.0
 10
7.178593097560558
 20
-14.91653776042133
 30
0.0
 10
7.172593512712673
 20
-14.91653776042133
 30
0.0
 10
7.166584611739224
 20
-14.91653776042133
 30
0.0
 10
7.160585026891339
 20
-14.91653776042133
 30
0.0
 10
7.148390218559193
 20
-14.91653776042133
 30
0.0
 10
7.136381732737859
 20
-14.91653776042133
 30
0.0
 10
7.124373246916525
 20
-14.91653776042133
 30
0.0
  0
LINE
  5
FE
330
70
100
AcDbEntity
  8
Livello 1
370
     9
100
AcDbLine
 10
7.178052762279222
 20
-14.91726441823179
 30
0.0
 11
7.200067894431685
 21
-14.91726441823179
 31
0.0
  0
SPLINE
  5
FF
330
70
100
AcDbEntity
  8
Livello 1
370
     9
100
AcDbSpline
210
0.0
220
0.0
230
1.0
 70
     8
 71
     3
 72
     8
 73
     4
 74
     0
 42
0.000000001
 43
0.0000000001
 40
0.0
 40
0.0
 40
0.0
 40
0.0
 40
1.0
 40
1.0
 40
1.0
 40
1.0
 10
7.174587163578269
 20
-14.91653776042133
 30
0.0
 10
7.176049795288126
 20
-14.91653776042133
 30
0.0
 10
7.176591257477262
 20
-14.91690108932656
 30
0.0
 10
7.177316788361544
 20
-14.91726441823179
 30
0.0
  0
SPLINE
  5
100
330
70
100
AcDbEntity
  8
Livello 1
370
     9
100
AcDbSpline
210
0.0
220
0.0
230
1.0
 70
    24
 71
     3
 72
    20
 73
    16
 74
     0
 42
0.000000001
 43
0.0000000001
 40
0.0
 40
0.0
 40
0.0
 40
0.0
 40
1.0
 40
1.0
 40
1.0
 40
2.0
 40
2.0
 40
2.0
 40
3.0
 40
3.0
 40
3.0
 40
4.0
 40
4.0
 40
4.0
 40
5.0
 40
5.0
 40
5.0
 40
5.0
 10
13.86546579106071
 20
-14.91653776042133
 30
0.0
 10
13.86564279744605
 20
-14.91653776042133
 30
0.0
 10
13.86636945523817
 20
-14.91653776042133
 30
0.0
 10
13.86600612634205
 20
-14.91653776042133
 30
0.0
 10
13.86346282406958
 20
-14.91653776042133
 30
0.0
 10
13.86127353456768
 20
-14.91653776042133
 30
0.0
 10
13.85873023229521
 20
-14.91653776042133
 30
0.0
 10
13.85563727861585
 20
-14.91653776042133
 30
0.0
 10
13.85272133132176
 20
-14.91653776042133
 30
0.0
 10
13.84981470015324
 20
-14.91653776042133
 30
0.0
 10
13.84362879279451
 20
-14.91653776042133
 30
0.0
 10
13.83744288543579
 20
-14.91653776042133
 30
0.0
 10
13.83162030697318
 20
-14.91653776042133
 30
0.0
 10
13.81942549864107
 20
-14.91653776042133
 30
0.0
 10
13.80741701281973
 20
-14.91653776042133
 30
0.0
 10
13.79523281472186
 20
-14.91653776042133
 30
0.0
  0
SPLINE
  5
101
330
70
100
AcDbEntity
  8
Livello 1
370
     9
100
AcDbSpline
210
0.0
220
0.0
230
1.0
 70
     8
 71
     3
 72
     8
 73
     4
 74
     0
 42
0.000000001
 43
0.0000000001
 40
0.0
 40
0.0
 40
0.0
 40
0.0
 40
1.0
 40
1.0
 40
1.0
 40
1.0
 10
7.200067894431685
 20
-14.91726441823179
 30
0.0
 10
7.201156753618934
 20
-14.9178047535268
 30
0.0
 10
7.201706405025833
 20
-14.91835440494756
 30
0.0
 10
7.201706405025833
 20
-14.91908106275809
 30
0.0
  0
SPLINE
  5
102
330
70
100
AcDbEntity
  8
Livello 1
370
     9
100
AcDbSpline
210
0.0
220
0.0
230
1.0
 70
     8
 71
     3
 72
     8
 73
     4
 74
     0
 42
0.000000001
 43
0.0000000001
 40
0.0
 40
0.0
 40
0.0
 40
0.0
 40
1.0
 40
1.0
 40
1.0
 40
1.0
 10
7.070153396272493
 20
-14.91726441823179
 30
0.0
 10
7.071057060449885
 20
-14.91671476681103
 30
0.0
 10
7.071784842502213
 20
-14.91653776042133
 30
0.0
 10
7.073246349951824
 20
-14.91653776042133
 30
0.0
  0
LINE
  5
103
330
70
100
AcDbEntity
  8
Livello 1
370
     9
100
AcDbLine
 10
13.79523281472186
 20
-14.91653776042133
 30
0.0
 11
13.72498922637409
 21
-14.91653776042133
 31
0.0
  0
SPLINE
  5
104
330
70
100
AcDbEntity
  8
Livello 1
370
     9
100
AcDbSpline
210
0.0
220
0.0
230
1.0
 70
    24
 71
     3
 72
    17
 73
    13
 74
     0
 42
0.000000001
 43
0.0000000001
 40
0.0
 40
0.0
 40
0.0
 40
0.0
 40
1.0
 40
1.0
 40
1.0
 40
2.0
 40
2.0
 40
2.0
 40
3.0
 40
3.0
 40
3.0
 40
4.0
 40
4.0
 40
4.0
 40
4.0
 10
7.048316398006231
 20
-14.91726441823179
 30
0.0
 10
7.046676759911159
 20
-14.91726441823179
 30
0.0
 10
7.050133042486581
 20
-14.91726441823179
 30
0.0
 10
7.051223029174816
 20
-14.91726441823179
 30
0.0
 10
7.052136009477709
 20
-14.91726441823179
 30
0.0
 10
7.052862667269855
 20
-14.91726441823179
 30
0.0
 10
7.053952653958059
 20
-14.91726441823179
 30
0.0
 10
7.055592292053098
 20
-14.91726441823179
 30
0.0
 10
7.057408936533479
 20
-14.91726441823179
 30
0.0
 10
7.05941190352464
 20
-14.91726441823179
 30
0.0
 10
7.062868186100029
 20
-14.91726441823179
 30
0.0
 10
7.066510791186261
 20
-14.91726441823179
 30
0.0
 10
7.070153396272493
 20
-14.91726441823179
 30
0.0
  0
SPLINE
  5
105
330
70
100
AcDbEntity
  8
Livello 1
370
     9
100
AcDbSpline
210
0.0
220
0.0
230
1.0
 70
     8
 71
     3
 72
     8
 73
     4
 74
     0
 42
0.000000001
 43
0.0000000001
 40
0.0
 40
0.0
 40
0.0
 40
0.0
 40
1.0
 40
1.0
 40
1.0
 40
1.0
 10
7.046676759911159
 20
-14.91908106275809
 30
0.0
 10
7.046676759911159
 20
-14.91844756620532
 30
0.0
 10
7.047226411318059
 20
-14.9178047535268
 30
0.0
 10
7.048316398006231
 20
-14.91726441823179
 30
0.0
  0
SPLINE
  5
106
330
70
100
AcDbEntity
  8
Livello 1
370
     9
100
AcDbSpline
210
0.0
220
0.0
230
1.0
 70
    24
 71
     3
 72
    20
 73
    16
 74
     0
 42
0.000000001
 43
0.0000000001
 40
0.0
 40
0.0
 40
0.0
 40
0.0
 40
1.0
 40
1.0
 40
1.0
 40
2.0
 40
2.0
 40
2.0
 40
3.0
 40
3.0
 40
3.0
 40
4.0
 40
4.0
 40
4.0
 40
5.0
 40
5.0
 40
5.0
 40
5.0
 10
12.88817627351591
 20
-14.91653776042133
 30
0.0
 10
12.88853960241197
 20
-14.91653776042133
 30
0.0
 10
12.88908925381881
 20
-14.91653776042133
 30
0.0
 10
12.88981591161092
 20
-14.91653776042133
 30
0.0
 10
12.89036556301782
 20
-14.91653776042133
 30
0.0
 10
12.88890293130803
 20
-14.91653776042133
 30
0.0
 10
12.88853960241197
 20
-14.91653776042133
 30
0.0
 10
12.88799926713063
 20
-14.91653776042133
 30
0.0
 10
12.88708628682768
 20
-14.91653776042133
 30
0.0
 10
12.88599630013944
 20
-14.91653776042133
 30
0.0
 10
12.88454298455521
 20
-14.91653776042133
 30
0.0
 10
12.88271829500609
 20
-14.91653776042133
 30
0.0
 10
12.88108670197979
 20
-14.91653776042133
 30
0.0
 10
12.87780742578959
 20
-14.91653776042133
 30
0.0
 10
12.87452814959944
 20
-14.91653776042133
 30
0.0
 10
12.8710731377866
 20
-14.91653776042133
 30
0.0
  0
LINE
  5
107
330
70
100
AcDbEntity
  8
Livello 1
370
     9
100
AcDbLine
 10
12.86870557113684
 20
-14.91653776042133
 30
0.0
 11
12.76772808640645
 21
-14.91653776042133
 31
0.0
  0
LINE
  5
108
330
70
100
AcDbEntity
  8
Livello 1
370
     9
100
AcDbLine
 10
8.023593632434399
 20
-14.91908106275809
 30
0.0
 11
8.023593632434399
 21
-14.92181068761025
 31
0.0
  0
LINE
  5
109
330
70
100
AcDbEntity
  8
Livello 1
370
     9
100
AcDbLine
 10
8.178623277549075
 20
-14.91908106275809
 30
0.0
 11
8.178623277549075
 21
-14.92181068761025
 31
0.0
  0
LINE
  5
10A
330
70
100
AcDbEntity
  8
Livello 1
370
     9
100
AcDbLine
 10
12.76463513272715
 20
-14.91653776042133
 30
0.0
 11
12.74843439041271
 21
-14.91653776042133
 31
0.0
  0
SPLINE
  5
10B
330
70
100
AcDbEntity
  8
Livello 1
370
     9
100
AcDbSpline
210
0.0
220
0.0
230
1.0
 70
     8
 71
     3
 72
     8
 73
     4
 74
     0
 42
0.000000001
 43
0.0000000001
 40
0.0
 40
0.0
 40
0.0
 40
0.0
 40
1.0
 40
1.0
 40
1.0
 40
1.0
 10
8.176983639454002
 20
-14.91726441823179
 30
0.0
 10
8.178261100865192
 20
-14.9178047535268
 30
0.0
 10
8.178623277549075
 20
-14.91835440494756
 30
0.0
 10
8.178623277549075
 20
-14.91908106275809
 30
0.0
  0
LINE
  5
10C
330
70
100
AcDbEntity
  8
Livello 1
370
     9
100
AcDbLine
 10
8.154970786426297
 20
-14.91726441823179
 30
0.0
 11
8.175344001358931
 21
-14.91726441823179
 31
0.0
  0
SPLINE
  5
10D
330
70
100
AcDbEntity
  8
Livello 1
370
     9
100
AcDbSpline
210
0.0
220
0.0
230
1.0
 70
     8
 71
     3
 72
     8
 73
     4
 74
     0
 42
0.000000001
 43
0.0000000001
 40
0.0
 40
0.0
 40
0.0
 40
0.0
 40
1.0
 40
1.0
 40
1.0
 40
1.0
 10
6.844889480710162
 20
-14.92181068761025
 30
0.0
 10
6.840520217831784
 20
-14.92181068761025
 30
0.0
 10
6.838703573351467
 20
-14.92253734542078
 30
0.0
 10
6.838703573351467
 20
-14.92444715120471
 30
0.0
  0
SPLINE
  5
10E
330
70
100
AcDbEntity
  8
Livello 1
370
     9
100
AcDbSpline
210
0.0
220
0.0
230
1.0
 70
     8
 71
     3
 72
     8
 73
     4
 74
     0
 42
0.000000001
 43
0.0000000001
 40
0.0
 40
0.0
 40
0.0
 40
0.0
 40
1.0
 40
1.0
 40
1.0
 40
1.0
 10
14.07453026547309
 20
-14.92181068761025
 30
0.0
 10
14.07907523357226
 20
-14.92181068761025
 30
0.0
 10
14.08090119417818
 20
-14.92253734542078
 30
0.0
 10
14.08090119417818
 20
-14.92444715120471
 30
0.0
  0
LINE
  5
10F
330
70
100
AcDbEntity
  8
Livello 1
370
     9
100
AcDbLine
 10
10.38392719930256
 20
-14.91726441823179
 30
0.0
 11
10.40575488144325
 21
-14.91726441823179
 31
0.0
  0
SPLINE
  5
110
330
70
100
AcDbEntity
  8
Livello 1
370
     9
100
AcDbSpline
210
0.0
220
0.0
230
1.0
 70
     8
 71
     3
 72
     8
 73
     4
 74
     0
 42
0.000000001
 43
0.0000000001
 40
0.0
 40
0.0
 40
0.0
 40
0.0
 40
1.0
 40
1.0
 40
1.0
 40
1.0
 10
10.51019796487463
 20
-14.91653776042133
 30
0.0
 10
10.51147427407361
 20
-14.91653776042133
 30
0.0
 10
10.51202392548048
 20
-14.91671476681103
 30
0.0
 10
10.51292758965787
 20
-14.91726441823179
 30
0.0
  0
LINE
  5
111
330
70
100
AcDbEntity
  8
Livello 1
370
     9
100
AcDbLine
 10
10.51292758965787
 20
-14.91726441823179
 30
0.0
 11
10.53549124571627
 21
-14.91726441823179
 31
0.0
  0
SPLINE
  5
112
330
70
100
AcDbEntity
  8
Livello 1
370
     9
100
AcDbSpline
210
0.0
220
0.0
230
1.0
 70
     8
 71
     3
 72
     8
 73
     4
 74
     0
 42
0.000000001
 43
0.0000000001
 40
0.0
 40
0.0
 40
0.0
 40
0.0
 40
1.0
 40
1.0
 40
1.0
 40
1.0
 10
10.40575488144325
 20
-14.91726441823179
 30
0.0
 10
10.40649206386295
 20
-14.91671476681103
 30
0.0
 10
10.40739451953836
 20
-14.91653776042133
 30
0.0
 10
10.40867082873737
 20
-14.91644459916363
 30
0.0
  0
SPLINE
  5
113
330
70
100
AcDbEntity
  8
Livello 1
370
     9
100
AcDbSpline
210
0.0
220
0.0
230
1.0
 70
     8
 71
     3
 72
     8
 73
     4
 74
     0
 42
0.000000001
 43
0.0000000001
 40
0.0
 40
0.0
 40
0.0
 40
0.0
 40
1.0
 40
1.0
 40
1.0
 40
1.0
 10
8.023593632434399
 20
-14.91908106275809
 30
0.0
 10
8.023593632434399
 20
-14.91844756620532
 30
0.0
 10
8.024143283841299
 20
-14.9178047535268
 30
0.0
 10
8.025419593040282
 20
-14.91726441823179
 30
0.0
  0
SPLINE
  5
114
330
70
100
AcDbEntity
  8
Livello 1
370
     9
100
AcDbSpline
210
0.0
220
0.0
230
1.0
 70
    24
 71
     3
 72
    17
 73
    13
 74
     0
 42
0.000000001
 43
0.0000000001
 40
0.0
 40
0.0
 40
0.0
 40
0.0
 40
1.0
 40
1.0
 40
1.0
 40
2.0
 40
2.0
 40
2.0
 40
3.0
 40
3.0
 40
3.0
 40
4.0
 40
4.0
 40
4.0
 40
4.0
 10
8.025419593040282
 20
-14.91726441823179
 30
0.0
 10
8.023593632434399
 20
-14.91726441823179
 30
0.0
 10
8.027236237520632
 20
-14.91726441823179
 30
0.0
 10
8.028149217823589
 20
-14.91726441823179
 30
0.0
 10
8.029052882000982
 20
-14.91726441823179
 30
0.0
 10
8.029965862303939
 20
-14.91726441823179
 30
0.0
 10
8.030879991095837
 20
-14.91726441823179
 30
0.0
 10
8.032695487087213
 20
-14.91726441823179
 30
0.0
 10
8.034335125182284
 20
-14.91726441823179
 30
0.0
 10
8.036328776047881
 20
-14.91726441823179
 30
0.0
 10
8.039794374748833
 20
-14.91726441823179
 30
0.0
 10
8.043427663709532
 20
-14.91726441823179
 30
0.0
 10
8.04724727518101
 20
-14.91726441823179
 30
0.0
  0
SPLINE
  5
115
330
70
100
AcDbEntity
  8
Livello 1
370
     9
100
AcDbSpline
210
0.0
220
0.0
230
1.0
 70
     8
 71
     3
 72
     8
 73
     4
 74
     0
 42
0.000000001
 43
0.0000000001
 40
0.0
 40
0.0
 40
0.0
 40
0.0
 40
1.0
 40
1.0
 40
1.0
 40
1.0
 10
8.047433597691822
 20
-14.91707809571627
 30
0.0
 10
8.048160255483969
 20
-14.91671476681103
 30
0.0
 10
8.049073235786893
 20
-14.91644459916363
 30
0.0
 10
8.050340228860376
 20
-14.91644459916363
 30
0.0
  0
LINE
  5
116
330
70
100
AcDbEntity
  8
Livello 1
370
     9
100
AcDbLine
 10
12.89582481258443
 20
-14.91908106275809
 30
0.0
 11
12.89582481258443
 21
-14.92181068761025
 31
0.0
  0
LINE
  5
117
330
70
100
AcDbEntity
  8
Livello 1
370
     9
100
AcDbLine
 10
12.76335882352814
 20
-14.91908106275809
 30
0.0
 11
12.74224848305399
 21
-14.91908106275809
 31
0.0
  0
SPLINE
  5
118
330
70
100
AcDbEntity
  8
Livello 1
370
     9
100
AcDbSpline
210
0.0
220
0.0
230
1.0
 70
    24
 71
     3
 72
    23
 73
    19
 74
     0
 42
0.000000001
 43
0.0000000001
 40
0.0
 40
0.0
 40
0.0
 40
0.0
 40
1.0
 40
1.0
 40
1.0
 40
2.0
 40
2.0
 40
2.0
 40
3.0
 40
3.0
 40
3.0
 40
4.0
 40
4.0
 40
4.0
 40
5.0
 40
5.0
 40
5.0
 40
6.0
 40
6.0
 40
6.0
 40
6.0
 10
12.8941851744893
 20
-14.91908106275809
 30
0.0
 10
12.89491183228141
 20
-14.91908106275809
 30
0.0
 10
12.89691479927261
 20
-14.91908106275809
 30
0.0
 10
12.89582481258443
 20
-14.91908106275809
 30
0.0
 10
12.89527516117753
 20
-14.91908106275809
 30
0.0
 10
12.89472550977063
 20
-14.91908106275809
 30
0.0
 10
12.89382184559324
 20
-14.91908106275809
 30
0.0
 10
12.88963890522571
 20
-14.91908106275809
 30
0.0
 10
12.88526964234733
 20
-14.91908106275809
 30
0.0
 10
12.88071405695817
 20
-14.91908106275809
 30
0.0
 10
12.87507907187005
 20
-14.91908106275809
 30
0.0
 10
12.86961855143979
 20
-14.91908106275809
 30
0.0
 10
12.86398229548797
 20
-14.91908106275809
 30
0.0
 10
12.85287747384402
 20
-14.91908106275809
 30
0.0
 10
12.8415956458148
 20
-14.91908106275809
 30
0.0
 10
12.83050014029643
 20
-14.91908106275809
 30
0.0
 10
12.80812280674883
 20
-14.91908106275809
 30
0.0
 10
12.78573742568239
 20
-14.91908106275809
 30
0.0
 10
12.76335882352814
 20
-14.91908106275809
 30
0.0
  0
SPLINE
  5
119
330
70
100
AcDbEntity
  8
Livello 1
370
     9
100
AcDbSpline
210
0.0
220
0.0
230
1.0
 70
     8
 71
     3
 72
     8
 73
     4
 74
     0
 42
0.000000001
 43
0.0000000001
 40
0.0
 40
0.0
 40
0.0
 40
0.0
 40
1.0
 40
1.0
 40
1.0
 40
1.0
 10
12.76772808640645
 20
-14.91653776042133
 30
0.0
 10
12.76426248770553
 20
-14.91671476681103
 30
0.0
 10
12.76299549463208
 20
-14.91753458587933
 30
0.0
 10
12.76335882352814
 20
-14.91908106275809
 30
0.0
  0
LINE
  5
11A
330
70
100
AcDbEntity
  8
Livello 1
370
     9
100
AcDbLine
 10
13.79523281472186
 20
-14.92181068761025
 30
0.0
 11
13.79523281472186
 21
-14.91908106275809
 31
0.0
  0
LINE
  5
11B
330
70
100
AcDbEntity
  8
Livello 1
370
     9
100
AcDbLine
 10
13.79523281472186
 20
-14.91908106275809
 30
0.0
 11
13.71898834919201
 21
-14.91908106275809
 31
0.0
  0
LINE
  5
11D
330
70
100
AcDbEntity
  8
Livello 1
370
     9
100
AcDbLine
 10
13.79523281472186
 20
-14.91653776042133
 30
0.0
 11
13.79523281472186
 21
-14.91908106275809
 31
0.0
  0
LINE
  5
11E
330
70
100
AcDbEntity
  8
Livello 1
370
     9
100
AcDbLine
 10
7.124373246916525
 20
-14.91908106275809
 30
0.0
 11
7.124373246916525
 21
-14.92181068761025
 31
0.0
  0
SPLINE
  5
11F
330
70
100
AcDbEntity
  8
Livello 1
370
     9
100
AcDbSpline
210
0.0
220
0.0
230
1.0
 70
    24
 71
     3
 72
    20
 73
    16
 74
     0
 42
0.000000001
 43
0.0000000001
 40
0.0
 40
0.0
 40
0.0
 40
0.0
 40
1.0
 40
1.0
 40
1.0
 40
2.0
 40
2.0
 40
2.0
 40
3.0
 40
3.0
 40
3.0
 40
4.0
 40
4.0
 40
4.0
 40
5.0
 40
5.0
 40
5.0
 40
5.0
 10
7.200607102212034
 20
-14.91908106275809
 30
0.0
 10
7.200793424722877
 20
-14.91908106275809
 30
0.0
 10
7.201520082515023
 20
-14.91908106275809
 30
0.0
 10
7.201156753618934
 20
-14.91908106275809
 30
0.0
 10
7.19842712883566
 20
-14.91908106275809
 30
0.0
 10
7.195883826563195
 20
-14.91908106275809
 30
0.0
 10
7.193331208165167
 20
-14.91908106275809
 30
0.0
 10
7.190061248100557
 20
-14.91908106275809
 30
0.0
 10
7.186604965525136
 20
-14.91908106275809
 30
0.0
 10
7.183325689334993
 20
-14.91908106275809
 30
0.0
 10
7.17677757999279
 20
-14.91908106275809
 30
0.0
 10
7.170227216825455
 20
-14.91908106275809
 30
0.0
 10
7.16367798057067
 20
-14.91908106275809
 30
0.0
 10
7.1505701919356
 20
-14.91908106275809
 30
0.0
 10
7.137294713040785
 20
-14.91908106275809
 30
0.0
 10
7.124373246916525
 20
-14.91908106275809
 30
0.0
  0
LINE
  5
120
330
70
100
AcDbEntity
  8
Livello 1
370
     9
100
AcDbLine
 10
7.124373246916525
 20
-14.91908106275809
 30
0.0
 11
7.124373246916525
 21
-14.91653776042133
 31
0.0
  0
LINE
  5
121
330
70
100
AcDbEntity
  8
Livello 1
370
     9
100
AcDbLine
 10
7.124373246916525
 20
-14.91908106275809
 30
0.0
 11
7.047953069110174
 21
-14.91908106275809
 31
0.0
  0
LINE
  5
122
330
70
100
AcDbEntity
  8
Livello 1
370
     9
100
AcDbLine
 10
8.156059621490697
 20
-14.91908106275809
 30
0.0
 11
8.156059621490697
 21
-14.92181068761025
 31
0.0
  0
SPLINE
  5
123
330
70
100
AcDbEntity
  8
Livello 1
370
     9
100
AcDbSpline
210
0.0
220
0.0
230
1.0
 70
    24
 71
     3
 72
    20
 73
    16
 74
     0
 42
0.000000001
 43
0.0000000001
 40
0.0
 40
0.0
 40
0.0
 40
0.0
 40
1.0
 40
1.0
 40
1.0
 40
2.0
 40
2.0
 40
2.0
 40
3.0
 40
3.0
 40
3.0
 40
4.0
 40
4.0
 40
4.0
 40
5.0
 40
5.0
 40
5.0
 40
5.0
 10
8.177169961964814
 20
-14.91908106275809
 30
0.0
 10
8.177710297246148
 20
-14.91908106275809
 30
0.0
 10
8.178074778349634
 20
-14.91908106275809
 30
0.0
 10
8.178623277549075
 20
-14.91908106275809
 30
0.0
 10
8.179713264237278
 20
-14.91908106275809
 30
0.0
 10
8.17789661975696
 20
-14.91908106275809
 30
0.0
 10
8.177346968350059
 20
-14.91908106275809
 30
0.0
 10
8.176256981661856
 20
-14.91908106275809
 30
0.0
 10
8.175344001358931
 20
-14.91908106275809
 30
0.0
 10
8.174441489297107
 20
-14.91908106275809
 30
0.0
 10
8.172437370190378
 20
-14.91908106275809
 30
0.0
 10
8.170249232698127
 20
-14.91908106275809
 30
0.0
 10
8.168254429822843
 20
-14.91908106275809
 30
0.0
 10
8.164248495840523
 20
-14.91908106275809
 30
0.0
 10
8.160065555472987
 20
-14.91908106275809
 30
0.0
 10
8.156059621490697
 20
-14.91908106275809
 30
0.0
  0
SPLINE
  5
124
330
70
100
AcDbEntity
  8
Livello 1
370
     9
100
AcDbSpline
210
0.0
220
0.0
230
1.0
 70
     8
 71
     3
 72
     8
 73
     4
 74
     0
 42
0.000000001
 43
0.0000000001
 40
0.0
 40
0.0
 40
0.0
 40
0.0
 40
1.0
 40
1.0
 40
1.0
 40
1.0
 10
8.156059621490697
 20
-14.91908106275809
 30
0.0
 10
8.156609272897567
 20
-14.91753458587933
 30
0.0
 10
8.155332963698551
 20
-14.91671476681103
 30
0.0
 10
8.151513352227073
 20
-14.91653776042133
 30
0.0
  0
LINE
  5
125
330
70
100
AcDbEntity
  8
Livello 1
370
     9
100
AcDbLine
 10
8.156059621490697
 20
-14.91908106275809
 30
0.0
 11
8.025056264144225
 21
-14.91908106275809
 31
0.0
  0
LINE
  5
126
330
70
100
AcDbEntity
  8
Livello 1
370
     9
100
AcDbLine
 10
10.53731720632216
 20
-14.91908106275809
 30
0.0
 11
10.38228756120748
 21
-14.91908106275809
 31
0.0
  0
LINE
  5
127
330
70
100
AcDbEntity
  8
Livello 1
370
     9
100
AcDbLine
 10
10.45962071931676
 20
-14.92444715120471
 30
0.0
 11
10.45962071931676
 21
-14.92181068761025
 31
0.0
  0
LINE
  5
128
330
70
100
AcDbEntity
  8
Livello 1
370
     9
100
AcDbLine
 10
10.45962071931676
 20
-14.92444715120471
 30
0.0
 11
6.839607237528859
 21
-14.92444715120471
 31
0.0
  0
SPLINE
  5
129
330
70
100
AcDbEntity
  8
Livello 1
370
     9
100
AcDbSpline
210
0.0
220
0.0
230
1.0
 70
    24
 71
     3
 72
    26
 73
    22
 74
     0
 42
0.000000001
 43
0.0000000001
 40
0.0
 40
0.0
 40
0.0
 40
0.0
 40
1.0
 40
1.0
 40
1.0
 40
2.0
 40
2.0
 40
2.0
 40
3.0
 40
3.0
 40
3.0
 40
4.0
 40
4.0
 40
4.0
 40
5.0
 40
5.0
 40
5.0
 40
6.0
 40
6.0
 40
6.0
 40
7.0
 40
7.0
 40
7.0
 40
7.0
 10
14.07980189136438
 20
-14.92444715120471
 30
0.0
 10
14.08126452307423
 20
-14.92444715120471
 30
0.0
 10
14.07871190467621
 20
-14.92444715120471
 30
0.0
 10
14.07817156939487
 20
-14.92444715120471
 30
0.0
 10
14.07271231982832
 20
-14.92444715120471
 30
0.0
 10
14.06725307026171
 20
-14.92444715120471
 30
0.0
 10
14.06197082708044
 20
-14.92444715120471
 30
0.0
 10
14.03595088844664
 20
-14.92444715120471
 30
0.0
 10
14.01011727232362
 20
-14.92444715120471
 30
0.0
 10
13.98409733368983
 20
-14.92444715120471
 30
0.0
 10
13.86582911995683
 20
-14.92444715120471
 30
0.0
 10
13.74755159009828
 20
-14.92444715120471
 30
0.0
 10
13.62910636998007
 20
-14.92444715120471
 30
0.0
 10
13.47825966523293
 20
-14.92444715120471
 30
0.0
 10
13.32742227661136
 20
-14.92444715120471
 30
0.0
 10
13.17639856547894
 20
-14.92444715120471
 30
0.0
 10
12.87471447211029
 20
-14.92444715120471
 30
0.0
 10
12.57285337235629
 20
-14.92444715120471
 30
0.0
 10
12.27116927898764
 20
-14.92444715120471
 30
0.0
 10
11.66743776335416
 20
-14.92444715120471
 30
0.0
 10
11.06352924133553
 20
-14.92444715120471
 30
0.0
 10
10.45962071931676
 20
-14.92444715120471
 30
0.0
  0
SPLINE
  5
12A
330
70
100
AcDbEntity
  8
Livello 1
370
     9
100
AcDbSpline
210
0.0
220
0.0
230
1.0
 70
    24
 71
     3
 72
    26
 73
    22
 74
     0
 42
0.000000001
 43
0.0000000001
 40
0.0
 40
0.0
 40
0.0
 40
0.0
 40
1.0
 40
1.0
 40
1.0
 40
2.0
 40
2.0
 40
2.0
 40
3.0
 40
3.0
 40
3.0
 40
4.0
 40
4.0
 40
4.0
 40
5.0
 40
5.0
 40
5.0
 40
6.0
 40
6.0
 40
6.0
 40
7.0
 40
7.0
 40
7.0
 40
7.0
 10
6.845802461013088
 20
-15.09139212510271
 30
0.0
 10
6.844526151814105
 20
-15.09139212510271
 30
0.0
 10
6.847069454086569
 20
-15.09139212510271
 30
0.0
 10
6.847619105493436
 20
-15.09139212510271
 30
0.0
 10
6.852892032549207
 20
-15.09139212510271
 30
0.0
 10
6.858352400984095
 20
-15.09139212510271
 30
0.0
 10
6.86363352529706
 20
-15.09139212510271
 30
0.0
 10
6.889468261074529
 20
-15.09139212510271
 30
0.0
 10
6.915487080053875
 20
-15.09139212510271
 30
0.0
 10
6.941320696176894
 20
-15.09139212510271
 30
0.0
 10
7.059598226035387
 20
-15.09139212510271
 30
0.0
 10
7.177689433383165
 20
-15.09139212510271
 30
0.0
 10
7.295771324605348
 20
-15.09139212510271
 30
0.0
 10
7.446431706841644
 20
-15.09139212510271
 30
0.0
 10
7.596915082692694
 20
-15.09139212510271
 30
0.0
 10
7.747566148803458
 20
-15.09139212510271
 30
0.0
 10
8.049073235786893
 20
-15.09139212510271
 30
0.0
 10
8.350021355237897
 20
-15.09139212510271
 30
0.0
 10
8.651342119710522
 20
-15.09139212510271
 30
0.0
 10
9.254160655041049
 20
-15.09139212510271
 30
0.0
 10
9.856979190371545
 20
-15.09139212510271
 30
0.0
 10
10.45979772570204
 20
-15.09139212510271
 30
0.0
  0
LINE
  5
12B
330
70
100
AcDbEntity
  8
Livello 1
370
     9
100
AcDbLine
 10
10.45962071931676
 20
-15.09139212510271
 30
0.0
 11
14.07380230651656
 21
-15.09139212510271
 31
0.0
  0
SPLINE
  5
12C
330
70
100
AcDbEntity
  8
Livello 1
370
     9
100
AcDbSpline
210
0.0
220
0.0
230
1.0
 70
     8
 71
     3
 72
     8
 73
     4
 74
     0
 42
0.000000001
 43
0.0000000001
 40
0.0
 40
0.0
 40
0.0
 40
0.0
 40
1.0
 40
1.0
 40
1.0
 40
1.0
 10
6.838703573351467
 20
-15.09030213838701
 30
0.0
 10
6.838703573351467
 20
-15.0911219574553
 30
0.0
 10
6.840343211446538
 20
-15.09139212510271
 30
0.0
 10
6.844889480710162
 20
-15.09139212510271
 30
0.0
  0
SPLINE
  5
12D
330
70
100
AcDbEntity
  8
Livello 1
370
     9
100
AcDbSpline
210
0.0
220
0.0
230
1.0
 70
     8
 71
     3
 72
     8
 73
     4
 74
     0
 42
0.000000001
 43
0.0000000001
 40
0.0
 40
0.0
 40
0.0
 40
0.0
 40
1.0
 40
1.0
 40
1.0
 40
1.0
 10
14.08090119417818
 20
-15.09030213838701
 30
0.0
 10
14.08090119417818
 20
-15.0911219574553
 30
0.0
 10
14.07907523357226
 20
-15.09139212510271
 30
0.0
 10
14.07453026547309
 20
-15.09139212510271
 30
0.0
  0
LINE
  5
12E
330
70
100
AcDbEntity
  8
Livello 1
370
     9
100
AcDbLine
 10
14.08090119417818
 20
-14.92444715120471
 30
0.0
 11
14.08090119417818
 21
-15.09030213838701
 31
0.0
  0
LINE
  5
12F
330
70
100
AcDbEntity
  8
Livello 1
370
     9
100
AcDbLine
 10
6.838703573351467
 20
-14.92444715120471
 30
0.0
 11
6.838703573351467
 21
-15.09030213838701
 31
0.0
  0
SPLINE
  5
130
330
70
100
AcDbEntity
  8
Livello 1
370
     9
100
AcDbSpline
210
0.0
220
0.0
230
1.0
 70
    24
 71
     3
 72
    26
 73
    22
 74
     0
 42
0.000000001
 43
0.0000000001
 40
0.0
 40
0.0
 40
0.0
 40
0.0
 40
1.0
 40
1.0
 40
1.0
 40
2.0
 40
2.0
 40
2.0
 40
3.0
 40
3.0
 40
3.0
 40
4.0
 40
4.0
 40
4.0
 40
5.0
 40
5.0
 40
5.0
 40
6.0
 40
6.0
 40
6.0
 40
7.0
 40
7.0
 40
7.0
 40
7.0
 10
14.07980189136438
 20
-15.09030213838701
 30
0.0
 10
14.08126452307423
 20
-15.09030213838701
 30
0.0
 10
14.07871190467621
 20
-15.09030213838701
 30
0.0
 10
14.07817156939487
 20
-15.09030213838701
 30
0.0
 10
14.07271231982832
 20
-15.09030213838701
 30
0.0
 10
14.06725307026171
 20
-15.09030213838701
 30
0.0
 10
14.06197082708044
 20
-15.09030213838701
 30
0.0
 10
14.03595088844664
 20
-15.09030213838701
 30
0.0
 10
14.01011727232362
 20
-15.09030213838701
 30
0.0
 10
13.98409733368983
 20
-15.09030213838701
 30
0.0
 10
13.86582911995683
 20
-15.09030213838701
 30
0.0
 10
13.74755159009828
 20
-15.09030213838701
 30
0.0
 10
13.62910636998007
 20
-15.09030213838701
 30
0.0
 10
13.47825966523293
 20
-15.09030213838701
 30
0.0
 10
13.32742227661136
 20
-15.09030213838701
 30
0.0
 10
13.17639856547894
 20
-15.09030213838701
 30
0.0
 10
12.87471447211029
 20
-15.09030213838701
 30
0.0
 10
12.57285337235629
 20
-15.09030213838701
 30
0.0
 10
12.27116927898764
 20
-15.09030213838701
 30
0.0
 10
11.66743776335416
 20
-15.09030213838701
 30
0.0
 10
11.06352924133553
 20
-15.09030213838701
 30
0.0
 10
10.45962071931676
 20
-15.09030213838701
 30
0.0
  0
LINE
  5
131
330
70
100
AcDbEntity
  8
Livello 1
370
     9
100
AcDbLine
 10
10.45962071931676
 20
-15.09030213838701
 30
0.0
 11
6.839607237528859
 21
-15.09030213838701
 31
0.0
  0
LINE
  5
132
330
70
100
AcDbEntity
  8
Livello 1
370
     9
100
AcDbLine
 10
10.45962071931676
 20
-15.09139212510271
 30
0.0
 11
10.45962071931676
 21
-15.09030213838701
 31
0.0
  0
LINE
  5
133
330
70
100
AcDbEntity
  8
Livello 1
370
     9
100
AcDbLine
 10
12.76335882352814
 20
-14.92181068761025
 30
0.0
 11
12.76335882352814
 21
-14.91908106275809
 31
0.0
  0
LINE
  5
134
330
70
100
AcDbEntity
  8
Livello 1
370
     9
100
AcDbLine
 10
12.38380123676881
 20
-14.38322682427377
 30
0.0
 11
12.38725751934423
 21
-14.78197563971921
 31
0.0
  0
LINE
  5
135
330
70
100
AcDbEntity
  8
Livello 1
370
     9
100
AcDbLine
 10
8.534527221561821
 20
-14.78197563971921
 30
0.0
 11
8.538346833033299
 21
-14.38331066940578
 31
0.0
  0
SPLINE
  5
136
330
70
100
AcDbEntity
  8
Livello 1
370
     9
100
AcDbSpline
210
0.0
220
0.0
230
1.0
 70
    24
 71
     3
 72
    23
 73
    19
 74
     0
 42
0.000000001
 43
0.0000000001
 40
0.0
 40
0.0
 40
0.0
 40
0.0
 40
1.0
 40
1.0
 40
1.0
 40
2.0
 40
2.0
 40
2.0
 40
3.0
 40
3.0
 40
3.0
 40
4.0
 40
4.0
 40
4.0
 40
5.0
 40
5.0
 40
5.0
 40
6.0
 40
6.0
 40
6.0
 40
6.0
 10
12.37397272432388
 20
-14.3734914728383
 30
0.0
 10
12.37960898027571
 20
-14.3734914728383
 30
0.0
 10
12.36815014586128
 20
-14.3734914728383
 30
0.0
 10
12.36523419856713
 20
-14.3734914728383
 30
0.0
 10
12.35450202194481
 20
-14.3734914728383
 30
0.0
 10
12.34358352281171
 20
-14.3734914728383
 30
0.0
 10
12.33266502367861
 20
-14.3734914728383
 30
0.0
 10
12.28627071848828
 20
-14.3734914728383
 30
0.0
 10
12.2396900907873
 20
-14.3734914728383
 30
0.0
 10
12.19310946308619
 20
-14.3734914728383
 30
0.0
 10
12.13251738257262
 20
-14.3734914728383
 30
0.0
 10
12.07228863095517
 20
-14.3734914728383
 30
0.0
 10
12.01188287295251
 20
-14.3734914728383
 30
0.0
 10
11.89087571831064
 20
-14.3734914728383
 30
0.0
 10
11.77006420230518
 20
-14.3734914728383
 30
0.0
 10
11.64905704766332
 20
-14.3734914728383
 30
0.0
 10
11.40742469952684
 20
-14.3734914728383
 30
0.0
 10
11.16560602887958
 20
-14.3734914728383
 30
0.0
 10
10.92378735823233
 20
-14.3734914728383
 30
0.0
  0
LINE
  5
137
330
70
100
AcDbEntity
  8
Livello 1
370
     9
100
AcDbLine
 10
10.92378735823233
 20
-14.3734914728383
 30
0.0
 11
8.548175345478226
 21
-14.3734914728383
 31
0.0
  0
LINE
  5
138
330
70
100
AcDbEntity
  8
Livello 1
370
     9
100
AcDbLine
 10
10.8992219561321
 20
-14.78197563971921
 30
0.0
 11
10.89412481451226
 21
-14.78197563971921
 31
0.0
  0
LINE
  5
139
330
70
100
AcDbEntity
  8
Livello 1
370
     9
100
AcDbLine
 10
10.82335020878328
 20
-14.78197563971921
 30
0.0
 11
10.81625132112165
 21
-14.78197563971921
 31
0.0
  0
LINE
  5
13A
330
70
100
AcDbEntity
  8
Livello 1
370
     9
100
AcDbLine
 10
10.79914691462983
 20
-14.78197563971921
 30
0.0
 11
10.78641177101638
 21
-14.78197563971921
 31
0.0
  0
LINE
  5
13B
330
70
100
AcDbEntity
  8
Livello 1
370
     9
100
AcDbLine
 10
10.64976284159254
 20
-14.78197563971921
 30
0.0
 11
10.61955996259115
 21
-14.78197563971921
 31
0.0
  0
SPLINE
  5
13C
330
70
100
AcDbEntity
  8
Livello 1
370
     9
100
AcDbSpline
210
0.0
220
0.0
230
1.0
 70
     8
 71
     3
 72
     8
 73
     4
 74
     0
 42
0.000000001
 43
0.0000000001
 40
0.0
 40
0.0
 40
0.0
 40
0.0
 40
1.0
 40
1.0
 40
1.0
 40
1.0
 10
12.37415098891831
 20
-14.3734914728383
 30
0.0
 10
12.3774290068993
 20
-14.37503794971703
 30
0.0
 10
12.38015863168261
 20
-14.37704091675886
 30
0.0
 10
12.38270193395507
 20
-14.37994754800075
 30
0.0
  0
SPLINE
  5
13D
330
70
100
AcDbEntity
  8
Livello 1
370
     9
100
AcDbSpline
210
0.0
220
0.0
230
1.0
 70
     8
 71
     3
 72
     8
 73
     4
 74
     0
 42
0.000000001
 43
0.0000000001
 40
0.0
 40
0.0
 40
0.0
 40
0.0
 40
1.0
 40
1.0
 40
1.0
 40
1.0
 10
8.538169826648021
 20
-14.38322682427377
 30
0.0
 10
8.540172793639181
 20
-14.37830790986426
 30
0.0
 10
8.5428942637204
 20
-14.37540127862233
 30
0.0
 10
8.547989022967415
 20
-14.3734914728383
 30
0.0
  0
LINE
  5
13E
330
70
100
AcDbEntity
  8
Livello 1
370
     9
100
AcDbLine
 10
12.34722738542711
 20
-14.36230280578184
 30
0.0
 11
12.34722738542711
 21
-14.37339831158061
 31
0.0
  0
LINE
  5
13F
330
70
100
AcDbEntity
  8
Livello 1
370
     9
100
AcDbLine
 10
8.57473561939336
 20
-14.3734914728383
 30
0.0
 11
8.57492194190417
 21
-14.36230280578184
 31
0.0
  0
LINE
  5
140
330
70
100
AcDbEntity
  8
Livello 1
370
     9
100
AcDbLine
 10
10.92633188213908
 20
-14.38322682427377
 30
0.0
 11
8.538346833033299
 21
-14.38322682427377
 31
0.0
  0
SPLINE
  5
141
330
70
100
AcDbEntity
  8
Livello 1
370
     9
100
AcDbSpline
210
0.0
220
0.0
230
1.0
 70
     8
 71
     3
 72
     8
 73
     4
 74
     0
 42
0.000000001
 43
0.0000000001
 40
0.0
 40
0.0
 40
0.0
 40
0.0
 40
1.0
 40
1.0
 40
1.0
 40
1.0
 10
10.92378735823233
 20
-14.3734914728383
 30
0.0
 10
10.92633188213908
 20
-14.37658442659576
 30
0.0
 10
10.92688031191169
 20
-14.37940721270578
 30
0.0
 10
10.92615365411951
 20
-14.38322682427377
 30
0.0
  0
SPLINE
  5
142
330
70
100
AcDbEntity
  8
Livello 1
370
     9
100
AcDbSpline
210
0.0
220
0.0
230
1.0
 70
    24
 71
     3
 72
    23
 73
    19
 74
     0
 42
0.000000001
 43
0.0000000001
 40
0.0
 40
0.0
 40
0.0
 40
0.0
 40
1.0
 40
1.0
 40
1.0
 40
2.0
 40
2.0
 40
2.0
 40
3.0
 40
3.0
 40
3.0
 40
4.0
 40
4.0
 40
4.0
 40
5.0
 40
5.0
 40
5.0
 40
6.0
 40
6.0
 40
6.0
 40
6.0
 10
12.38380123676881
 20
-14.38322682427377
 30
0.0
 10
12.38943749272064
 20
-14.38322682427377
 30
0.0
 10
12.37797865830614
 20
-14.38322682427377
 30
0.0
 10
12.37506271101212
 20
-14.38322682427377
 30
0.0
 10
12.36414421187896
 20
-14.38322682427377
 30
0.0
 10
12.35322571274579
 20
-14.38322682427377
 30
0.0
 10
12.34231652973826
 20
-14.38322682427377
 30
0.0
 10
12.29554957952637
 20
-14.38322682427377
 30
0.0
 10
12.24878262931448
 20
-14.38322682427377
 30
0.0
 10
12.20202499522816
 20
-14.38322682427377
 30
0.0
 10
12.1410695858186
 20
-14.38322682427377
 30
0.0
 10
12.08047750530502
 20
-14.38322682427377
 30
0.0
 10
12.01988542479145
 20
-14.38322682427377
 30
0.0
 10
11.89833793486832
 20
-14.38322682427377
 30
0.0
 10
11.77679044494518
 20
-14.38322682427377
 30
0.0
 10
11.65525227114761
 20
-14.38322682427377
 30
0.0
 10
11.41215729130134
 20
-14.38322682427377
 30
0.0
 10
11.16924863396585
 20
-14.38322682427377
 30
0.0
 10
10.92633188213908
 20
-14.38322682427377
 30
0.0
  0
SPLINE
  5
193
330
70
100
AcDbEntity
  8
Livello 1
370
     9
100
AcDbSpline
210
0.0
220
0.0
230
1.0
 70
    24
 71
     3
 72
     8
 73
     4
 74
     0
 42
0.000000001
 43
0.0000000001
 40
0.0
 40
0.0
 40
0.0
 40
0.0
 40
1.0
 40
1.0
 40
1.0
 40
1.0
 10
13.87146537590866
 20
-14.91908106275809
 30
0.0
 10
13.87237835621155
 20
-14.91908106275809
 30
0.0
 10
13.87274298117456
 20
-14.91908106275809
 30
0.0
 10
13.87274298117456
 20
-14.91908106275809
 30
0.0
  0
SPLINE
  5
194
330
70
100
AcDbEntity
  8
Livello 1
370
     9
100
AcDbSpline
210
0.0
220
0.0
230
1.0
 70
    24
 71
     3
 72
     8
 73
     4
 74
     0
 42
0.000000001
 43
0.0000000001
 40
1.0
 40
1.0
 40
1.0
 40
1.0
 40
2.0
 40
2.0
 40
2.0
 40
2.0
 10
13.87274298117456
 20
-14.91908106275809
 30
0.0
 10
13.87274298117456
 20
-14.91908106275809
 30
0.0
 10
13.84071284550043
 20
-14.91908106275809
 30
0.0
 10
13.79523281472186
 20
-14.91908106275809
 30
0.0
  0
LINE
  5
19C
330
70
100
AcDbEntity
  8
0
100
AcDbLine
 10
6.838703573351467
 20
-15.67533697740969
 30
0.0
 11
14.08090119417818
 21
-15.67533697740969
 31
0.0
  0
LINE
  5
19D
330
70
100
AcDbEntity
  8
0
100
AcDbLine
 10
14.25246846215554
 20
-14.36230280578184
 30
0.0
 11
14.25246846215554
 21
-15.09030213838701
 31
0.0
  0
LINE
  5
19E
330
70
100
AcDbEntity
  8
0
100
AcDbLine
 10
6.649504686774912
 20
-14.92444715120471
 30
0.0
 11
6.649504686774913
 21
-15.09139212510271
 31
0.0
  0
MTEXT
  5
1A0
330
70
100
AcDbEntity
  8
0
100
AcDbMText
 10
10.28632680772574
 20
-15.92077975252943
 30
0.0
 40
0.2
 41
0.9671735656104374
 46
0.0
 71
     1
 72
     5
  1
450
 73
     1
 44
1.0
1001
ACAD
1000
ACAD_MTEXT_COLUMN_INFO_BEGIN
1070
    75
1070
     2
1070
    79
1070
     0
1070
    76
1070
     1
1070
    78
1070
     0
1070
    48
1040
0.9671735656104374
1070
    49
1040
1.0
1070
    50
1070
     1
1040
0.0
1000
ACAD_MTEXT_COLUMN_INFO_END
  0
MTEXT
  5
1A9
330
70
100
AcDbEntity
  8
0
100
AcDbMText
 10
14.50583389930477
 20
-14.59438040334311
 30
0.0
 40
0.2
 41
0.9671735656104374
 46
0.0
 71
     1
 72
     5
  1
42
 73
     1
 44
1.0
1001
ACAD
1000
ACAD_MTEXT_COLUMN_INFO_BEGIN
1070
    75
1070
     2
1070
    79
1070
     0
1070
    76
1070
     1
1070
    78
1070
     0
1070
    48
1040
0.9671735656104374
1070
    49
1040
1.0
1070
    50
1070
     1
1040
0.0
1000
ACAD_MTEXT_COLUMN_INFO_END
  0
MTEXT
  5
1B1
330
70
100
AcDbEntity
  8
0
100
AcDbMText
 10
6.292872218500088
 20
-14.89342608698164
 30
0.0
 40
0.2
 41
0.9671735656104374
 46
0.0
 71
     1
 72
     5
  1
14
 73
     1
 44
1.0
1001
ACAD
1000
ACAD_MTEXT_COLUMN_INFO_BEGIN
1070
    75
1070
     2
1070
    79
1070
     0
1070
    76
1070
     1
1070
    78
1070
     0
1070
    48
1040
0.9671735656104374
1070
    49
1040
1.0
1070
    50
1070
     1
1040
0.0
1000
ACAD_MTEXT_COLUMN_INFO_END
  0
ENDSEC
  0
SECTION
  2
OBJECTS
  0
DICTIONARY
  5
C
330
0
100
AcDbDictionary
281
     1
  3
ACAD_CIP_PREVIOUS_PRODUCT_INFO
350
183
  3
ACAD_COLOR
350
63
  3
ACAD_DETAILVIEWSTYLE
350
6A
  3
ACAD_GROUP
350
D
  3
ACAD_LAYOUT
350
62
  3
ACAD_MATERIAL
350
10
  3
ACAD_MLEADERSTYLE
350
66
  3
ACAD_MLINESTYLE
350
5F
  3
ACAD_PLOTSETTINGS
350
61
  3
ACAD_PLOTSTYLENAME
350
E
  3
ACAD_SCALELIST
350
42
  3
ACAD_SECTIONVIEWSTYLE
350
68
  3
ACAD_TABLESTYLE
350
64
  3
ACAD_VISUALSTYLE
350
29
  3
ACDB_RECOMPOSE_DATA
350
1BB
  3
AcDbVariableDictionary
350
179
  0
DICTIONARY
  5
184
330
70
100
AcDbDictionary
280
     1
281
     1
  3
ACAD_SORTENTS
360
185
  0
XRECORD
  5
183
102
{ACAD_REACTORS
330
C
102
}
330
C
100
AcDbXrecord
280
     1
300
ACD
300
2022
300

  0
DICTIONARY
  5
63
102
{ACAD_REACTORS
330
C
102
}
330
C
100
AcDbDictionary
281
     1
  0
DICTIONARY
  5
6A
102
{ACAD_REACTORS
330
C
102
}
330
C
100
AcDbDictionary
281
     1
  3
Imperial24
350
6B
  0
DICTIONARY
  5
D
102
{ACAD_REACTORS
330
C
102
}
330
C
100
AcDbDictionary
281
     1
  0
DICTIONARY
  5
62
102
{ACAD_REACTORS
330
C
102
}
330
C
100
AcDbDictionary
281
     1
  3
Layout1
350
6F
  3
Layout2
350
77
  3
Model
350
73
  0
DICTIONARY
  5
10
102
{ACAD_REACTORS
330
C
102
}
330
C
100
AcDbDictionary
281
     1
  3
ByBlock
350
19
  3
ByLayer
350
11
  3
Global
350
21
  0
DICTIONARY
  5
66
102
{ACAD_REACTORS
330
C
102
}
330
C
100
AcDbDictionary
281
     1
  3
Standard
350
67
  0
DICTIONARY
  5
5F
102
{ACAD_REACTORS
330
C
102
}
330
C
100
AcDbDictionary
281
     1
  3
Standard
350
60
  0
DICTIONARY
  5
61
102
{ACAD_REACTORS
330
C
102
}
330
C
100
AcDbDictionary
281
     1
  0
ACDBDICTIONARYWDFLT
  5
E
102
{ACAD_REACTORS
330
C
102
}
330
C
100
AcDbDictionary
281
     1
  3
Normal
350
F
100
AcDbDictionaryWithDefault
340
F
  0
DICTIONARY
  5
42
102
{ACAD_REACTORS
330
C
102
}
330
C
100
AcDbDictionary
281
     1
  3
A0
350
43
  3
A1
350
44
  3
A2
350
45
  3
A3
350
46
  3
A4
350
47
  3
A5
350
48
  3
A6
350
49
  3
A7
350
4A
  3
A8
350
4B
  3
A9
350
4C
  3
B0
350
4D
  3
B1
350
4E
  3
B2
350
4F
  3
B3
350
50
  3
B4
350
51
  3
B5
350
52
  3
B6
350
53
  0
DICTIONARY
  5
68
102
{ACAD_REACTORS
330
C
102
}
330
C
100
AcDbDictionary
281
     1
  3
Imperial24
350
69
  0
DICTIONARY
  5
64
102
{ACAD_REACTORS
330
C
102
}
330
C
100
AcDbDictionary
281
     1
  3
Standard
350
65
  0
DICTIONARY
  5
29
102
{ACAD_REACTORS
330
C
102
}
330
C
100
AcDbDictionary
281
     1
  3
2dWireframe
350
2F
  3
Basic
350
2E
  3
Brighten
350
35
  3
ColorChange
350
39
  3
Conceptual
350
32
  3
Dim
350
34
  3
EdgeColorOff
350
41
  3
Facepattern
350
38
  3
Flat
350
2A
  3
FlatWithEdges
350
2B
  3
Gouraud
350
2C
  3
GouraudWithEdges
350
2D
  3
Hidden
350
31
  3
JitterOff
350
3F
  3
Linepattern
350
37
  3
OverhangOff
350
40
  3
Realistic
350
33
  3
Shaded
350
3E
  3
Shaded with edges
350
3D
  3
Shades of Gray
350
3A
  3
Sketchy
350
3B
  3
Thicken
350
36
  3
Wireframe
350
30
  3
X-Ray
350
3C
  0
XRECORD
  5
1BB
102
{ACAD_REACTORS
330
C
102
}
330
C
100
AcDbXrecord
280
     1
 90
        1
330
65
330
1A0
330
1A9
330
1B1
  0
DICTIONARY
  5
179
102
{ACAD_REACTORS
330
C
102
}
330
C
100
AcDbDictionary
281
     1
  3
CANNOSCALE
350
17E
  3
CMLEADERSTYLE
350
17B
  3
CTABLESTYLE
350
17A
  3
CVIEWDETAILSTYLE
350
17C
  3
CVIEWSECTIONSTYLE
350
17D
  0
SORTENTSTABLE
  5
185
102
{ACAD_REACTORS
330
184
102
}
330
184
100
AcDbSortentsTable
330
70
331
D9
  5
EB
331
DA
  5
EC
331
DB
  5
ED
331
DC
  5
F1
331
DD
  5
F2
331
DE
  5
F3
331
DF
  5
F4
331
E0
  5
F6
331
E1
  5
FA
331
E3
  5
FB
331
E6
  5
FC
331
E8
  5
FE
331
E9
  5
103
331
EB
  5
107
331
EC
  5
108
331
ED
  5
109
331
F1
  5
10A
331
F2
  5
10C
331
F3
  5
10F
331
F4
  5
111
331
F6
  5
116
331
FA
  5
117
331
FB
  5
11A
331
FC
  5
11B
331
FE
  5
11D
331
103
  5
11E
331
107
  5
120
331
108
  5
121
331
109
  5
122
331
10A
  5
125
331
10C
  5
126
331
10F
  5
127
331
111
  5
128
331
116
  5
12B
331
117
  5
12E
331
11A
  5
12F
331
11B
  5
131
331
11D
  5
134
331
11E
  5
135
331
120
  5
137
331
121
  5
138
331
122
  5
139
331
125
  5
13A
331
126
  5
13B
331
127
  5
13E
331
128
  5
13F
331
12B
  5
140
331
12E
  5
186
331
12F
  5
187
331
131
  5
188
331
132
  5
189
331
133
  5
18A
331
134
  5
18B
331
135
  5
18C
331
137
  5
18D
331
138
  5
18E
331
139
  5
18F
331
13A
  5
190
331
13B
  5
191
331
13E
  5
192
331
13F
  5
193
331
140
  5
194
331
193
  5
132
331
194
  5
133
  0
ACDBDETAILVIEWSTYLE
  5
6B
102
{ACAD_XDICTIONARY
360
1BE
102
}
102
{ACAD_REACTORS
330
6A
102
}
330
6A
100
AcDbModelDocViewStyle
 70
     0
  3
Imperial24
290
     0
100
AcDbDetailViewStyle
 70
     0
 71
     0
 90
        3
 71
     1
340
55
 62
   256
 40
0.24
340
0
 62
   256
 40
0.24
300

 40
0.36
280
     3
 71
     2
340
5D
 90
       25
 62
   256
 71
     3
340
55
 62
   256
 40
0.24
 90
        1
 40
0.75
 90
        1
300
%<\AcVar ViewType \f "%tc1">% %<\AcVar ViewDetailId>%\PSCALE %<\AcVar ViewScale \f "%sn">%
 71
     4
340
5D
 90
       25
 62
   256
340
5D
 90
       25
 62
   256
280
     0
  0
LAYOUT
  5
6F
102
{ACAD_REACTORS
330
62
102
}
330
62
100
AcDbPlotSettings
  1

  2

  4

  6

 40
0.0
 41
0.0
 42
0.0
 43
0.0
 44
0.0
 45
0.0
 46
0.0
 47
0.0
 48
0.0
 49
0.0
140
0.0
141
0.0
142
1.0
143
1.0
 70
   688
 72
     0
 73
     0
 74
     5
  7

 75
    16
147
1.0
 76
     0
 77
     2
 78
   300
148
0.0
149
0.0
100
AcDbLayout
  1
Layout1
 70
     1
 71
     1
 10
0.0
 20
0.0
 11
12.0
 21
9.0
 12
0.0
 22
0.0
 32
0.0
 14
1.000000000000000E+20
 24
1.000000000000000E+20
 34
1.000000000000000E+20
 15
-1.000000000000000E+20
 25
-1.000000000000000E+20
 35
-1.000000000000000E+20
146
0.0
 13
0.0
 23
0.0
 33
0.0
 16
1.0
 26
0.0
 36
0.0
 17
0.0
 27
1.0
 37
0.0
 76
     0
330
6C
  0
LAYOUT
  5
77
102
{ACAD_REACTORS
330
62
102
}
330
62
100
AcDbPlotSettings
  1

  2

  4

  6

 40
0.0
 41
0.0
 42
0.0
 43
0.0
 44
0.0
 45
0.0
 46
0.0
 47
0.0
 48
0.0
 49
0.0
140
0.0
141
0.0
142
1.0
143
1.0
 70
   688
 72
     0
 73
     0
 74
     5
  7

 75
    16
147
1.0
 76
     0
 77
     2
 78
   300
148
0.0
149
0.0
100
AcDbLayout
  1
Layout2
 70
     1
 71
     2
 10
0.0
 20
0.0
 11
12.0
 21
9.0
 12
0.0
 22
0.0
 32
0.0
 14
0.0
 24
0.0
 34
0.0
 15
0.0
 25
0.0
 35
0.0
146
0.0
 13
0.0
 23
0.0
 33
0.0
 16
1.0
 26
0.0
 36
0.0
 17
0.0
 27
1.0
 37
0.0
 76
     0
330
74
  0
LAYOUT
  5
73
102
{ACAD_REACTORS
330
62
102
}
330
62
100
AcDbPlotSettings
  1

  2

  4

  6

 40
0.0
 41
0.0
 42
0.0
 43
0.0
 44
0.0
 45
0.0
 46
0.0
 47
0.0
 48
0.0
 49
0.0
140
0.0
141
0.0
142
1.0
143
1.0
 70
  1712
 72
     0
 73
     0
 74
     0
  7

 75
     0
147
1.0
 76
     0
 77
     2
 78
   300
148
0.0
149
0.0
100
AcDbLayout
  1
Model
 70
     1
 71
     0
 10
0.0
 20
0.0
 11
12.0
 21
9.0
 12
0.0
 22
0.0
 32
0.0
 14
0.0
 24
0.0
 34
0.0
 15
0.0
 25
0.0
 35
0.0
146
0.0
 13
0.0
 23
0.0
 33
0.0
 16
1.0
 26
0.0
 36
0.0
 17
0.0
 27
1.0
 37
0.0
 76
     0
330
70
331
57
  0
MATERIAL
  5
19
102
{ACAD_XDICTIONARY
360
1A
102
}
102
{ACAD_REACTORS
330
10
102
}
330
10
100
AcDbMaterial
  1
ByBlock
 72
     0
 43
0.0208333333333333
 43
0.0
 43
0.0
 43
0.0
 43
0.0
 43
0.0208333333333333
 43
0.0
 43
0.0
 43
0.0
 43
0.0
 43
1.0
 43
0.0
 43
0.0
 43
0.0
 43
0.0
 43
1.0
 77
     0
 47
0.0208333333333333
 47
0.0
 47
0.0
 47
0.0
 47
0.0
 47
0.0208333333333333
 47
0.0
 47
0.0
 47
0.0
 47
0.0
 47
1.0
 47
0.0
 47
0.0
 47
0.0
 47
0.0
 47
1.0
171
     0
 49
0.0208333333333333
 49
0.0
 49
0.0
 49
0.0
 49
0.0
 49
0.0208333333333333
 49
0.0
 49
0.0
 49
0.0
 49
0.0
 49
1.0
 49
0.0
 49
0.0
 49
0.0
 49
0.0
 49
1.0
175
     0
142
0.0208333333333333
142
0.0
142
0.0
142
0.0
142
0.0
142
0.0208333333333333
142
0.0
142
0.0
142
0.0
142
0.0
142
1.0
142
0.0
142
0.0
142
0.0
142
0.0
142
1.0
179
     0
144
0.0208333333333333
144
0.0
144
0.0
144
0.0
144
0.0
144
0.0208333333333333
144
0.0
144
0.0
144
0.0
144
0.0
144
1.0
144
0.0
144
0.0
144
0.0
144
0.0
144
1.0
147
0.0208333333333333
147
0.0
147
0.0
147
0.0
147
0.0
147
0.0208333333333333
147
0.0
147
0.0
147
0.0
147
0.0
147
1.0
147
0.0
147
0.0
147
0.0
147
0.0
147
1.0
  0
MATERIAL
  5
11
102
{ACAD_XDICTIONARY
360
12
102
}
102
{ACAD_REACTORS
330
10
102
}
330
10
100
AcDbMaterial
  1
ByLayer
 72
     0
 43
0.0208333333333333
 43
0.0
 43
0.0
 43
0.0
 43
0.0
 43
0.0208333333333333
 43
0.0
 43
0.0
 43
0.0
 43
0.0
 43
1.0
 43
0.0
 43
0.0
 43
0.0
 43
0.0
 43
1.0
 77
     0
 47
0.0208333333333333
 47
0.0
 47
0.0
 47
0.0
 47
0.0
 47
0.0208333333333333
 47
0.0
 47
0.0
 47
0.0
 47
0.0
 47
1.0
 47
0.0
 47
0.0
 47
0.0
 47
0.0
 47
1.0
171
     0
 49
0.0208333333333333
 49
0.0
 49
0.0
 49
0.0
 49
0.0
 49
0.0208333333333333
 49
0.0
 49
0.0
 49
0.0
 49
0.0
 49
1.0
 49
0.0
 49
0.0
 49
0.0
 49
0.0
 49
1.0
175
     0
142
0.0208333333333333
142
0.0
142
0.0
142
0.0
142
0.0
142
0.0208333333333333
142
0.0
142
0.0
142
0.0
142
0.0
142
1.0
142
0.0
142
0.0
142
0.0
142
0.0
142
1.0
179
     0
144
0.0208333333333333
144
0.0
144
0.0
144
0.0
144
0.0
144
0.0208333333333333
144
0.0
144
0.0
144
0.0
144
0.0
144
1.0
144
0.0
144
0.0
144
0.0
144
0.0
144
1.0
147
0.0208333333333333
147
0.0
147
0.0
147
0.0
147
0.0
147
0.0208333333333333
147
0.0
147
0.0
147
0.0
147
0.0
147
1.0
147
0.0
147
0.0
147
0.0
147
0.0
147
1.0
  0
MATERIAL
  5
21
102
{ACAD_XDICTIONARY
360
22
102
}
102
{ACAD_REACTORS
330
10
102
}
330
10
100
AcDbMaterial
  1
Global
 72
     0
 43
0.0208333333333333
 43
0.0
 43
0.0
 43
0.0
 43
0.0
 43
0.0208333333333333
 43
0.0
 43
0.0
 43
0.0
 43
0.0
 43
1.0
 43
0.0
 43
0.0
 43
0.0
 43
0.0
 43
1.0
 77
     0
 47
0.0208333333333333
 47
0.0
 47
0.0
 47
0.0
 47
0.0
 47
0.0208333333333333
 47
0.0
 47
0.0
 47
0.0
 47
0.0
 47
1.0
 47
0.0
 47
0.0
 47
0.0
 47
0.0
 47
1.0
171
     0
 49
0.0208333333333333
 49
0.0
 49
0.0
 49
0.0
 49
0.0
 49
0.0208333333333333
 49
0.0
 49
0.0
 49
0.0
 49
0.0
 49
1.0
 49
0.0
 49
0.0
 49
0.0
 49
0.0
 49
1.0
175
     0
142
0.0208333333333333
142
0.0
142
0.0
142
0.0
142
0.0
142
0.0208333333333333
142
0.0
142
0.0
142
0.0
142
0.0
142
1.0
142
0.0
142
0.0
142
0.0
142
0.0
142
1.0
179
     0
144
0.0208333333333333
144
0.0
144
0.0
144
0.0
144
0.0
144
0.0208333333333333
144
0.0
144
0.0
144
0.0
144
0.0
144
1.0
144
0.0
144
0.0
144
0.0
144
0.0
144
1.0
147
0.0208333333333333
147
0.0
147
0.0
147
0.0
147
0.0
147
0.0208333333333333
147
0.0
147
0.0
147
0.0
147
0.0
147
1.0
147
0.0
147
0.0
147
0.0
147
0.0
147
1.0
  0
MLEADERSTYLE
  5
67
102
{ACAD_REACTORS
330
66
102
}
330
66
100
AcDbMLeaderStyle
179
     2
170
     2
171
     1
172
     0
 90
        2
 40
0.0
 41
0.0
173
     1
 91
-1056964608
340
5B
 92
       -2
290
     1
 42
0.09
291
     1
 43
0.36
  3
Standard
 44
0.18
300

342
55
174
     1
178
     6
175
     1
176
     0
 93
-1056964608
 45
0.18
292
     0
297
     0
 46
0.18
 94
-1056964608
 47
1.0
 49
1.0
140
1.0
293
     1
141
0.0
294
     1
177
     0
142
1.0
295
     0
296
     0
143
0.125
271
     0
272
     9
273
     9
298
     1
  0
MLINESTYLE
  5
60
102
{ACAD_REACTORS
330
5F
102
}
330
5F
100
AcDbMlineStyle
  2
STANDARD
 70
     0
  3

 62
   256
 51
90.0
 52
90.0
 71
     2
 49
0.5
 62
   256
  6
BYLAYER
 49
-0.5
 62
   256
  6
BYLAYER
  0
ACDBPLACEHOLDER
  5
F
102
{ACAD_REACTORS
330
E
102
}
330
E
  0
SCALE
  5
43
102
{ACAD_REACTORS
330
42
102
}
330
42
100
AcDbScale
 70
     0
300
1:1
140
1.0
141
1.0
290
     1
  0
SCALE
  5
44
102
{ACAD_REACTORS
330
42
102
}
330
42
100
AcDbScale
 70
     0
300
1/128" = 1'-0"
140
0.0078125
141
12.0
290
     0
  0
SCALE
  5
45
102
{ACAD_REACTORS
330
42
102
}
330
42
100
AcDbScale
 70
     0
300
1/64" = 1'-0"
140
0.015625
141
12.0
290
     0
  0
SCALE
  5
46
102
{ACAD_REACTORS
330
42
102
}
330
42
100
AcDbScale
 70
     0
300
1/32" = 1'-0"
140
0.03125
141
12.0
290
     0
  0
SCALE
  5
47
102
{ACAD_REACTORS
330
42
102
}
330
42
100
AcDbScale
 70
     0
300
1/16" = 1'-0"
140
0.0625
141
12.0
290
     0
  0
SCALE
  5
48
102
{ACAD_REACTORS
330
42
102
}
330
42
100
AcDbScale
 70
     0
300
3/32" = 1'-0"
140
0.09375
141
12.0
290
     0
  0
SCALE
  5
49
102
{ACAD_REACTORS
330
42
102
}
330
42
100
AcDbScale
 70
     0
300
1/8" = 1'-0"
140
0.125
141
12.0
290
     0
  0
SCALE
  5
4A
102
{ACAD_REACTORS
330
42
102
}
330
42
100
AcDbScale
 70
     0
300
3/16" = 1'-0"
140
0.1875
141
12.0
290
     0
  0
SCALE
  5
4B
102
{ACAD_REACTORS
330
42
102
}
330
42
100
AcDbScale
 70
     0
300
1/4" = 1'-0"
140
0.25
141
12.0
290
     0
  0
SCALE
  5
4C
102
{ACAD_REACTORS
330
42
102
}
330
42
100
AcDbScale
 70
     0
300
3/8" = 1'-0"
140
0.375
141
12.0
290
     0
  0
SCALE
  5
4D
102
{ACAD_REACTORS
330
42
102
}
330
42
100
AcDbScale
 70
     0
300
1/2" = 1'-0"
140
0.5
141
12.0
290
     0
  0
SCALE
  5
4E
102
{ACAD_REACTORS
330
42
102
}
330
42
100
AcDbScale
 70
     0
300
3/4" = 1'-0"
140
0.75
141
12.0
290
     0
  0
SCALE
  5
4F
102
{ACAD_REACTORS
330
42
102
}
330
42
100
AcDbScale
 70
     0
300
1" = 1'-0"
140
1.0
141
12.0
290
     0
  0
SCALE
  5
50
102
{ACAD_REACTORS
330
42
102
}
330
42
100
AcDbScale
 70
     0
300
1-1/2" = 1'-0"
140
1.5
141
12.0
290
     0
  0
SCALE
  5
51
102
{ACAD_REACTORS
330
42
102
}
330
42
100
AcDbScale
 70
     0
300
3" = 1'-0"
140
3.0
141
12.0
290
     0
  0
SCALE
  5
52
102
{ACAD_REACTORS
330
42
102
}
330
42
100
AcDbScale
 70
     0
300
6" = 1'-0"
140
6.0
141
12.0
290
     0
  0
SCALE
  5
53
102
{ACAD_REACTORS
330
42
102
}
330
42
100
AcDbScale
 70
     0
300
1'-0" = 1'-0"
140
12.0
141
12.0
290
     0
  0
ACDBSECTIONVIEWSTYLE
  5
69
102
{ACAD_XDICTIONARY
360
1BC
102
}
102
{ACAD_REACTORS
330
68
102
}
330
68
100
AcDbModelDocViewStyle
 70
     0
  3
Imperial24
290
     0
100
AcDbSectionViewStyle
 70
     0
 71
     0
 90
       78
 71
     1
340
55
 62
   256
 40
0.24
340
0
340
0
 62
   256
 40
0.24
300
I, O, Q, S, X, Z
 40
0.48
 90
        3
 40
0.18
 90
        1
 71
     2
340
5D
 90
       25
 62
   256
340
5D
 90
       50
 62
   256
 40
0.24
 40
0.0
 40
0.24
 71
     3
340
55
 62
   256
 40
0.24
 90
        1
 40
0.75
 90
        1
300
%<\AcVar ViewType \f "%tc1">% %<\AcVar ViewSectionStartId>%-%<\AcVar ViewSectionEndId>%\PSCALE %<\AcVar ViewScale \f "%sn">%
 71
     4
 62
   256
 62
   257
300
ANSI31
 40
1.0
 90
        0
290
     0
290
     0
 90
        6
 40
0.0
 40
1.570796326794896
 40
0.2617993877991494
 40
1.308996938995747
 40
-0.2617993877991494
 40
1.832595714594046
  0
TABLESTYLE
  5
65
102
{ACAD_XDICTIONARY
360
1B9
102
}
102
{ACAD_REACTORS
330
64
102
}
330
64
100
AcDbTableStyle
280
     0
  3
Standard
 70
     0
 71
     0
 40
0.06
 41
0.06
280
     0
281
     0
  7
Standard
140
0.18
170
     2
 62
     0
 63
     7
283
     0
 90
      512
 91
        0
  1

274
    -2
284
     1
 64
     0
275
    -2
285
     1
 65
     0
276
    -2
286
     1
 66
     0
277
    -2
287
     1
 67
     0
278
    -2
288
     1
 68
     0
279
    -2
289
     1
 69
     0
  7
Standard
140
0.25
170
     5
 62
     0
 63
     7
283
     0
 90
      512
 91
        0
  1

274
    -2
284
     1
 64
     0
275
    -2
285
     1
 65
     0
276
    -2
286
     1
 66
     0
277
    -2
287
     1
 67
     0
278
    -2
288
     1
 68
     0
279
    -2
289
     1
 69
     0
  7
Standard
140
0.18
170
     5
 62
     0
 63
     7
283
     0
 90
      512
 91
        0
  1

274
    -2
284
     1
 64
     0
275
    -2
285
     1
 65
     0
276
    -2
286
     1
 66
     0
277
    -2
287
     1
 67
     0
278
    -2
288
     1
 68
     0
279
    -2
289
     1
 69
     0
  0
VISUALSTYLE
  5
2F
102
{ACAD_REACTORS
330
29
102
}
330
29
100
AcDbVisualStyle
  2
2dWireframe
 70
     4
177
     3
291
     0
 70
    58
 90
        0
176
     1
 90
        2
176
     1
 90
        0
176
     1
 90
        0
176
     1
 40
0.6
176
     1
 40
30.0
176
     1
 62
     7
420
 16777215
176
     1
 90
        1
176
     1
 90
        4
176
     1
 62
     7
176
     1
 62
   257
176
     1
 90
        1
176
     1
 90
        1
176
     1
 40
1.0
176
     1
 90
        0
176
     1
 62
   257
176
     1
 40
1.0
176
     1
 90
        1
176
     1
 90
        6
176
     1
 90
        2
176
     1
 62
     7
176
     1
 90
        5
176
     1
 90
        0
176
     1
 90
        0
176
     1
290
     0
176
     1
 90
        1
176
     1
 40
0.0
176
     1
 90
        0
176
     1
290
     1
176
     1
290
     1
176
     1
290
     0
176
     1
290
     0
176
     1
290
     0
176
     1
290
     0
176
     1
290
     0
176
     1
290
     0
176
     1
290
     0
176
     1
 90
       50
176
     1
 40
0.0
176
     1
 40
1.0
176
     1
 90
        0
176
     1
 62
    18
420
        0
176
     1
 90
       50
176
     1
 90
        3
176
     1
 62
     5
420
      255
176
     1
290
     0
176
     1
 90
       50
176
     1
 90
       50
176
     1
 90
       50
176
     1
290
     0
176
     1
 90
       50
176
     1
 62
   256
176
     0
 40
1.0
176
     0
 90
        2
176
     1
  1
strokes_ogs.tif
176
     1
290
     0
176
     1
 40
1.0
176
     1
 40
1.0
176
     1
1001
ACAD
1000
AcDbSavedByObjectVersion
1070
     0
  0
VISUALSTYLE
  5
2E
102
{ACAD_REACTORS
330
29
102
}
330
29
100
AcDbVisualStyle
  2
Basic
 70
     7
177
     3
291
     1
 70
    58
 90
        1
176
     1
 90
        0
176
     1
 90
        1
176
     1
 90
        0
176
     1
 40
0.6
176
     1
 40
30.0
176
     1
 62
     7
420
 16777215
176
     1
 90
        0
176
     1
 90
        4
176
     1
 62
     7
176
     1
 62
   257
176
     1
 90
        1
176
     1
 90
        1
176
     1
 40
1.0
176
     1
 90
        8
176
     1
 62
     7
176
     1
 40
1.0
176
     1
 90
        1
176
     1
 90
        6
176
     1
 90
        2
176
     1
 62
     7
176
     1
 90
        5
176
     1
 90
        0
176
     1
 90
        0
176
     1
290
     0
176
     1
 90
        1
176
     1
 40
0.0
176
     1
 90
        0
176
     1
290
     0
176
     1
290
     1
176
     1
290
     1
176
     1
290
     0
176
     1
290
     0
176
     1
290
     0
176
     1
290
     0
176
     1
290
     0
176
     1
290
     0
176
     1
 90
       50
176
     1
 40
0.0
176
     1
 40
1.0
176
     1
 90
        0
176
     1
 62
    18
420
        0
176
     1
 90
       50
176
     1
 90
        3
176
     1
 62
     5
420
      255
176
     1
290
     0
176
     1
 90
       50
176
     1
 90
       50
176
     1
 90
       50
176
     1
290
     0
176
     1
 90
       50
176
     1
 62
   256
176
     0
 40
1.0
176
     0
 90
        2
176
     1
  1
strokes_ogs.tif
176
     1
290
     0
176
     1
 40
1.0
176
     1
 40
1.0
176
     1
1001
ACAD
1000
AcDbSavedByObjectVersion
1070
     0
  0
VISUALSTYLE
  5
35
102
{ACAD_REACTORS
330
29
102
}
330
29
100
AcDbVisualStyle
  2
Brighten
 70
    12
177
     3
291
     1
 70
    58
 90
        2
176
     1
 90
        2
176
     1
 90
        0
176
     1
 90
        0
176
     1
 40
0.6
176
     1
 40
30.0
176
     1
 62
     7
420
 16777215
176
     1
 90
        1
176
     1
 90
        4
176
     1
 62
     7
176
     1
 62
   257
176
     1
 90
        1
176
     1
 90
        1
176
     1
 40
1.0
176
     1
 90
        8
176
     1
 62
     7
176
     1
 40
1.0
176
     1
 90
        1
176
     1
 90
        6
176
     1
 90
        2
176
     1
 62
     7
176
     1
 90
        5
176
     1
 90
        0
176
     1
 90
        0
176
     1
290
     0
176
     1
 90
        1
176
     1
 40
50.0
176
     1
 90
        0
176
     1
290
     0
176
     1
290
     1
176
     1
290
     1
176
     1
290
     0
176
     1
290
     0
176
     1
290
     0
176
     1
290
     0
176
     1
290
     0
176
     1
290
     0
176
     1
 90
       50
176
     1
 40
0.0
176
     1
 40
1.0
176
     1
 90
        0
176
     1
 62
    18
420
        0
176
     1
 90
       50
176
     1
 90
        3
176
     1
 62
     5
420
      255
176
     1
290
     0
176
     1
 90
       50
176
     1
 90
       50
176
     1
 90
       50
176
     1
290
     0
176
     1
 90
       50
176
     1
 62
   256
176
     0
 40
1.0
176
     0
 90
        2
176
     1
  1
strokes_ogs.tif
176
     1
290
     0
176
     1
 40
1.0
176
     1
 40
1.0
176
     1
1001
ACAD
1000
AcDbSavedByObjectVersion
1070
     0
  0
VISUALSTYLE
  5
39
102
{ACAD_REACTORS
330
29
102
}
330
29
100
AcDbVisualStyle
  2
ColorChange
 70
    16
177
     3
291
     1
 70
    58
 90
        2
176
     1
 90
        2
176
     1
 90
        3
176
     1
 90
        0
176
     1
 40
0.6
176
     1
 40
30.0
176
     1
 62
     8
420
  8421504
176
     1
 90
        1
176
     1
 90
        4
176
     1
 62
     7
176
     1
 62
   257
176
     1
 90
        1
176
     1
 90
        1
176
     1
 40
1.0
176
     1
 90
        8
176
     1
 62
     8
420
  8421504
176
     1
 40
1.0
176
     1
 90
        1
176
     1
 90
        6
176
     1
 90
        2
176
     1
 62
     7
176
     1
 90
        5
176
     1
 90
        0
176
     1
 90
        0
176
     1
290
     0
176
     1
 90
        1
176
     1
 40
0.0
176
     1
 90
        0
176
     1
290
     0
176
     1
290
     1
176
     1
290
     1
176
     1
290
     0
176
     1
290
     0
176
     1
290
     0
176
     1
290
     0
176
     1
290
     0
176
     1
290
     0
176
     1
 90
       50
176
     1
 40
0.0
176
     1
 40
1.0
176
     1
 90
        0
176
     1
 62
    18
420
        0
176
     1
 90
       50
176
     1
 90
        3
176
     1
 62
     5
420
      255
176
     1
290
     0
176
     1
 90
       50
176
     1
 90
       50
176
     1
 90
       50
176
     1
290
     0
176
     1
 90
       50
176
     1
 62
   256
176
     0
 40
1.0
176
     0
 90
        2
176
     1
  1
strokes_ogs.tif
176
     1
290
     0
176
     1
 40
1.0
176
     1
 40
1.0
176
     1
1001
ACAD
1000
AcDbSavedByObjectVersion
1070
     0
  0
VISUALSTYLE
  5
32
102
{ACAD_REACTORS
330
29
102
}
330
29
100
AcDbVisualStyle
  2
Conceptual
 70
     9
177
     3
291
     0
 70
    58
 90
        3
176
     1
 90
        2
176
     1
 90
        0
176
     1
 90
        0
176
     1
 40
0.6
176
     1
 40
30.0
176
     1
 62
     7
420
 16777215
176
     1
 90
        2
176
     1
 90
        2
176
     1
 62
     7
176
     1
 62
   257
176
     1
 90
        1
176
     1
 90
        1
176
     1
 40
179.0
176
     1
 90
        8
176
     1
 62
     7
176
     1
 40
1.0
176
     1
 90
        1
176
     1
 90
        6
176
     1
 90
        2
176
     1
 62
     7
176
     1
 90
        3
176
     1
 90
        0
176
     1
 90
        0
176
     1
290
     0
176
     1
 90
        1
176
     1
 40
0.0
176
     1
 90
        0
176
     1
290
     0
176
     1
290
     1
176
     1
290
     1
176
     1
290
     0
176
     1
290
     0
176
     1
290
     0
176
     1
290
     0
176
     1
290
     0
176
     1
290
     0
176
     1
 90
       50
176
     1
 40
0.0
176
     1
 40
1.0
176
     1
 90
        0
176
     1
 62
    18
420
        0
176
     1
 90
       50
176
     1
 90
        3
176
     1
 62
     5
420
      255
176
     1
290
     0
176
     1
 90
       50
176
     1
 90
       50
176
     1
 90
       50
176
     1
290
     0
176
     1
 90
       50
176
     1
 62
   256
176
     0
 40
1.0
176
     0
 90
        2
176
     1
  1
strokes_ogs.tif
176
     1
290
     0
176
     1
 40
1.0
176
     1
 40
1.0
176
     1
1001
ACAD
1000
AcDbSavedByObjectVersion
1070
     0
  0
VISUALSTYLE
  5
34
102
{ACAD_REACTORS
330
29
102
}
330
29
100
AcDbVisualStyle
  2
Dim
 70
    11
177
     3
291
     1
 70
    58
 90
        2
176
     1
 90
        2
176
     1
 90
        0
176
     1
 90
        0
176
     1
 40
0.6
176
     1
 40
30.0
176
     1
 62
     7
420
 16777215
176
     1
 90
        1
176
     1
 90
        4
176
     1
 62
     7
176
     1
 62
   257
176
     1
 90
        1
176
     1
 90
        1
176
     1
 40
1.0
176
     1
 90
        8
176
     1
 62
     7
176
     1
 40
1.0
176
     1
 90
        1
176
     1
 90
        6
176
     1
 90
        2
176
     1
 62
     7
176
     1
 90
        5
176
     1
 90
        0
176
     1
 90
        0
176
     1
290
     0
176
     1
 90
        1
176
     1
 40
-50.0
176
     1
 90
        0
176
     1
290
     0
176
     1
290
     1
176
     1
290
     1
176
     1
290
     0
176
     1
290
     0
176
     1
290
     0
176
     1
290
     0
176
     1
290
     0
176
     1
290
     0
176
     1
 90
       50
176
     1
 40
0.0
176
     1
 40
1.0
176
     1
 90
        0
176
     1
 62
    18
420
        0
176
     1
 90
       50
176
     1
 90
        3
176
     1
 62
     5
420
      255
176
     1
290
     0
176
     1
 90
       50
176
     1
 90
       50
176
     1
 90
       50
176
     1
290
     0
176
     1
 90
       50
176
     1
 62
   256
176
     0
 40
1.0
176
     0
 90
        2
176
     1
  1
strokes_ogs.tif
176
     1
290
     0
176
     1
 40
1.0
176
     1
 40
1.0
176
     1
1001
ACAD
1000
AcDbSavedByObjectVersion
1070
     0
  0
VISUALSTYLE
  5
41
102
{ACAD_REACTORS
330
29
102
}
330
29
100
AcDbVisualStyle
  2
EdgeColorOff
 70
    22
177
     3
291
     1
 70
    58
 90
        2
176
     0
 90
        2
176
     0
 90
        0
176
     0
 90
        0
176
     0
 40
0.6
176
     0
 40
30.0
176
     0
 62
     7
420
 16777215
176
     0
 90
        1
176
     0
 90
        4
176
     0
 62
     7
176
     0
 62
   257
176
     0
 90
        1
176
     0
 90
        1
176
     0
 40
1.0
176
     0
 90
        8
176
     2
 62
     7
176
     0
 40
1.0
176
     0
 90
        1
176
     0
 90
        6
176
     0
 90
        2
176
     0
 62
     7
176
     0
 90
        5
176
     0
 90
        0
176
     0
 90
        0
176
     0
290
     0
176
     0
 90
        1
176
     0
 40
0.0
176
     0
 90
        0
176
     0
290
     0
176
     0
290
     1
176
     0
290
     1
176
     0
290
     0
176
     0
290
     0
176
     0
290
     0
176
     0
290
     0
176
     0
290
     0
176
     0
290
     0
176
     0
 90
       50
176
     0
 40
0.0
176
     0
 40
1.0
176
     0
 90
        0
176
     0
 62
    18
420
        0
176
     0
 90
       50
176
     0
 90
        3
176
     0
 62
     5
420
      255
176
     0
290
     0
176
     0
 90
       50
176
     0
 90
       50
176
     0
 90
       50
176
     0
290
     0
176
     0
 90
       50
176
     0
 62
   256
176
     0
 40
1.0
176
     0
 90
        2
176
     0
  1
strokes_ogs.tif
176
     0
290
     0
176
     0
 40
1.0
176
     0
 40
1.0
176
     0
1001
ACAD
1000
AcDbSavedByObjectVersion
1070
     0
  0
VISUALSTYLE
  5
38
102
{ACAD_REACTORS
330
29
102
}
330
29
100
AcDbVisualStyle
  2
Facepattern
 70
    15
177
     3
291
     1
 70
    58
 90
        2
176
     1
 90
        2
176
     1
 90
        0
176
     1
 90
        0
176
     1
 40
0.6
176
     1
 40
30.0
176
     1
 62
     7
420
 16777215
176
     1
 90
        1
176
     1
 90
        4
176
     1
 62
     7
176
     1
 62
   257
176
     1
 90
        1
176
     1
 90
        1
176
     1
 40
1.0
176
     1
 90
        8
176
     1
 62
     7
176
     1
 40
1.0
176
     1
 90
        1
176
     1
 90
        6
176
     1
 90
        2
176
     1
 62
     7
176
     1
 90
        5
176
     1
 90
        0
176
     1
 90
        0
176
     1
290
     0
176
     1
 90
        1
176
     1
 40
0.0
176
     1
 90
        0
176
     1
290
     0
176
     1
290
     1
176
     1
290
     1
176
     1
290
     0
176
     1
290
     0
176
     1
290
     0
176
     1
290
     0
176
     1
290
     0
176
     1
290
     0
176
     1
 90
       50
176
     1
 40
0.0
176
     1
 40
1.0
176
     1
 90
        0
176
     1
 62
    18
420
        0
176
     1
 90
       50
176
     1
 90
        3
176
     1
 62
     5
420
      255
176
     1
290
     0
176
     1
 90
       50
176
     1
 90
       50
176
     1
 90
       50
176
     1
290
     0
176
     1
 90
       50
176
     1
 62
   256
176
     0
 40
1.0
176
     0
 90
        2
176
     1
  1
strokes_ogs.tif
176
     1
290
     0
176
     1
 40
1.0
176
     1
 40
1.0
176
     1
1001
ACAD
1000
AcDbSavedByObjectVersion
1070
     0
  0
VISUALSTYLE
  5
2A
102
{ACAD_REACTORS
330
29
102
}
330
29
100
AcDbVisualStyle
  2
Flat
 70
     0
177
     3
291
     1
 70
    58
 90
        2
176
     1
 90
        1
176
     1
 90
        1
176
     1
 90
        2
176
     1
 40
0.6
176
     1
 40
30.0
176
     1
 62
     7
420
 16777215
176
     1
 90
        0
176
     1
 90
        0
176
     1
 62
     7
176
     1
 62
   257
176
     1
 90
        1
176
     1
 90
        1
176
     1
 40
1.0
176
     1
 90
        8
176
     1
 62
     7
176
     1
 40
1.0
176
     1
 90
        1
176
     1
 90
        6
176
     1
 90
        2
176
     1
 62
     7
176
     1
 90
        5
176
     1
 90
        0
176
     1
 90
        0
176
     1
290
     0
176
     1
 90
       13
176
     1
 40
0.0
176
     1
 90
        0
176
     1
290
     0
176
     1
290
     1
176
     1
290
     1
176
     1
290
     0
176
     1
290
     0
176
     1
290
     0
176
     1
290
     0
176
     1
290
     0
176
     1
290
     0
176
     1
 90
       50
176
     1
 40
0.0
176
     1
 40
1.0
176
     1
 90
        0
176
     1
 62
    18
420
        0
176
     1
 90
       50
176
     1
 90
        3
176
     1
 62
     5
420
      255
176
     1
290
     0
176
     1
 90
       50
176
     1
 90
       50
176
     1
 90
       50
176
     1
290
     0
176
     1
 90
       50
176
     1
 62
   256
176
     0
 40
1.0
176
     0
 90
        2
176
     1
  1
strokes_ogs.tif
176
     1
290
     0
176
     1
 40
1.0
176
     1
 40
1.0
176
     1
1001
ACAD
1000
AcDbSavedByObjectVersion
1070
     0
  0
VISUALSTYLE
  5
2B
102
{ACAD_REACTORS
330
29
102
}
330
29
100
AcDbVisualStyle
  2
FlatWithEdges
 70
     1
177
     3
291
     1
 70
    58
 90
        2
176
     1
 90
        1
176
     1
 90
        1
176
     1
 90
        2
176
     1
 40
0.6
176
     1
 40
30.0
176
     1
 62
     7
420
 16777215
176
     1
 90
        1
176
     1
 90
        0
176
     1
 62
     7
176
     1
 62
   257
176
     1
 90
        1
176
     1
 90
        1
176
     1
 40
1.0
176
     1
 90
        0
176
     1
 62
   257
176
     1
 40
1.0
176
     1
 90
        1
176
     1
 90
        6
176
     1
 90
        2
176
     1
 62
     7
176
     1
 90
        5
176
     1
 90
        0
176
     1
 90
        0
176
     1
290
     0
176
     1
 90
       13
176
     1
 40
0.0
176
     1
 90
        0
176
     1
290
     0
176
     1
290
     1
176
     1
290
     1
176
     1
290
     0
176
     1
290
     0
176
     1
290
     0
176
     1
290
     0
176
     1
290
     0
176
     1
290
     0
176
     1
 90
       50
176
     1
 40
0.0
176
     1
 40
1.0
176
     1
 90
        0
176
     1
 62
    18
420
        0
176
     1
 90
       50
176
     1
 90
        3
176
     1
 62
     5
420
      255
176
     1
290
     0
176
     1
 90
       50
176
     1
 90
       50
176
     1
 90
       50
176
     1
290
     0
176
     1
 90
       50
176
     1
 62
   256
176
     0
 40
1.0
176
     0
 90
        2
176
     1
  1
strokes_ogs.tif
176
     1
290
     0
176
     1
 40
1.0
176
     1
 40
1.0
176
     1
1001
ACAD
1000
AcDbSavedByObjectVersion
1070
     0
  0
VISUALSTYLE
  5
2C
102
{ACAD_REACTORS
330
29
102
}
330
29
100
AcDbVisualStyle
  2
Gouraud
 70
     2
177
     3
291
     1
 70
    58
 90
        2
176
     1
 90
        2
176
     1
 90
        1
176
     1
 90
        2
176
     1
 40
0.6
176
     1
 40
30.0
176
     1
 62
     7
420
 16777215
176
     1
 90
        0
176
     1
 90
        0
176
     1
 62
     7
176
     1
 62
   257
176
     1
 90
        1
176
     1
 90
        1
176
     1
 40
1.0
176
     1
 90
        0
176
     1
 62
     7
176
     1
 40
1.0
176
     1
 90
        1
176
     1
 90
        6
176
     1
 90
        2
176
     1
 62
     7
176
     1
 90
        5
176
     1
 90
        0
176
     1
 90
        0
176
     1
290
     0
176
     1
 90
       13
176
     1
 40
0.0
176
     1
 90
        0
176
     1
290
     0
176
     1
290
     1
176
     1
290
     1
176
     1
290
     0
176
     1
290
     0
176
     1
290
     0
176
     1
290
     0
176
     1
290
     0
176
     1
290
     0
176
     1
 90
       50
176
     1
 40
0.0
176
     1
 40
1.0
176
     1
 90
        0
176
     1
 62
    18
420
        0
176
     1
 90
       50
176
     1
 90
        3
176
     1
 62
     5
420
      255
176
     1
290
     0
176
     1
 90
       50
176
     1
 90
       50
176
     1
 90
       50
176
     1
290
     0
176
     1
 90
       50
176
     1
 62
   256
176
     0
 40
1.0
176
     0
 90
        2
176
     1
  1
strokes_ogs.tif
176
     1
290
     0
176
     1
 40
1.0
176
     1
 40
1.0
176
     1
1001
ACAD
1000
AcDbSavedByObjectVersion
1070
     0
  0
VISUALSTYLE
  5
2D
102
{ACAD_REACTORS
330
29
102
}
330
29
100
AcDbVisualStyle
  2
GouraudWithEdges
 70
     3
177
     3
291
     1
 70
    58
 90
        2
176
     1
 90
        2
176
     1
 90
        1
176
     1
 90
        2
176
     1
 40
0.6
176
     1
 40
30.0
176
     1
 62
     7
420
 16777215
176
     1
 90
        1
176
     1
 90
        0
176
     1
 62
     7
176
     1
 62
   257
176
     1
 90
        1
176
     1
 90
        1
176
     1
 40
1.0
176
     1
 90
        0
176
     1
 62
   257
176
     1
 40
1.0
176
     1
 90
        1
176
     1
 90
        6
176
     1
 90
        2
176
     1
 62
     7
176
     1
 90
        5
176
     1
 90
        0
176
     1
 90
        0
176
     1
290
     0
176
     1
 90
       13
176
     1
 40
0.0
176
     1
 90
        0
176
     1
290
     0
176
     1
290
     1
176
     1
290
     1
176
     1
290
     0
176
     1
290
     0
176
     1
290
     0
176
     1
290
     0
176
     1
290
     0
176
     1
290
     0
176
     1
 90
       50
176
     1
 40
0.0
176
     1
 40
1.0
176
     1
 90
        0
176
     1
 62
    18
420
        0
176
     1
 90
       50
176
     1
 90
        3
176
     1
 62
     5
420
      255
176
     1
290
     0
176
     1
 90
       50
176
     1
 90
       50
176
     1
 90
       50
176
     1
290
     0
176
     1
 90
       50
176
     1
 62
   256
176
     0
 40
1.0
176
     0
 90
        2
176
     1
  1
strokes_ogs.tif
176
     1
290
     0
176
     1
 40
1.0
176
     1
 40
1.0
176
     1
1001
ACAD
1000
AcDbSavedByObjectVersion
1070
     0
  0
VISUALSTYLE
  5
31
102
{ACAD_REACTORS
330
29
102
}
330
29
100
AcDbVisualStyle
  2
Hidden
 70
     6
177
     3
291
     0
 70
    58
 90
        1
176
     1
 90
        2
176
     1
 90
        2
176
     1
 90
        0
176
     1
 40
0.6
176
     1
 40
30.0
176
     1
 62
     7
420
 16777215
176
     1
 90
        2
176
     1
 90
        2
176
     1
 62
     7
176
     1
 62
   257
176
     1
 90
        2
176
     1
 90
        1
176
     1
 40
40.0
176
     1
 90
        0
176
     1
 62
   257
176
     1
 40
1.0
176
     1
 90
        1
176
     1
 90
        6
176
     1
 90
        2
176
     1
 62
     7
176
     1
 90
        3
176
     1
 90
        0
176
     1
 90
        0
176
     1
290
     0
176
     1
 90
        1
176
     1
 40
0.0
176
     1
 90
        0
176
     1
290
     0
176
     1
290
     1
176
     1
290
     1
176
     1
290
     0
176
     1
290
     0
176
     1
290
     0
176
     1
290
     0
176
     1
290
     0
176
     1
290
     0
176
     1
 90
       50
176
     1
 40
0.0
176
     1
 40
1.0
176
     1
 90
        0
176
     1
 62
    18
420
        0
176
     1
 90
       50
176
     1
 90
        3
176
     1
 62
     5
420
      255
176
     1
290
     0
176
     1
 90
       50
176
     1
 90
       50
176
     1
 90
       50
176
     1
290
     0
176
     1
 90
       50
176
     1
 62
   256
176
     0
 40
1.0
176
     0
 90
        2
176
     1
  1
strokes_ogs.tif
176
     1
290
     0
176
     1
 40
1.0
176
     1
 40
1.0
176
     1
1001
ACAD
1000
AcDbSavedByObjectVersion
1070
     0
  0
VISUALSTYLE
  5
3F
102
{ACAD_REACTORS
330
29
102
}
330
29
100
AcDbVisualStyle
  2
JitterOff
 70
    20
177
     3
291
     1
 70
    58
 90
        2
176
     0
 90
        2
176
     0
 90
        0
176
     0
 90
        0
176
     0
 40
0.6
176
     0
 40
30.0
176
     0
 62
     7
420
 16777215
176
     0
 90
        1
176
     0
 90
        4
176
     0
 62
     7
176
     0
 62
   257
176
     0
 90
        1
176
     0
 90
        1
176
     0
 40
1.0
176
     0
 90
       10
176
     2
 62
     7
176
     0
 40
1.0
176
     0
 90
        1
176
     0
 90
        6
176
     0
 90
        2
176
     0
 62
     7
176
     0
 90
        5
176
     0
 90
        0
176
     0
 90
        0
176
     0
290
     0
176
     0
 90
        1
176
     0
 40
0.0
176
     0
 90
        0
176
     0
290
     0
176
     0
290
     1
176
     0
290
     1
176
     0
290
     0
176
     0
290
     0
176
     0
290
     0
176
     0
290
     0
176
     0
290
     0
176
     0
290
     0
176
     0
 90
       50
176
     0
 40
0.0
176
     0
 40
1.0
176
     0
 90
        0
176
     0
 62
    18
420
        0
176
     0
 90
       50
176
     0
 90
        3
176
     0
 62
     5
420
      255
176
     0
290
     0
176
     0
 90
       50
176
     0
 90
       50
176
     0
 90
       50
176
     0
290
     0
176
     0
 90
       50
176
     0
 62
   256
176
     0
 40
1.0
176
     0
 90
        2
176
     0
  1
strokes_ogs.tif
176
     0
290
     0
176
     0
 40
1.0
176
     0
 40
1.0
176
     0
1001
ACAD
1000
AcDbSavedByObjectVersion
1070
     0
  0
VISUALSTYLE
  5
37
102
{ACAD_REACTORS
330
29
102
}
330
29
100
AcDbVisualStyle
  2
Linepattern
 70
    14
177
     3
291
     1
 70
    58
 90
        2
176
     1
 90
        2
176
     1
 90
        0
176
     1
 90
        0
176
     1
 40
0.6
176
     1
 40
30.0
176
     1
 62
     7
420
 16777215
176
     1
 90
        1
176
     1
 90
        4
176
     1
 62
     7
176
     1
 62
   257
176
     1
 90
        7
176
     1
 90
        7
176
     1
 40
1.0
176
     1
 90
        8
176
     1
 62
     7
176
     1
 40
1.0
176
     1
 90
        1
176
     1
 90
        6
176
     1
 90
        2
176
     1
 62
     7
176
     1
 90
        5
176
     1
 90
        0
176
     1
 90
        0
176
     1
290
     0
176
     1
 90
        1
176
     1
 40
0.0
176
     1
 90
        0
176
     1
290
     0
176
     1
290
     1
176
     1
290
     1
176
     1
290
     0
176
     1
290
     0
176
     1
290
     0
176
     1
290
     0
176
     1
290
     0
176
     1
290
     0
176
     1
 90
       50
176
     1
 40
0.0
176
     1
 40
1.0
176
     1
 90
        0
176
     1
 62
    18
420
        0
176
     1
 90
       50
176
     1
 90
        3
176
     1
 62
     5
420
      255
176
     1
290
     0
176
     1
 90
       50
176
     1
 90
       50
176
     1
 90
       50
176
     1
290
     0
176
     1
 90
       50
176
     1
 62
   256
176
     0
 40
1.0
176
     0
 90
        2
176
     1
  1
strokes_ogs.tif
176
     1
290
     0
176
     1
 40
1.0
176
     1
 40
1.0
176
     1
1001
ACAD
1000
AcDbSavedByObjectVersion
1070
     0
  0
VISUALSTYLE
  5
40
102
{ACAD_REACTORS
330
29
102
}
330
29
100
AcDbVisualStyle
  2
OverhangOff
 70
    21
177
     3
291
     1
 70
    58
 90
        2
176
     0
 90
        2
176
     0
 90
        0
176
     0
 90
        0
176
     0
 40
0.6
176
     0
 40
30.0
176
     0
 62
     7
420
 16777215
176
     0
 90
        1
176
     0
 90
        4
176
     0
 62
     7
176
     0
 62
   257
176
     0
 90
        1
176
     0
 90
        1
176
     0
 40
1.0
176
     0
 90
        9
176
     2
 62
     7
176
     0
 40
1.0
176
     0
 90
        1
176
     0
 90
        6
176
     0
 90
        2
176
     0
 62
     7
176
     0
 90
        5
176
     0
 90
        0
176
     0
 90
        0
176
     0
290
     0
176
     0
 90
        1
176
     0
 40
0.0
176
     0
 90
        0
176
     0
290
     0
176
     0
290
     1
176
     0
290
     1
176
     0
290
     0
176
     0
290
     0
176
     0
290
     0
176
     0
290
     0
176
     0
290
     0
176
     0
290
     0
176
     0
 90
       50
176
     0
 40
0.0
176
     0
 40
1.0
176
     0
 90
        0
176
     0
 62
    18
420
        0
176
     0
 90
       50
176
     0
 90
        3
176
     0
 62
     5
420
      255
176
     0
290
     0
176
     0
 90
       50
176
     0
 90
       50
176
     0
 90
       50
176
     0
290
     0
176
     0
 90
       50
176
     0
 62
   256
176
     0
 40
1.0
176
     0
 90
        2
176
     0
  1
strokes_ogs.tif
176
     0
290
     0
176
     0
 40
1.0
176
     0
 40
1.0
176
     0
1001
ACAD
1000
AcDbSavedByObjectVersion
1070
     0
  0
VISUALSTYLE
  5
33
102
{ACAD_REACTORS
330
29
102
}
330
29
100
AcDbVisualStyle
  2
Realistic
 70
     8
177
     3
291
     0
 70
    58
 90
        2
176
     1
 90
        3
176
     1
 90
        0
176
     1
 90
        2
176
     1
 40
0.6
176
     1
 40
30.0
176
     1
 62
     7
420
 16777215
176
     1
 90
        0
176
     1
 90
        0
176
     1
 62
     7
176
     1
 62
   257
176
     1
 90
        1
176
     1
 90
        1
176
     1
 40
1.0
176
     1
 90
        8
176
     1
 62
   257
176
     1
 40
1.0
176
     1
 90
        1
176
     1
 90
        6
176
     1
 90
        2
176
     1
 62
     7
176
     1
 90
        3
176
     1
 90
        0
176
     1
 90
        0
176
     1
290
     0
176
     1
 90
       13
176
     1
 40
0.0
176
     1
 90
        0
176
     1
290
     0
176
     1
290
     1
176
     1
290
     1
176
     1
290
     0
176
     1
290
     0
176
     1
290
     0
176
     1
290
     0
176
     1
290
     0
176
     1
290
     0
176
     1
 90
       50
176
     1
 40
0.0
176
     1
 40
1.0
176
     1
 90
        0
176
     1
 62
    18
420
        0
176
     1
 90
       50
176
     1
 90
        3
176
     1
 62
     5
420
      255
176
     1
290
     0
176
     1
 90
       50
176
     1
 90
       50
176
     1
 90
       50
176
     1
290
     0
176
     1
 90
       50
176
     1
 62
   256
176
     0
 40
1.0
176
     0
 90
        2
176
     1
  1
strokes_ogs.tif
176
     1
290
     0
176
     1
 40
1.0
176
     1
 40
1.0
176
     1
1001
ACAD
1000
AcDbSavedByObjectVersion
1070
     0
  0
VISUALSTYLE
  5
3E
102
{ACAD_REACTORS
330
29
102
}
330
29
100
AcDbVisualStyle
  2
Shaded
 70
    27
177
     3
291
     0
 70
    58
 90
        2
176
     1
 90
        2
176
     1
 90
        1
176
     1
 90
        2
176
     1
 40
0.6
176
     1
 40
30.0
176
     1
 62
     7
420
 16777215
176
     1
 90
        0
176
     1
 90
        4
176
     1
 62
     7
176
     1
 62
   257
176
     1
 90
        1
176
     1
 90
        1
176
     1
 40
1.0
176
     1
 90
        8
176
     1
 62
   257
176
     1
 40
1.0
176
     1
 90
        1
176
     1
 90
        6
176
     1
 90
        2
176
     1
 62
     8
420
  7895160
176
     1
 90
        3
176
     1
 90
        0
176
     1
 90
        0
176
     1
290
     0
176
     1
 90
        5
176
     1
 40
0.0
176
     1
 90
        0
176
     1
290
     0
176
     1
290
     1
176
     1
290
     1
176
     1
290
     0
176
     1
290
     0
176
     1
290
     0
176
     1
290
     0
176
     1
290
     0
176
     1
290
     0
176
     1
 90
       50
176
     1
 40
0.0
176
     1
 40
1.0
176
     1
 90
        0
176
     1
 62
    18
420
        0
176
     1
 90
       50
176
     1
 90
        3
176
     1
 62
     5
420
      255
176
     1
290
     0
176
     1
 90
       50
176
     1
 90
       50
176
     1
 90
       50
176
     1
290
     0
176
     1
 90
       50
176
     1
 62
   256
176
     0
 40
1.0
176
     0
 90
        2
176
     1
  1
strokes_ogs.tif
176
     1
290
     0
176
     1
 40
1.0
176
     1
 40
1.0
176
     1
1001
ACAD
1000
AcDbSavedByObjectVersion
1070
     0
  0
VISUALSTYLE
  5
3D
102
{ACAD_REACTORS
330
29
102
}
330
29
100
AcDbVisualStyle
  2
Shaded with edges
 70
    26
177
     3
291
     0
 70
    58
 90
        2
176
     1
 90
        2
176
     1
 90
        1
176
     1
 90
        2
176
     1
 40
0.6
176
     1
 40
30.0
176
     1
 62
     7
420
 16777215
176
     1
 90
        1
176
     1
 90
        2
176
     1
 62
     7
176
     1
 62
   257
176
     1
 90
        2
176
     1
 90
        1
176
     1
 40
1.0
176
     1
 90
        8
176
     1
 62
   257
176
     1
 40
1.0
176
     1
 90
        1
176
     1
 90
        6
176
     1
 90
        2
176
     1
 62
     7
176
     1
 90
        3
176
     1
 90
        0
176
     1
 90
        0
176
     1
290
     0
176
     1
 90
        5
176
     1
 40
0.0
176
     1
 90
        0
176
     1
290
     0
176
     1
290
     1
176
     1
290
     1
176
     1
290
     0
176
     1
290
     0
176
     1
290
     0
176
     1
290
     0
176
     1
290
     0
176
     1
290
     0
176
     1
 90
       50
176
     1
 40
0.0
176
     1
 40
1.0
176
     1
 90
        0
176
     1
 62
    18
420
        0
176
     1
 90
       50
176
     1
 90
        3
176
     1
 62
     5
420
      255
176
     1
290
     0
176
     1
 90
       50
176
     1
 90
       50
176
     1
 90
       50
176
     1
290
     0
176
     1
 90
       50
176
     1
 62
   256
176
     0
 40
1.0
176
     0
 90
        2
176
     1
  1
strokes_ogs.tif
176
     1
290
     0
176
     1
 40
1.0
176
     1
 40
1.0
176
     1
1001
ACAD
1000
AcDbSavedByObjectVersion
1070
     0
  0
VISUALSTYLE
  5
3A
102
{ACAD_REACTORS
330
29
102
}
330
29
100
AcDbVisualStyle
  2
Shades of Gray
 70
    23
177
     3
291
     0
 70
    58
 90
        2
176
     1
 90
        2
176
     1
 90
        3
176
     1
 90
        0
176
     1
 40
0.6
176
     1
 40
30.0
176
     1
 62
     7
420
 16777215
176
     1
 90
        2
176
     1
 90
        2
176
     1
 62
     7
176
     1
 62
     7
176
     1
 90
        1
176
     1
 90
        1
176
     1
 40
40.0
176
     1
 90
        8
176
     1
 62
     7
176
     1
 40
1.0
176
     1
 90
        1
176
     1
 90
        6
176
     1
 90
        2
176
     1
 62
     7
176
     1
 90
        3
176
     1
 90
        0
176
     1
 90
        0
176
     1
290
     0
176
     1
 90
        1
176
     1
 40
0.0
176
     1
 90
        0
176
     1
290
     0
176
     1
290
     1
176
     1
290
     1
176
     1
290
     0
176
     1
290
     0
176
     1
290
     0
176
     1
290
     0
176
     1
290
     0
176
     1
290
     0
176
     1
 90
       50
176
     1
 40
0.0
176
     1
 40
1.0
176
     1
 90
        0
176
     1
 62
    18
420
        0
176
     1
 90
       50
176
     1
 90
        3
176
     1
 62
     5
420
      255
176
     1
290
     0
176
     1
 90
       50
176
     1
 90
       50
176
     1
 90
       50
176
     1
290
     0
176
     1
 90
       50
176
     1
 62
   256
176
     0
 40
1.0
176
     0
 90
        2
176
     1
  1
strokes_ogs.tif
176
     1
290
     0
176
     1
 40
1.0
176
     1
 40
1.0
176
     1
1001
ACAD
1000
AcDbSavedByObjectVersion
1070
     0
  0
VISUALSTYLE
  5
3B
102
{ACAD_REACTORS
330
29
102
}
330
29
100
AcDbVisualStyle
  2
Sketchy
 70
    24
177
     3
291
     0
 70
    58
 90
        1
176
     1
 90
        2
176
     1
 90
        2
176
     1
 90
        0
176
     1
 40
0.6
176
     1
 40
30.0
176
     1
 62
     7
420
 16777215
176
     1
 90
        2
176
     1
 90
        2
176
     1
 62
     7
176
     1
 62
     7
176
     1
 90
        1
176
     1
 90
        1
176
     1
 40
40.0
176
     1
 90
       11
176
     1
 62
     7
176
     1
 40
1.0
176
     1
 90
        1
176
     1
 90
        6
176
     1
 90
        2
176
     1
 62
     7
176
     1
 90
        6
176
     1
 90
        0
176
     1
 90
        0
176
     1
290
     0
176
     1
 90
        1
176
     1
 40
0.0
176
     1
 90
        0
176
     1
290
     0
176
     1
290
     1
176
     1
290
     1
176
     1
290
     0
176
     1
290
     0
176
     1
290
     0
176
     1
290
     0
176
     1
290
     0
176
     1
290
     0
176
     1
 90
       50
176
     1
 40
0.0
176
     1
 40
1.0
176
     1
 90
        0
176
     1
 62
    18
420
        0
176
     1
 90
       50
176
     1
 90
        3
176
     1
 62
     5
420
      255
176
     1
290
     0
176
     1
 90
       50
176
     1
 90
       50
176
     1
 90
       50
176
     1
290
     0
176
     1
 90
       50
176
     1
 62
   256
176
     0
 40
1.0
176
     0
 90
        2
176
     1
  1
strokes_ogs.tif
176
     1
290
     0
176
     1
 40
1.0
176
     1
 40
1.0
176
     1
1001
ACAD
1000
AcDbSavedByObjectVersion
1070
     0
  0
VISUALSTYLE
  5
36
102
{ACAD_REACTORS
330
29
102
}
330
29
100
AcDbVisualStyle
  2
Thicken
 70
    13
177
     3
291
     1
 70
    58
 90
        2
176
     1
 90
        2
176
     1
 90
        0
176
     1
 90
        0
176
     1
 40
0.6
176
     1
 40
30.0
176
     1
 62
     7
420
 16777215
176
     1
 90
        1
176
     1
 90
        4
176
     1
 62
     7
176
     1
 62
   257
176
     1
 90
        1
176
     1
 90
        1
176
     1
 40
1.0
176
     1
 90
       12
176
     1
 62
     7
176
     1
 40
1.0
176
     1
 90
        1
176
     1
 90
        6
176
     1
 90
        2
176
     1
 62
     7
176
     1
 90
        5
176
     1
 90
        0
176
     1
 90
        0
176
     1
290
     0
176
     1
 90
        1
176
     1
 40
0.0
176
     1
 90
        0
176
     1
290
     0
176
     1
290
     1
176
     1
290
     1
176
     1
290
     0
176
     1
290
     0
176
     1
290
     0
176
     1
290
     0
176
     1
290
     0
176
     1
290
     0
176
     1
 90
       50
176
     1
 40
0.0
176
     1
 40
1.0
176
     1
 90
        0
176
     1
 62
    18
420
        0
176
     1
 90
       50
176
     1
 90
        3
176
     1
 62
     5
420
      255
176
     1
290
     0
176
     1
 90
       50
176
     1
 90
       50
176
     1
 90
       50
176
     1
290
     0
176
     1
 90
       50
176
     1
 62
   256
176
     0
 40
1.0
176
     0
 90
        2
176
     1
  1
strokes_ogs.tif
176
     1
290
     0
176
     1
 40
1.0
176
     1
 40
1.0
176
     1
1001
ACAD
1000
AcDbSavedByObjectVersion
1070
     0
  0
VISUALSTYLE
  5
30
102
{ACAD_REACTORS
330
29
102
}
330
29
100
AcDbVisualStyle
  2
Wireframe
 70
     5
177
     3
291
     0
 70
    58
 90
        0
176
     1
 90
        2
176
     1
 90
        0
176
     1
 90
        0
176
     1
 40
0.6
176
     1
 40
30.0
176
     1
 62
     7
420
 16777215
176
     1
 90
        1
176
     1
 90
        4
176
     1
 62
     7
176
     1
 62
   257
176
     1
 90
        1
176
     1
 90
        1
176
     1
 40
1.0
176
     1
 90
        0
176
     1
 62
   257
176
     1
 40
1.0
176
     1
 90
        1
176
     1
 90
        6
176
     1
 90
        2
176
     1
 62
     7
176
     1
 90
        3
176
     1
 90
        0
176
     1
 90
        0
176
     1
290
     0
176
     1
 90
        1
176
     1
 40
0.0
176
     1
 90
        0
176
     1
290
     0
176
     1
290
     1
176
     1
290
     1
176
     1
290
     0
176
     1
290
     0
176
     1
290
     0
176
     1
290
     0
176
     1
290
     0
176
     1
290
     0
176
     1
 90
       50
176
     1
 40
0.0
176
     1
 40
1.0
176
     1
 90
        0
176
     1
 62
    18
420
        0
176
     1
 90
       50
176
     1
 90
        3
176
     1
 62
     5
420
      255
176
     1
290
     0
176
     1
 90
       50
176
     1
 90
       50
176
     1
 90
       50
176
     1
290
     0
176
     1
 90
       50
176
     1
 62
   256
176
     0
 40
1.0
176
     0
 90
        2
176
     1
  1
strokes_ogs.tif
176
     1
290
     0
176
     1
 40
1.0
176
     1
 40
1.0
176
     1
1001
ACAD
1000
AcDbSavedByObjectVersion
1070
     0
  0
VISUALSTYLE
  5
3C
102
{ACAD_REACTORS
330
29
102
}
330
29
100
AcDbVisualStyle
  2
X-Ray
 70
    25
177
     3
291
     0
 70
    58
 90
        2
176
     1
 90
        2
176
     1
 90
        1
176
     1
 90
        1
176
     1
 40
0.5
176
     1
 40
30.0
176
     1
 62
     7
420
 16777215
176
     1
 90
        1
176
     1
 90
        0
176
     1
 62
     7
176
     1
 62
   257
176
     1
 90
        1
176
     1
 90
        1
176
     1
 40
1.0
176
     1
 90
        8
176
     1
 62
     7
176
     1
 40
1.0
176
     1
 90
        1
176
     1
 90
        6
176
     1
 90
        2
176
     1
 62
     7
176
     1
 90
        3
176
     1
 90
        0
176
     1
 90
        0
176
     1
290
     0
176
     1
 90
       13
176
     1
 40
0.0
176
     1
 90
        0
176
     1
290
     0
176
     1
290
     1
176
     1
290
     1
176
     1
290
     0
176
     1
290
     0
176
     1
290
     0
176
     1
290
     0
176
     1
290
     0
176
     1
290
     0
176
     1
 90
       50
176
     1
 40
0.0
176
     1
 40
1.0
176
     1
 90
        0
176
     1
 62
    18
420
        0
176
     1
 90
       50
176
     1
 90
        3
176
     1
 62
     5
420
      255
176
     1
290
     0
176
     1
 90
       50
176
     1
 90
       50
176
     1
 90
       50
176
     1
290
     0
176
     1
 90
       50
176
     1
 62
   256
176
     0
 40
1.0
176
     0
 90
        2
176
     1
  1
strokes_ogs.tif
176
     1
290
     0
176
     1
 40
1.0
176
     1
 40
1.0
176
     1
1001
ACAD
1000
AcDbSavedByObjectVersion
1070
     0
  0
DICTIONARYVAR
  5
17E
102
{ACAD_REACTORS
330
179
102
}
330
179
100
DictionaryVariables
280
     0
  1
1:1
  0
DICTIONARYVAR
  5
17B
102
{ACAD_REACTORS
330
179
102
}
330
179
100
DictionaryVariables
280
     0
  1
STANDARD
  0
DICTIONARYVAR
  5
17A
102
{ACAD_REACTORS
330
179
102
}
330
179
100
DictionaryVariables
280
     0
  1
STANDARD
  0
DICTIONARYVAR
  5
17C
102
{ACAD_REACTORS
330
179
102
}
330
179
100
DictionaryVariables
280
     0
  1
Imperial24
  0
DICTIONARYVAR
  5
17D
102
{ACAD_REACTORS
330
179
102
}
330
179
100
DictionaryVariables
280
     0
  1
Imperial24
  0
DICTIONARY
  5
1BE
330
6B
100
AcDbDictionary
280
     1
281
     1
  3
ACAD_XREC_ROUNDTRIP
360
1BF
  0
DICTIONARY
  5
1A
330
19
100
AcDbDictionary
280
     1
281
     1
  3
BUMPTILE
360
1C
  3
DIFFUSETILE
360
1B
  3
OPACITYTILE
360
1F
  3
REFLECTIONTILE
360
1E
  3
REFRACTIONTILE
360
20
  3
SPECULARTILE
360
1D
  0
DICTIONARY
  5
12
330
11
100
AcDbDictionary
280
     1
281
     1
  3
BUMPTILE
360
14
  3
DIFFUSETILE
360
13
  3
OPACITYTILE
360
17
  3
REFLECTIONTILE
360
16
  3
REFRACTIONTILE
360
18
  3
SPECULARTILE
360
15
  0
DICTIONARY
  5
22
330
21
100
AcDbDictionary
280
     1
281
     1
  3
BUMPTILE
360
24
  3
DIFFUSETILE
360
23
  3
OPACITYTILE
360
27
  3
REFLECTIONTILE
360
26
  3
REFRACTIONTILE
360
28
  3
SPECULARTILE
360
25
  0
DICTIONARY
  5
1BC
330
69
100
AcDbDictionary
280
     1
281
     1
  3
ACAD_XREC_ROUNDTRIP
360
1BD
  0
DICTIONARY
  5
1B9
330
65
100
AcDbDictionary
280
     1
281
     1
  3
ACAD_ROUNDTRIP_2008_TABLESTYLE_CELLSTYLEMAP
360
1BA
  0
XRECORD
  5
1BF
102
{ACAD_REACTORS
330
1BE
102
}
330
1BE
100
AcDbXrecord
280
     1
102
DISPLAYNAME
  1
Imperial24
102
FLAGS
 90
        0
  0
XRECORD
  5
1C
102
{ACAD_REACTORS
330
1A
102
}
330
1A
100
AcDbXrecord
280
     1
270
     1
271
     1
  0
XRECORD
  5
1B
102
{ACAD_REACTORS
330
1A
102
}
330
1A
100
AcDbXrecord
280
     1
270
     1
271
     1
  0
XRECORD
  5
1F
102
{ACAD_REACTORS
330
1A
102
}
330
1A
100
AcDbXrecord
280
     1
270
     1
271
     1
  0
XRECORD
  5
1E
102
{ACAD_REACTORS
330
1A
102
}
330
1A
100
AcDbXrecord
280
     1
270
     1
271
     1
  0
XRECORD
  5
20
102
{ACAD_REACTORS
330
1A
102
}
330
1A
100
AcDbXrecord
280
     1
270
     1
271
     1
  0
XRECORD
  5
1D
102
{ACAD_REACTORS
330
1A
102
}
330
1A
100
AcDbXrecord
280
     1
270
     1
271
     1
  0
XRECORD
  5
14
102
{ACAD_REACTORS
330
12
102
}
330
12
100
AcDbXrecord
280
     1
270
     1
271
     1
  0
XRECORD
  5
13
102
{ACAD_REACTORS
330
12
102
}
330
12
100
AcDbXrecord
280
     1
270
     1
271
     1
  0
XRECORD
  5
17
102
{ACAD_REACTORS
330
12
102
}
330
12
100
AcDbXrecord
280
     1
270
     1
271
     1
  0
XRECORD
  5
16
102
{ACAD_REACTORS
330
12
102
}
330
12
100
AcDbXrecord
280
     1
270
     1
271
     1
  0
XRECORD
  5
18
102
{ACAD_REACTORS
330
12
102
}
330
12
100
AcDbXrecord
280
     1
270
     1
271
     1
  0
XRECORD
  5
15
102
{ACAD_REACTORS
330
12
102
}
330
12
100
AcDbXrecord
280
     1
270
     1
271
     1
  0
XRECORD
  5
24
102
{ACAD_REACTORS
330
22
102
}
330
22
100
AcDbXrecord
280
     1
270
     1
271
     1
  0
XRECORD
  5
23
102
{ACAD_REACTORS
330
22
102
}
330
22
100
AcDbXrecord
280
     1
270
     1
271
     1
  0
XRECORD
  5
27
102
{ACAD_REACTORS
330
22
102
}
330
22
100
AcDbXrecord
280
     1
270
     1
271
     1
  0
XRECORD
  5
26
102
{ACAD_REACTORS
330
22
102
}
330
22
100
AcDbXrecord
280
     1
270
     1
271
     1
  0
XRECORD
  5
28
102
{ACAD_REACTORS
330
22
102
}
330
22
100
AcDbXrecord
280
     1
270
     1
271
     1
  0
XRECORD
  5
25
102
{ACAD_REACTORS
330
22
102
}
330
22
100
AcDbXrecord
280
     1
270
     1
271
     1
  0
XRECORD
  5
1BD
102
{ACAD_REACTORS
330
1BC
102
}
330
1BC
100
AcDbXrecord
280
     1
102
DISPLAYNAME
  1
Imperial24
102
FLAGS
 90
        0
  0
CELLSTYLEMAP
  5
1BA
102
{ACAD_REACTORS
330
1B9
102
}
330
1B9
100
AcDbCellStyleMap
 90
        3
300
CELLSTYLE
  1
TABLEFORMAT_BEGIN
 90
        5
170
     1
 91
        0
 92
    32768
 62
   257
 93
        1
300
CONTENTFORMAT
  1
CONTENTFORMAT_BEGIN
 90
        0
 91
        0
 92
      512
 93
        0
300

 40
0.0
140
1.0
 94
        5
 62
     0
340
55
144
0.25
309
CONTENTFORMAT_END
171
     0
 94
        0
309
TABLEFORMAT_END
  1
CELLSTYLE_BEGIN
 90
        1
 91
        1
300
_TITLE
309
CELLSTYLE_END
300
CELLSTYLE
  1
TABLEFORMAT_BEGIN
 90
        5
170
     1
 91
        0
 92
        0
 62
   257
 93
        1
300
CONTENTFORMAT
  1
CONTENTFORMAT_BEGIN
 90
        0
 91
        0
 92
      512
 93
        0
300

 40
0.0
140
1.0
 94
        5
 62
     0
340
55
144
0.18
309
CONTENTFORMAT_END
171
     0
 94
        0
309
TABLEFORMAT_END
  1
CELLSTYLE_BEGIN
 90
        2
 91
        1
300
_HEADER
309
CELLSTYLE_END
300
CELLSTYLE
  1
TABLEFORMAT_BEGIN
 90
        5
170
     1
 91
        0
 92
        0
 62
   257
 93
        1
300
CONTENTFORMAT
  1
CONTENTFORMAT_BEGIN
 90
        0
 91
        0
 92
      512
 93
        0
300

 40
0.0
140
1.0
 94
        2
 62
     0
340
55
144
0.18
309
CONTENTFORMAT_END
171
     0
 94
        0
309
TABLEFORMAT_END
  1
CELLSTYLE_BEGIN
 90
        3
 91
        2
300
_DATA
309
CELLSTYLE_END
  0
ENDSEC
  0
EOF
