  0
SECTION
  2
HEADER
  9
$ACADVER
  1
AC1027
  9
$ACADMAINTVER
 70
   125
  9
$DWGCODEPAGE
  3
ANSI_1252
  9
$LASTSAVEDBY
  1
ufficio.tecnico
  9
$REQUIREDVERSIONS
160
                 0
  9
$INSBASE
 10
0.0
 20
0.0
 30
0.0
  9
$EXTMIN
 10
90.7924576
 20
93.32115999999999
 30
0.0
  9
$EXTMAX
 10
1698.5053192
 20
2443.208176000001
 30
0.0
  9
$LIMMIN
 10
0.0
 20
0.0
  9
$LIMMAX
 10
420.0
 20
297.0
  9
$ORTHOMODE
 70
     1
  9
$REGENMODE
 70
     1
  9
$FILLMODE
 70
     1
  9
$QTEXTMODE
 70
     0
  9
$MIRRTEXT
 70
     0
  9
$LTSCALE
 40
1.0
  9
$ATTMODE
 70
     1
  9
$TEXTSIZE
 40
2.5
  9
$TRACEWID
 40
1.0
  9
$TEXTSTYLE
  7
Standard
  9
$CLAYER
  8
0
  9
$CELTYPE
  6
ByLayer
  9
$CECOLOR
 62
   256
  9
$CELTSCALE
 40
1.0
  9
$DISPSILH
 70
     0
  9
$DIMSCALE
 40
1.0
  9
$DIMASZ
 40
2.5
  9
$DIMEXO
 40
0.625
  9
$DIMDLI
 40
3.75
  9
$DIMRND
 40
0.0
  9
$DIMDLE
 40
0.0
  9
$DIMEXE
 40
1.25
  9
$DIMTP
 40
0.0
  9
$DIMTM
 40
0.0
  9
$DIMTXT
 40
2.5
  9
$DIMCEN
 40
2.5
  9
$DIMTSZ
 40
0.0
  9
$DIMTOL
 70
     0
  9
$DIMLIM
 70
     0
  9
$DIMTIH
 70
     0
  9
$DIMTOH
 70
     0
  9
$DIMSE1
 70
     0
  9
$DIMSE2
 70
     0
  9
$DIMTAD
 70
     1
  9
$DIMZIN
 70
     8
  9
$DIMBLK
  1

  9
$DIMASO
 70
     1
  9
$DIMSHO
 70
     1
  9
$DIMPOST
  1

  9
$DIMAPOST
  1

  9
$DIMALT
 70
     0
  9
$DIMALTD
 70
     3
  9
$DIMALTF
 40
0.03937007874016
  9
$DIMLFAC
 40
1.0
  9
$DIMTOFL
 70
     1
  9
$DIMTVP
 40
0.0
  9
$DIMTIX
 70
     0
  9
$DIMSOXD
 70
     0
  9
$DIMSAH
 70
     0
  9
$DIMBLK1
  1

  9
$DIMBLK2
  1

  9
$DIMSTYLE
  2
ISO-25
  9
$DIMCLRD
 70
     0
  9
$DIMCLRE
 70
     0
  9
$DIMCLRT
 70
     0
  9
$DIMTFAC
 40
1.0
  9
$DIMGAP
 40
0.625
  9
$DIMJUST
 70
     0
  9
$DIMSD1
 70
     0
  9
$DIMSD2
 70
     0
  9
$DIMTOLJ
 70
     0
  9
$DIMTZIN
 70
     8
  9
$DIMALTZ
 70
     0
  9
$DIMALTTZ
 70
     0
  9
$DIMUPT
 70
     0
  9
$DIMDEC
 70
     2
  9
$DIMTDEC
 70
     2
  9
$DIMALTU
 70
     2
  9
$DIMALTTD
 70
     3
  9
$DIMTXSTY
  7
Standard
  9
$DIMAUNIT
 70
     0
  9
$DIMADEC
 70
     0
  9
$DIMALTRND
 40
0.0
  9
$DIMAZIN
 70
     0
  9
$DIMDSEP
 70
    44
  9
$DIMATFIT
 70
     3
  9
$DIMFRAC
 70
     0
  9
$DIMLDRBLK
  1

  9
$DIMLUNIT
 70
     2
  9
$DIMLWD
 70
    -2
  9
$DIMLWE
 70
    -2
  9
$DIMTMOVE
 70
     0
  9
$DIMFXL
 40
1.0
  9
$DIMFXLON
 70
     0
  9
$DIMJOGANG
 40
0.7853981633974483
  9
$DIMTFILL
 70
     0
  9
$DIMTFILLCLR
 70
     0
  9
$DIMARCSYM
 70
     0
  9
$DIMLTYPE
  6

  9
$DIMLTEX1
  6

  9
$DIMLTEX2
  6

  9
$DIMTXTDIRECTION
 70
     0
  9
$LUNITS
 70
     2
  9
$LUPREC
 70
     4
  9
$SKETCHINC
 40
1.0
  9
$FILLETRAD
 40
0.0
  9
$AUNITS
 70
     0
  9
$AUPREC
 70
     0
  9
$MENU
  1
.
  9
$ELEVATION
 40
0.0
  9
$PELEVATION
 40
0.0
  9
$THICKNESS
 40
0.0
  9
$LIMCHECK
 70
     0
  9
$CHAMFERA
 40
0.0
  9
$CHAMFERB
 40
0.0
  9
$CHAMFERC
 40
0.0
  9
$CHAMFERD
 40
0.0
  9
$SKPOLY
 70
     0
  9
$TDCREATE
 40
2459809.458043981
  9
$TDUCREATE
 40
2459809.374710648
  9
$TDUPDATE
 40
2459809.459884259
  9
$TDUUPDATE
 40
2459809.376550926
  9
$TDINDWG
 40
0.0018402778
  9
$TDUSRTIMER
 40
0.0018402778
  9
$USRTIMER
 70
     1
  9
$ANGBASE
 50
0.0
  9
$ANGDIR
 70
     0
  9
$PDMODE
 70
     0
  9
$PDSIZE
 40
0.0
  9
$PLINEWID
 40
0.0
  9
$SPLFRAME
 70
     0
  9
$SPLINETYPE
 70
     6
  9
$SPLINESEGS
 70
     8
  9
$HANDSEED
  5
621
  9
$SURFTAB1
 70
     6
  9
$SURFTAB2
 70
     6
  9
$SURFTYPE
 70
     6
  9
$SURFU
 70
     6
  9
$SURFV
 70
     6
  9
$UCSBASE
  2

  9
$UCSNAME
  2

  9
$UCSORG
 10
0.0
 20
0.0
 30
0.0
  9
$UCSXDIR
 10
1.0
 20
0.0
 30
0.0
  9
$UCSYDIR
 10
0.0
 20
1.0
 30
0.0
  9
$UCSORTHOREF
  2

  9
$UCSORTHOVIEW
 70
     0
  9
$UCSORGTOP
 10
0.0
 20
0.0
 30
0.0
  9
$UCSORGBOTTOM
 10
0.0
 20
0.0
 30
0.0
  9
$UCSORGLEFT
 10
0.0
 20
0.0
 30
0.0
  9
$UCSORGRIGHT
 10
0.0
 20
0.0
 30
0.0
  9
$UCSORGFRONT
 10
0.0
 20
0.0
 30
0.0
  9
$UCSORGBACK
 10
0.0
 20
0.0
 30
0.0
  9
$PUCSBASE
  2

  9
$PUCSNAME
  2

  9
$PUCSORG
 10
0.0
 20
0.0
 30
0.0
  9
$PUCSXDIR
 10
1.0
 20
0.0
 30
0.0
  9
$PUCSYDIR
 10
0.0
 20
1.0
 30
0.0
  9
$PUCSORTHOREF
  2

  9
$PUCSORTHOVIEW
 70
     0
  9
$PUCSORGTOP
 10
0.0
 20
0.0
 30
0.0
  9
$PUCSORGBOTTOM
 10
0.0
 20
0.0
 30
0.0
  9
$PUCSORGLEFT
 10
0.0
 20
0.0
 30
0.0
  9
$PUCSORGRIGHT
 10
0.0
 20
0.0
 30
0.0
  9
$PUCSORGFRONT
 10
0.0
 20
0.0
 30
0.0
  9
$PUCSORGBACK
 10
0.0
 20
0.0
 30
0.0
  9
$USERI1
 70
     0
  9
$USERI2
 70
     0
  9
$USERI3
 70
     0
  9
$USERI4
 70
     0
  9
$USERI5
 70
     0
  9
$USERR1
 40
0.0
  9
$USERR2
 40
0.0
  9
$USERR3
 40
0.0
  9
$USERR4
 40
0.0
  9
$USERR5
 40
0.0
  9
$WORLDVIEW
 70
     1
  9
$SHADEDGE
 70
     3
  9
$SHADEDIF
 70
    70
  9
$TILEMODE
 70
     1
  9
$MAXACTVP
 70
    64
  9
$PINSBASE
 10
0.0
 20
0.0
 30
0.0
  9
$PLIMCHECK
 70
     0
  9
$PEXTMIN
 10
0.0
 20
0.0
 30
0.0
  9
$PEXTMAX
 10
0.0
 20
0.0
 30
0.0
  9
$PLIMMIN
 10
0.0
 20
0.0
  9
$PLIMMAX
 10
12.0
 20
9.0
  9
$UNITMODE
 70
     0
  9
$VISRETAIN
 70
     1
  9
$PLINEGEN
 70
     0
  9
$PSLTSCALE
 70
     1
  9
$TREEDEPTH
 70
  3020
  9
$CMLSTYLE
  2
Standard
  9
$CMLJUST
 70
     0
  9
$CMLSCALE
 40
20.0
  9
$PROXYGRAPHICS
 70
     1
  9
$MEASUREMENT
 70
     1
  9
$CELWEIGHT
370
    -1
  9
$ENDCAPS
280
     0
  9
$JOINSTYLE
280
     0
  9
$LWDISPLAY
290
     0
  9
$INSUNITS
 70
     4
  9
$HYPERLINKBASE
  1

  9
$STYLESHEET
  1

  9
$XEDIT
290
     1
  9
$CEPSNTYPE
380
     0
  9
$PSTYLEMODE
290
     1
  9
$FINGERPRINTGUID
  2
{80A8DF5C-C740-AF43-8B24-F215FDAA0A5F}
  9
$VERSIONGUID
  2
{8CF0DD06-EC05-5A4C-8831-798316194FC4}
  9
$EXTNAMES
290
     1
  9
$PSVPSCALE
 40
0.0
  9
$OLESTARTUP
290
     0
  9
$SORTENTS
280
   127
  9
$INDEXCTL
280
     0
  9
$HIDETEXT
280
     1
  9
$XCLIPFRAME
280
     2
  9
$HALOGAP
280
     0
  9
$OBSCOLOR
 70
   257
  9
$OBSLTYPE
280
     0
  9
$INTERSECTIONDISPLAY
280
     0
  9
$INTERSECTIONCOLOR
 70
   257
  9
$DIMASSOC
280
     2
  9
$PROJECTNAME
  1

  9
$CAMERADISPLAY
290
     0
  9
$LENSLENGTH
 40
50.0
  9
$CAMERAHEIGHT
 40
0.0
  9
$STEPSPERSEC
 40
2.0
  9
$STEPSIZE
 40
6.0
  9
$3DDWFPREC
 40
2.0
  9
$PSOLWIDTH
 40
5.0
  9
$PSOLHEIGHT
 40
80.0
  9
$LOFTANG1
 40
1.570796326794896
  9
$LOFTANG2
 40
1.570796326794896
  9
$LOFTMAG1
 40
0.0
  9
$LOFTMAG2
 40
0.0
  9
$LOFTPARAM
 70
     7
  9
$LOFTNORMALS
280
     1
  9
$LATITUDE
 40
37.795
  9
$LONGITUDE
 40
-122.394
  9
$NORTHDIRECTION
 40
0.0
  9
$TIMEZONE
 70
 -8000
  9
$LIGHTGLYPHDISPLAY
280
     1
  9
$TILEMODELIGHTSYNCH
280
     1
  9
$CMATERIAL
347
EC
  9
$SOLIDHIST
280
     0
  9
$SHOWHIST
280
     1
  9
$DWFFRAME
280
     2
  9
$DGNFRAME
280
     0
  9
$REALWORLDSCALE
290
     1
  9
$INTERFERECOLOR
 62
     1
  9
$INTERFEREOBJVS
345
F9
  9
$INTERFEREVPVS
346
F6
  9
$CSHADOW
280
     0
  9
$SHADOWPLANELOCATION
 40
0.0
  0
ENDSEC
  0
SECTION
  2
CLASSES
  0
CLASS
  1
ACDBDICTIONARYWDFLT
  2
AcDbDictionaryWithDefault
  3
ObjectDBX Classes
 90
        0
 91
        1
280
     0
281
     0
  0
CLASS
  1
DICTIONARYVAR
  2
AcDbDictionaryVar
  3
ObjectDBX Classes
 90
        0
 91
       11
280
     0
281
     0
  0
CLASS
  1
TABLESTYLE
  2
AcDbTableStyle
  3
ObjectDBX Classes
 90
     4095
 91
        1
280
     0
281
     0
  0
CLASS
  1
MATERIAL
  2
AcDbMaterial
  3
ObjectDBX Classes
 90
     1153
 91
        3
280
     0
281
     0
  0
CLASS
  1
VISUALSTYLE
  2
AcDbVisualStyle
  3
ObjectDBX Classes
 90
     4095
 91
       24
280
     0
281
     0
  0
CLASS
  1
SCALE
  2
AcDbScale
  3
ObjectDBX Classes
 90
     1153
 91
       17
280
     0
281
     0
  0
CLASS
  1
MLEADERSTYLE
  2
AcDbMLeaderStyle
  3
ACDB_MLEADERSTYLE_CLASS
 90
     4095
 91
        2
280
     0
281
     0
  0
CLASS
  1
CELLSTYLEMAP
  2
AcDbCellStyleMap
  3
ObjectDBX Classes
 90
     1152
 91
        1
280
     0
281
     0
  0
CLASS
  1
EXACXREFPANELOBJECT
  2
ExAcXREFPanelObject
  3
EXAC_ESW
 90
     1025
 91
        0
280
     0
281
     0
  0
CLASS
  1
NPOCOLLECTION
  2
AcDbImpNonPersistentObjectsCollection
  3
ObjectDBX Classes
 90
     1153
 91
        0
280
     0
281
     0
  0
CLASS
  1
LAYER_INDEX
  2
AcDbLayerIndex
  3
ObjectDBX Classes
 90
        0
 91
        0
280
     0
281
     0
  0
CLASS
  1
SPATIAL_INDEX
  2
AcDbSpatialIndex
  3
ObjectDBX Classes
 90
        0
 91
        0
280
     0
281
     0
  0
CLASS
  1
IDBUFFER
  2
AcDbIdBuffer
  3
ObjectDBX Classes
 90
        0
 91
        0
280
     0
281
     0
  0
CLASS
  1
ACDBSECTIONVIEWSTYLE
  2
AcDbSectionViewStyle
  3
ObjectDBX Classes
 90
     1025
 91
        1
280
     0
281
     0
  0
CLASS
  1
ACDBDETAILVIEWSTYLE
  2
AcDbDetailViewStyle
  3
ObjectDBX Classes
 90
     1025
 91
        1
280
     0
281
     0
  0
ENDSEC
  0
SECTION
  2
TABLES
  0
TABLE
  2
VPORT
  5
8
330
0
100
AcDbSymbolTable
 70
     1
1001
ACAD
1000
DbSaveVer
1071
      249
  0
VPORT
  5
EA
330
8
100
AcDbSymbolTableRecord
100
AcDbViewportTableRecord
  2
*Active
 70
     0
 10
0.0
 20
0.0
 11
1.0
 21
1.0
 12
5036.543456195599
 22
392.6655771136634
 13
0.0
 23
0.0
 14
10.0
 24
10.0
 15
10.0
 25
10.0
 16
0.0
 26
0.0
 36
1.0
 17
0.0
 27
0.0
 37
0.0
 40
7077.125240230623
 41
1.662952646239554
 42
50.0
 43
0.0
 44
0.0
 50
0.0
 51
0.0
 71
     0
 72
  1000
 73
     1
 74
     3
 75
     0
 76
     1
 77
     0
 78
     0
281
     0
 65
     1
110
0.0
120
0.0
130
0.0
111
1.0
121
0.0
131
0.0
112
0.0
122
1.0
132
0.0
 79
     0
146
0.0
348
F5
 60
     3
 61
     5
292
     1
282
     1
141
0.0
142
0.0
 63
   250
421
  3355443
1001
ACAD_NAV_VCDISPLAY
1070
     3
  0
ENDTAB
  0
TABLE
  2
LTYPE
  5
5
330
0
100
AcDbSymbolTable
 70
     2
  0
LTYPE
  5
14
330
5
100
AcDbSymbolTableRecord
100
AcDbLinetypeTableRecord
  2
ByBlock
 70
     0
  3

 72
    65
 73
     0
 40
0.0
  0
LTYPE
  5
15
330
5
100
AcDbSymbolTableRecord
100
AcDbLinetypeTableRecord
  2
ByLayer
 70
     0
  3

 72
    65
 73
     0
 40
0.0
  0
LTYPE
  5
16
330
5
100
AcDbSymbolTableRecord
100
AcDbLinetypeTableRecord
  2
Continuous
 70
     0
  3
Solid line
 72
    65
 73
     0
 40
0.0
  0
ENDTAB
  0
TABLE
  2
LAYER
  5
2
102
{ACAD_XDICTIONARY
360
1FF
102
}
330
0
100
AcDbSymbolTable
 70
     4
  0
LAYER
  5
10
102
{ACAD_XDICTIONARY
360
13C
102
}
330
2
100
AcDbSymbolTableRecord
100
AcDbLayerTableRecord
  2
0
 70
     0
 62
     7
  6
Continuous
370
    -3
390
F
347
EE
348
0
  0
LAYER
  5
2A2
330
2
100
AcDbSymbolTableRecord
100
AcDbLayerTableRecord
  2
PDF _0
 70
     0
 62
     7
  6
Continuous
370
    -3
390
F
347
EE
348
0
  0
LAYER
  5
2A3
330
2
100
AcDbSymbolTableRecord
100
AcDbLayerTableRecord
  2
PDF _PV-9585
 70
     0
 62
     7
  6
Continuous
370
    -3
390
F
347
EE
348
0
  0
LAYER
  5
2A6
330
2
100
AcDbSymbolTableRecord
100
AcDbLayerTableRecord
  2
PDF _Testo
 70
     0
 62
     7
  6
Continuous
370
    -3
390
F
347
EE
348
0
  0
ENDTAB
  0
TABLE
  2
STYLE
  5
3
330
0
100
AcDbSymbolTable
 70
     5
  0
STYLE
  5
11
330
3
100
AcDbSymbolTableRecord
100
AcDbTextStyleTableRecord
  2
Standard
 70
     0
 40
0.0
 41
1.0
 50
0.0
 71
     0
 42
2.5
  3
arial.ttf
  4

1001
ACAD
1000
Arial
1071
       34
  0
STYLE
  5
132
330
3
100
AcDbSymbolTableRecord
100
AcDbTextStyleTableRecord
  2
Annotativa
 70
     0
 40
0.0
 41
1.0
 50
0.0
 71
     0
 42
2.5
  3
arial.ttf
  4

1001
AcadAnnotative
1000
AnnotativeData
1002
{
1070
     1
1070
     1
1002
}
1001
ACAD
1000
Arial
1071
       34
  0
STYLE
  5
2A5
330
3
100
AcDbSymbolTableRecord
100
AcDbTextStyleTableRecord
  2
PDF Microsoft YaHei
 70
     0
 40
0.0
 41
1.0
 50
0.0
 71
     0
 42
2.5
  3
Microsoft YaHei.ttf
  4

1001
ACAD
1000
Microsoft YaHei
1071
       34
  0
STYLE
  5
2A8
330
3
100
AcDbSymbolTableRecord
100
AcDbTextStyleTableRecord
  2
PDF Times New Roman
 70
     0
 40
0.0
 41
1.0
 50
0.0
 71
     0
 42
2.5
  3
times.ttf
  4

1001
ACAD
1000
Times New Roman
1071
       18
  0
STYLE
  5
2A9
330
3
100
AcDbSymbolTableRecord
100
AcDbTextStyleTableRecord
  2
PDF Arial
 70
     0
 40
0.0
 41
1.0
 50
0.0
 71
     0
 42
2.5
  3
arial.ttf
  4

1001
ACAD
1000
Arial
1071
       34
  0
ENDTAB
  0
TABLE
  2
VIEW
  5
6
330
0
100
AcDbSymbolTable
 70
     0
  0
ENDTAB
  0
TABLE
  2
UCS
  5
7
330
0
100
AcDbSymbolTable
 70
     0
  0
ENDTAB
  0
TABLE
  2
APPID
  5
9
330
0
100
AcDbSymbolTable
 70
     9
  0
APPID
  5
12
330
9
100
AcDbSymbolTableRecord
100
AcDbRegAppTableRecord
  2
ACAD
 70
     0
  0
APPID
  5
9E
330
9
100
AcDbSymbolTableRecord
100
AcDbRegAppTableRecord
  2
ACAD_PSEXT
 70
     0
  0
APPID
  5
133
330
9
100
AcDbSymbolTableRecord
100
AcDbRegAppTableRecord
  2
AcadAnnoPO
 70
     0
  0
APPID
  5
134
330
9
100
AcDbSymbolTableRecord
100
AcDbRegAppTableRecord
  2
AcadAnnotative
 70
     0
  0
APPID
  5
135
330
9
100
AcDbSymbolTableRecord
100
AcDbRegAppTableRecord
  2
ACAD_DSTYLE_DIMJAG
 70
     0
  0
APPID
  5
136
330
9
100
AcDbSymbolTableRecord
100
AcDbRegAppTableRecord
  2
ACAD_DSTYLE_DIMTALN
 70
     0
  0
APPID
  5
165
330
9
100
AcDbSymbolTableRecord
100
AcDbRegAppTableRecord
  2
ACAD_MLEADERVER
 70
     0
  0
APPID
  5
217
330
9
100
AcDbSymbolTableRecord
100
AcDbRegAppTableRecord
  2
ACAD_NAV_VCDISPLAY
 70
     0
  0
APPID
  5
60C
330
9
100
AcDbSymbolTableRecord
100
AcDbRegAppTableRecord
  2
ACAD_EXEMPT_FROM_CAD_STANDARDS
 70
     0
  0
ENDTAB
  0
TABLE
  2
DIMSTYLE
  5
A
330
0
100
AcDbSymbolTable
 70
     4
100
AcDbDimStyleTable
 71
     2
340
27
340
137
  0
DIMSTYLE
105
1B0
330
A
100
AcDbSymbolTableRecord
100
AcDbDimStyleTableRecord
  2
Standard
 70
     0
340
11
  0
DIMSTYLE
105
137
330
A
100
AcDbSymbolTableRecord
100
AcDbDimStyleTableRecord
  2
Annotativa
 70
     0
 40
0.0
 41
2.5
 42
0.625
 43
3.75
 44
1.25
 73
     0
 74
     0
 77
     1
 78
     8
140
2.5
141
2.5
143
0.03937007874016
147
0.625
171
     3
172
     1
271
     2
272
     2
274
     3
278
    44
283
     0
284
     8
340
11
1001
AcadAnnotative
1000
AnnotativeData
1002
{
1070
     1
1070
     1
1002
}
1001
ACAD_DSTYLE_DIMJAG
1070
   388
1040
1.5
1001
ACAD_DSTYLE_DIMTALN
1070
   392
1070
     0
  0
DIMSTYLE
105
27
330
A
100
AcDbSymbolTableRecord
100
AcDbDimStyleTableRecord
  2
ISO-25
 70
     0
 41
2.5
 42
0.625
 43
3.75
 44
1.25
 73
     0
 74
     0
 77
     1
 78
     8
140
2.5
141
2.5
143
0.03937007874016
147
0.625
171
     3
172
     1
271
     2
272
     2
274
     3
278
    44
283
     0
284
     8
340
11
  0
ENDTAB
  0
TABLE
  2
BLOCK_RECORD
  5
1
330
0
100
AcDbSymbolTable
 70
     2
  0
BLOCK_RECORD
  5
1F
102
{ACAD_XDICTIONARY
360
1CE
102
}
330
1
100
AcDbSymbolTableRecord
100
AcDbBlockTableRecord
  2
*Model_Space
340
22
 70
     0
280
     1
281
     0
  0
BLOCK_RECORD
  5
D2
330
1
100
AcDbSymbolTableRecord
100
AcDbBlockTableRecord
  2
*Paper_Space
340
D3
 70
     0
280
     1
281
     0
  0
BLOCK_RECORD
  5
D6
330
1
100
AcDbSymbolTableRecord
100
AcDbBlockTableRecord
  2
*Paper_Space0
340
D7
 70
     0
280
     1
281
     0
  0
ENDTAB
  0
ENDSEC
  0
SECTION
  2
BLOCKS
  0
BLOCK
  5
20
330
1F
100
AcDbEntity
  8
0
100
AcDbBlockBegin
  2
*Model_Space
 70
     0
 10
0.0
 20
0.0
 30
0.0
  3
*Model_Space
  1

  0
ENDBLK
  5
21
330
1F
100
AcDbEntity
  8
0
100
AcDbBlockEnd
  0
BLOCK
  5
D4
330
D2
100
AcDbEntity
 67
     1
  8
0
100
AcDbBlockBegin
  2
*Paper_Space
 70
     0
 10
0.0
 20
0.0
 30
0.0
  3
*Paper_Space
  1

  0
ENDBLK
  5
D5
330
D2
100
AcDbEntity
 67
     1
  8
0
100
AcDbBlockEnd
  0
BLOCK
  5
D8
330
D6
100
AcDbEntity
 67
     1
  8
0
100
AcDbBlockBegin
  2
*Paper_Space0
 70
     0
 10
0.0
 20
0.0
 30
0.0
  3
*Paper_Space0
  1

  0
ENDBLK
  5
D9
330
D6
100
AcDbEntity
 67
     1
  8
0
100
AcDbBlockEnd
  0
ENDSEC
  0
SECTION
  2
ENTITIES
  0
LWPOLYLINE
  5
2AA
330
1F
100
AcDbEntity
  8
PDF _0
370
    25
100
AcDbPolyline
 90
        4
 70
     0
 43
0.0
 10
903.5896576
 20
2090.634812800001
 10
903.5896576
 20
2366.2633744
 10
884.6243896
 20
2366.2633744
 10
884.6243896
 20
2090.634812800001
  0
LWPOLYLINE
  5
2AB
330
1F
100
AcDbEntity
  8
PDF _0
370
    25
100
AcDbPolyline
 90
        3
 70
     0
 43
0.0
 10
884.6243896
 20
1931.8684264
 10
884.6243896
 20
1671.2314576
 10
884.6243896
 20
734.1665968
  0
LWPOLYLINE
  5
2AD
330
1F
100
AcDbEntity
  8
PDF _0
370
    25
100
AcDbPolyline
 90
        3
 70
     0
 43
0.0
 10
903.5896576
 20
1931.8684264
 10
903.5896576
 20
1671.2314576
 10
903.5896576
 20
734.1665968
  0
LWPOLYLINE
  5
2AE
330
1F
100
AcDbEntity
  8
PDF _0
370
    25
100
AcDbPolyline
 90
        4
 70
     0
 43
0.0
 10
862.7160822806787
 20
2196.433915
 42
-0.1655525778790296
 10
874.6902015999999
 20
2171.553289600001
 10
874.6902015999999
 20
2161.0772368
 42
-0.1655525778790796
 10
862.71608228068
 20
2136.377233000001
  0
ARC
  5
2AF
330
1F
100
AcDbEntity
  8
PDF _0
370
    25
100
AcDbCircle
 10
810.1180886947016
 20
2166.405754950556
 30
0.0
 40
60.05647167230006
100
AcDbArc
 50
28.72917441550001
 51
331.2708255844999
  0
LWPOLYLINE
  5
2B0
330
1F
100
AcDbEntity
  8
PDF _0
370
    25
100
AcDbPolyline
 90
        2
 70
     0
 43
0.0
 10
862.5885544
 20
2196.2984488
 10
862.5885544
 20
2136.3320776
  0
LWPOLYLINE
  5
2B3
330
1F
100
AcDbEntity
  8
PDF _0
370
    25
100
AcDbPolyline
 90
        5
 70
     0
 43
0.0
 10
925.6785865193199
 20
1896.4214374
 42
0.1655525778789761
 10
913.7044672
 20
1871.540812
 10
913.7044672
 20
1861.0647592
 42
0.1655525778790378
 10
925.6254928
 20
1836.3196
 10
925.6254928
 20
1896.2859712
  0
ARC
  5
2B4
330
1F
100
AcDbEntity
  8
PDF _0
370
    25
100
AcDbCircle
 10
978.4572017052987
 20
1866.392915449443
 30
0.0
 40
60.0564716722996
100
AcDbArc
 50
208.7291744154988
 51
151.2708255844997
  0
LWPOLYLINE
  5
2BD
330
1F
100
AcDbEntity
  8
PDF _0
370
    25
100
AcDbPolyline
 90
        2
 70
     0
 43
0.0
 10
584.7925336000001
 20
2364.8184016
 10
584.7925336000001
 20
727.6642192
  0
SOLID
  5
2BE
330
1F
100
AcDbEntity
  8
PDF _0
440
 33554559
100
AcDbTrace
 10
584.611912
 20
2364.8184016
 30
0.0
 11
585.1537768
 21
2364.8184016
 31
0.0
 12
584.7925336000001
 22
2366.2633744
 32
0.0
 13
584.7925336000001
 23
2366.2633744
 33
0.0
  0
SOLID
  5
2BF
330
1F
100
AcDbEntity
  8
PDF _0
440
 33554559
100
AcDbTrace
 10
584.611912
 20
727.6642192
 30
0.0
 11
585.1537768
 21
727.6642192
 31
0.0
 12
584.7925336000001
 22
726.2192464
 32
0.0
 13
584.7925336000001
 23
726.2192464
 33
0.0
  0
LWPOLYLINE
  5
2C0
330
1F
100
AcDbEntity
  8
PDF _0
370
    25
100
AcDbPolyline
 90
        4
 70
     1
 43
0.0
 10
769.2071872
 20
734.1665968
 10
1019.1874816
 20
734.1665968
 10
1019.1874816
 20
726.2192464
 10
769.2071872
 20
726.2192464
  0
SOLID
  5
2C4
330
1F
100
AcDbEntity
  8
PDF _0
440
 33554559
100
AcDbTrace
 10
684.3150352
 20
2364.8184016
 30
0.0
 11
684.8569
 21
2364.8184016
 31
0.0
 12
684.6762784
 22
2366.2633744
 32
0.0
 13
684.6762784
 23
2366.2633744
 33
0.0
  0
LWPOLYLINE
  5
2C6
330
1F
100
AcDbEntity
  8
PDF _0
370
    25
100
AcDbPolyline
 90
        2
 70
     0
 43
0.0
 10
884.6243896
 20
1671.2314576
 10
903.5896576
 20
1671.2314576
  0
LWPOLYLINE
  5
2C7
330
1F
100
AcDbEntity
  8
PDF _0
370
    25
100
AcDbPolyline
 90
        2
 70
     0
 43
0.0
 10
884.6243896
 20
1666.3546744
 10
903.5896576
 20
1666.3546744
  0
LWPOLYLINE
  5
2C8
330
1F
100
AcDbEntity
  8
PDF _0
370
    25
100
AcDbPolyline
 90
        2
 70
     0
 43
0.0
 10
884.6243896
 20
1676.2888624
 10
903.5896576
 20
1676.2888624
  0
LWPOLYLINE
  5
2D4
330
1F
100
AcDbEntity
  8
PDF _0
370
    25
100
AcDbPolyline
 90
        2
 70
     0
 43
0.0
 10
884.6243896
 20
739.2240016
 10
903.5896576
 20
739.2240016
  0
LWPOLYLINE
  5
2D5
330
1F
100
AcDbEntity
  8
PDF _0
370
    25
100
AcDbPolyline
 90
        2
 70
     0
 43
0.0
 10
903.5896576
 20
1204.6858648
 10
884.6243896
 20
1204.6858648
  0
LWPOLYLINE
  5
2E7
330
1F
100
AcDbEntity
  8
PDF _0
370
    25
100
AcDbPolyline
 90
        2
 70
     0
 43
0.0
 10
1082.0437984
 20
2224.8366616
 10
1082.0437984
 20
2107.7938648
  0
SOLID
  5
2E8
330
1F
100
AcDbEntity
  8
PDF _0
440
 33554559
100
AcDbTrace
 10
1081.8631768
 20
2224.8366616
 30
0.0
 11
1082.4050416
 21
2224.8366616
 31
0.0
 12
1082.0437984
 22
2226.281634400001
 32
0.0
 13
1082.0437984
 23
2226.281634400001
 33
0.0
  0
SOLID
  5
2E9
330
1F
100
AcDbEntity
  8
PDF _0
440
 33554559
100
AcDbTrace
 10
1081.8631768
 20
2107.7938648
 30
0.0
 11
1082.4050416
 21
2107.7938648
 31
0.0
 12
1082.0437984
 22
2106.348892000001
 32
0.0
 13
1082.0437984
 23
2106.348892000001
 33
0.0
  0
LWPOLYLINE
  5
2EC
330
1F
100
AcDbEntity
  8
PDF _0
370
    25
100
AcDbPolyline
 90
        2
 70
     0
 43
0.0
 10
1082.0437984
 20
2089.9123264
 10
1082.0437984
 20
1942.7057224
  0
SOLID
  5
2ED
330
1F
100
AcDbEntity
  8
PDF _0
440
 33554559
100
AcDbTrace
 10
1081.8631768
 20
2089.9123264
 30
0.0
 11
1082.4050416
 21
2089.9123264
 31
0.0
 12
1082.0437984
 22
2091.357299200001
 32
0.0
 13
1082.0437984
 23
2091.357299200001
 33
0.0
  0
SOLID
  5
2EE
330
1F
100
AcDbEntity
  8
PDF _0
440
 33554559
100
AcDbTrace
 10
1081.8631768
 20
1942.7057224
 30
0.0
 11
1082.4050416
 21
1942.7057224
 31
0.0
 12
1082.0437984
 22
1941.2607496
 32
0.0
 13
1082.0437984
 23
1941.2607496
 33
0.0
  0
SOLID
  5
2F2
330
1F
100
AcDbEntity
  8
PDF _0
440
 33554559
100
AcDbTrace
 10
1081.8631768
 20
1924.824184
 30
0.0
 11
1082.22442
 21
1924.824184
 31
0.0
 12
1082.0437984
 22
1926.2691568
 32
0.0
 13
1082.0437984
 23
1926.2691568
 33
0.0
  0
SOLID
  5
2F8
330
1F
100
AcDbEntity
  8
PDF _0
440
 33554559
100
AcDbTrace
 10
1081.8631768
 20
1642.6932448
 30
0.0
 11
1082.22442
 21
1642.6932448
 31
0.0
 12
1082.0437984
 22
1641.248272
 32
0.0
 13
1082.0437984
 23
1641.248272
 33
0.0
  0
SOLID
  5
2FC
330
1F
100
AcDbEntity
  8
PDF _0
440
 33554559
100
AcDbTrace
 10
683.2313056
 20
1639.8032992
 30
0.0
 11
683.5925488
 21
1639.8032992
 31
0.0
 12
683.4119272
 22
1641.248272
 32
0.0
 13
683.4119272
 23
1641.248272
 33
0.0
  0
SOLID
  5
2FD
330
1F
100
AcDbEntity
  8
PDF _0
440
 33554559
100
AcDbTrace
 10
683.2313056
 20
735.6115696
 30
0.0
 11
683.5925488
 21
735.6115696
 31
0.0
 12
683.4119272
 22
734.1665968
 32
0.0
 13
683.4119272
 23
734.1665968
 33
0.0
  0
LWPOLYLINE
  5
308
330
1F
100
AcDbEntity
  8
PDF _0
370
    25
100
AcDbPolyline
 90
        4
 70
     1
 43
0.0
 10
903.5896576
 20
1859.2585432
 10
903.5896576
 20
1873.347028
 10
913.7044672
 20
1873.347028
 10
913.7044672
 20
1859.2585432
  0
LWPOLYLINE
  5
309
330
1F
100
AcDbEntity
  8
PDF _0
370
    25
100
AcDbPolyline
 90
        4
 70
     1
 43
0.0
 10
874.6902015999999
 20
2159.2710208
 10
874.6902015999999
 20
2173.359505600001
 10
884.6243896
 20
2173.359505600001
 10
884.6243896
 20
2159.2710208
  0
LWPOLYLINE
  5
31A
330
1F
100
AcDbEntity
  8
PDF _0
370
    25
100
AcDbPolyline
 90
        2
 70
     0
 43
0.0
 10
719.8974904
 20
677.5182729965966
 10
1036.8883984
 20
677.5182729965966
  0
SOLID
  5
31B
330
1F
100
AcDbEntity
  8
PDF _0
440
 33554559
100
AcDbTrace
 10
719.8974904
 20
677.6988945965967
 30
0.0
 11
719.8974904
 21
677.1570297965967
 31
0.0
 12
718.4525176000001
 22
677.5182729965966
 32
0.0
 13
718.4525176000001
 23
677.5182729965966
 33
0.0
  0
SOLID
  5
31C
330
1F
100
AcDbEntity
  8
PDF _0
440
 33554559
100
AcDbTrace
 10
1036.8883984
 20
677.6988945965967
 30
0.0
 11
1036.8883984
 21
677.1570297965967
 31
0.0
 12
1038.3333712
 22
677.5182729965966
 32
0.0
 13
1038.3333712
 23
677.5182729965966
 33
0.0
  0
SOLID
  5
320
330
1F
100
AcDbEntity
  8
PDF _0
440
 33554559
100
AcDbTrace
 10
697.5004120000001
 20
603.2159368
 30
0.0
 11
698.0422768000001
 21
603.2159368
 31
0.0
 12
697.8616552
 22
604.6609096
 32
0.0
 13
697.8616552
 23
604.6609096
 33
0.0
  0
LWPOLYLINE
  5
56B
330
1F
100
AcDbEntity
  8
PDF _0
370
    25
100
AcDbPolyline
 90
        2
 70
     0
 43
0.0
 10
1233.043456
 20
835.3146928000001
 10
1237.558996
 20
809.1245608000001
  0
ARC
  5
573
330
1F
100
AcDbEntity
  8
PDF _0
370
    25
100
AcDbCircle
 10
1230.245276195532
 20
881.4538526550366
 30
0.0
 40
67.2717914758403
100
AcDbArc
 50
278.2616682218518
 51
282.7722006655319
  0
LWPOLYLINE
  5
574
330
1F
100
AcDbEntity
  8
PDF _0
370
    25
100
AcDbPolyline
 90
        2
 70
     0
 43
0.0
 10
1245.1451032
 20
815.6269384000001
 10
1250.3831296
 20
816.7106679999999
  0
ARC
  5
579
330
1F
100
AcDbEntity
  8
PDF _0
370
    25
100
AcDbCircle
 10
1413.275899691858
 20
853.8395680569347
 30
0.0
 40
193.9606895597446
100
AcDbArc
 50
188.696143256432
 51
191.3210186941604
  0
LWPOLYLINE
  5
57A
330
1F
100
AcDbEntity
  8
PDF _0
370
    25
100
AcDbPolyline
 90
        2
 70
     0
 43
0.0
 10
1220.399944
 20
824.2967752
 10
1222.0255384
 20
815.4463168000001
  0
ARC
  5
57B
330
1F
100
AcDbEntity
  8
PDF _0
370
    25
100
AcDbCircle
 10
1453.387994685406
 20
859.0494520984599
 30
0.0
 40
236.2378942580674
100
AcDbArc
 50
188.4810951472706
 51
190.6408736074096
  0
LWPOLYLINE
  5
57C
330
1F
100
AcDbEntity
  8
PDF _0
370
    25
100
AcDbPolyline
 90
        2
 70
     0
 43
0.0
 10
1218.4131064
 20
823.9355320000001
 10
1220.0387008
 20
815.0850736
  0
ARC
  5
57D
330
1F
100
AcDbEntity
  8
PDF _0
370
    25
100
AcDbCircle
 10
1356.320298196383
 20
842.2690619651147
 30
0.0
 40
139.8940562064965
100
AcDbArc
 50
187.5970889691638
 51
191.2499653574994
  0
ARC
  5
57E
330
1F
100
AcDbEntity
  8
PDF _0
370
    25
100
AcDbCircle
 10
1220.128973538306
 20
772.9097245422316
 30
0.0
 40
41.45285429984411
100
AcDbArc
 50
83.58392946635571
 51
100.6951468817272
  0
LWPOLYLINE
  5
57F
330
1F
100
AcDbEntity
  8
PDF _0
370
    25
100
AcDbPolyline
 90
        3
 70
     0
 43
0.0
 10
1223.2898896
 20
824.6580184
 10
1224.915484
 20
815.9881816
 10
1215.884404
 20
814.3625871999999
  0
ARC
  5
582
330
1F
100
AcDbEntity
  8
PDF _0
370
    25
100
AcDbCircle
 10
1274.668880653704
 20
506.3609802186292
 30
0.0
 40
322.6313454918634
100
AcDbArc
 50
99.14611257730882
 51
100.7723308741338
  0
ARC
  5
583
330
1F
100
AcDbEntity
  8
PDF _0
370
    25
100
AcDbCircle
 10
1228.256883540634
 20
839.3792511414471
 30
0.0
 40
25.37790925524154
100
AcDbArc
 50
261.9143853981646
 51
280.9259200618039
  0
ARC
  5
584
330
1F
100
AcDbEntity
  8
PDF _0
370
    25
100
AcDbCircle
 10
1251.369063949835
 20
723.8184257029677
 30
0.0
 40
92.34965068515414
100
AcDbArc
 50
99.16722606129276
 51
101.3489098091521
  0
ARC
  5
586
330
1F
100
AcDbEntity
  8
PDF _0
370
    25
100
AcDbCircle
 10
1196.827620050471
 20
853.471678763023
 30
0.0
 40
39.47047462861337
100
AcDbArc
 50
277.4496256711038
 51
279.8443017700606
  0
ARC
  5
588
330
1F
100
AcDbEntity
  8
PDF _0
370
    25
100
AcDbCircle
 10
1230.964175600631
 20
866.4859171697324
 30
0.0
 40
37.67375197733225
100
AcDbArc
 50
274.9562417447469
 51
279.6730359220847
  0
ARC
  5
589
330
1F
100
AcDbEntity
  8
PDF _0
370
    25
100
AcDbCircle
 10
1237.829851800978
 20
816.9821586534613
 30
0.0
 40
14.17822634427009
100
AcDbArc
 50
93.53209475877942
 51
105.914094670833
  0
ARC
  5
58A
330
1F
100
AcDbEntity
  8
PDF _0
370
    25
100
AcDbCircle
 10
1259.328712874086
 20
706.589639695413
 30
0.0
 40
126.1967152747726
100
AcDbArc
 50
97.77302767090301
 51
100.1894057877273
  0
ARC
  5
58B
330
1F
100
AcDbEntity
  8
PDF _0
370
    25
100
AcDbCircle
 10
1209.996542435478
 20
1021.19836692215
 30
0.0
 40
193.6517644461171
100
AcDbArc
 50
278.1357464610437
 51
279.7168546365771
  0
ARC
  5
58D
330
1F
100
AcDbEntity
  8
PDF _0
370
    25
100
AcDbCircle
 10
1225.547481827051
 20
827.9998250516467
 30
0.0
 40
12.01145569781356
100
AcDbArc
 50
6.222309410053959
 51
15.37362308416232
  0
ARC
  5
590
330
1F
100
AcDbEntity
  8
PDF _0
370
    25
100
AcDbCircle
 10
1208.929554371804
 20
805.7873877838433
 30
0.0
 40
9.478213728673853
100
AcDbArc
 50
95.6328734136518
 51
106.135305956187
  0
ARC
  5
591
330
1F
100
AcDbEntity
  8
PDF _0
370
    25
100
AcDbCircle
 10
1015.436425810754
 20
787.3531648394459
 30
0.0
 40
194.6685048010038
100
AcDbArc
 50
7.602559158037959
 51
10.20016716069089
  0
LWPOLYLINE
  5
595
330
1F
100
AcDbEntity
  8
PDF _0
370
    25
100
AcDbPolyline
 90
        4
 70
     1
 43
0.0
 10
1064.8847464
 20
797.3841568
 10
1099.9253368
 20
795.0360760000001
 10
1105.1633632
 20
792.6879952000001
 10
1059.2854768
 20
795.3973192000001
  0
LWPOLYLINE
  5
596
330
1F
100
AcDbEntity
  8
PDF _0
370
    25
100
AcDbPolyline
 90
        2
 70
     0
 43
0.0
 10
1214.2588096
 20
823.3936672
 10
1215.884404
 20
814.1819656
  0
ARC
  5
597
330
1F
100
AcDbEntity
  8
PDF _0
370
    25
100
AcDbCircle
 10
1425.057819627008
 20
855.26062320411
 30
0.0
 40
212.4235611238818
100
AcDbArc
 50
188.6404561242413
 51
191.0473471494649
  0
ARC
  5
598
330
1F
100
AcDbEntity
  8
PDF _0
370
    25
100
AcDbCircle
 10
1397.716728514637
 20
849.8608801407531
 30
0.0
 40
182.9165739879176
100
AcDbArc
 50
188.2455022906956
 51
191.0354528388062
  0
ARC
  5
599
330
1F
100
AcDbEntity
  8
PDF _0
370
    25
100
AcDbCircle
 10
1345.302847014114
 20
841.0054948072163
 30
0.0
 40
145.8551829317555
100
AcDbArc
 50
188.0422935475053
 51
191.3216493179018
  0
ARC
  5
59A
330
1F
100
AcDbEntity
  8
PDF _0
370
    25
100
AcDbCircle
 10
727.7751886666863
 20
736.4874923611287
 30
0.0
 40
482.1435094651237
100
AcDbArc
 50
9.068959580882863
 51
10.07501472163778
  0
ARC
  5
59B
330
1F
100
AcDbEntity
  8
PDF _0
370
    25
100
AcDbCircle
 10
1329.034783170515
 20
840.2790639544669
 30
0.0
 40
127.4191396852714
100
AcDbArc
 50
188.678614672912
 51
192.5076121268752
  0
ARC
  5
59C
330
1F
100
AcDbEntity
  8
PDF _0
370
    25
100
AcDbCircle
 10
1197.18527327303
 20
849.7036044874395
 30
0.0
 40
31.5483546491728
100
AcDbArc
 50
277.4174876906917
 51
280.441364256048
  0
ARC
  5
59D
330
1F
100
AcDbEntity
  8
PDF _0
370
    25
100
AcDbCircle
 10
1071.10032848878
 20
793.4973471998839
 30
0.0
 40
136.4758359597781
100
AcDbArc
 50
8.09740981679953
 51
11.72797402883697
  0
LWPOLYLINE
  5
59E
330
1F
100
AcDbEntity
  8
PDF _0
370
    25
100
AcDbPolyline
 90
        2
 70
     0
 43
0.0
 10
1206.6727024
 20
812.7369928
 10
1205.2277296
 20
821.4068296
  0
ARC
  5
5A0
330
1F
100
AcDbEntity
  8
PDF _0
370
    25
100
AcDbCircle
 10
1207.666421659569
 20
800.724563205059
 30
0.0
 40
14.17992050570292
100
AcDbArc
 50
97.69101040205097
 51
104.0242496385354
  0
ARC
  5
5A1
330
1F
100
AcDbEntity
  8
PDF _0
370
    25
100
AcDbCircle
 10
1204.957029555887
 20
813.9096126882932
 30
0.0
 40
5.329765235354805
100
AcDbArc
 50
88.61813866889404
 51
106.4011156472571
  0
ARC
  5
5A2
330
1F
100
AcDbEntity
  8
PDF _0
370
    25
100
AcDbCircle
 10
1213.974262365371
 20
778.0458030363564
 30
0.0
 40
42.09550459023879
100
AcDbArc
 50
98.96872603185883
 51
101.4067096422502
  0
LWPOLYLINE
  5
5A3
330
1F
100
AcDbEntity
  8
PDF _0
370
    25
100
AcDbPolyline
 90
       92
 70
     0
 43
0.0
 10
1033.0953448
 20
767.4009712000001
 10
1033.9984528
 20
767.0397280000001
 10
1034.359696
 20
766.8591064000001
 10
1034.7209392
 20
766.4978632000001
 10
1035.0821824
 20
766.3172416
 10
1035.6240472
 20
766.1366199999999
 10
1035.9852904
 20
765.9559984
 10
1036.3465336
 20
765.7753768
 10
1036.5271552
 20
765.5947552
 10
1036.7077768
 20
765.5947552
 10
1036.8883984
 20
765.4141336
 10
1037.06902
 20
765.233512
 10
1037.2496416
 20
765.0528904
 10
1037.4302632
 20
764.8722688
 10
1037.6108848
 20
764.8722688
 10
1037.7915064
 20
764.6916472
 10
1037.7915064
 20
764.5110256
 10
1037.972128
 20
764.5110256
 10
1038.1527496
 20
764.330404
 10
1038.1527496
 20
764.1497824
 10
1038.3333712
 20
763.9691608
 10
1038.5139928
 20
763.9691608
 10
1038.5139928
 20
763.7885392000001
 10
1038.6946144
 20
763.6079176
 10
1038.6946144
 20
763.427296
 10
1038.6946144
 20
763.2466744000001
 10
1038.875236
 20
763.2466744000001
 10
1038.875236
 20
763.0660528
 10
1038.875236
 20
762.8854312000001
 10
1039.0558576
 20
762.7048096000001
 10
1039.0558576
 20
762.524188
 10
1039.0558576
 20
762.3435663999999
 10
1039.0558576
 20
762.1629448
 10
1039.0558576
 20
761.9823231999999
 10
1039.0558576
 20
761.8017016
 10
1039.0558576
 20
761.62108
 10
1039.0558576
 20
761.4404583999999
 10
1039.0558576
 20
761.2598368
 10
1039.0558576
 20
761.0792152
 10
1038.875236
 20
760.8985936
 10
1038.875236
 20
760.717972
 10
1038.875236
 20
760.3567288
 10
1038.875236
 20
760.1761072
 10
1038.6946144
 20
759.814864
 10
1038.5139928
 20
759.4536208
 10
1038.5139928
 20
759.0923776000001
 10
1038.3333712
 20
758.5505128000001
 10
1037.972128
 20
757.8280263999999
 10
1037.7915064
 20
756.9249184
 10
1037.6108848
 20
756.5636752
 10
1037.4302632
 20
756.0218104
 10
1037.2496416
 20
755.6605672
 10
1037.2496416
 20
755.2993240000001
 10
1037.06902
 20
754.9380808000001
 10
1037.06902
 20
754.5768376
 10
1037.06902
 20
754.3962160000001
 10
1036.8883984
 20
754.2155944
 10
1036.8883984
 20
754.0349727999999
 10
1036.8883984
 20
753.8543512
 10
1036.8883984
 20
753.6737296
 10
1036.8883984
 20
753.4931079999999
 10
1036.8883984
 20
753.3124864
 10
1036.8883984
 20
753.1318648
 10
1036.8883984
 20
752.9512432
 10
1036.8883984
 20
752.7706216
 10
1036.8883984
 20
752.59
 10
1036.8883984
 20
752.4093784
 10
1037.06902
 20
752.2287568
 10
1037.06902
 20
752.0481352
 10
1037.06902
 20
751.8675136
 10
1037.2496416
 20
751.686892
 10
1037.4302632
 20
751.5062704
 10
1037.4302632
 20
751.3256488
 10
1037.6108848
 20
751.1450272000001
 10
1037.7915064
 20
750.9644056
 10
1037.972128
 20
750.783784
 10
1038.1527496
 20
750.6031624000001
 10
1038.3333712
 20
750.6031624000001
 10
1038.5139928
 20
750.4225408
 10
1038.6946144
 20
750.4225408
 10
1038.875236
 20
750.2419191999999
 10
1039.0558576
 20
750.0612976
 10
1039.2364792
 20
750.0612976
 10
1039.4171008
 20
749.8806759999999
 10
1039.5977224
 20
749.8806759999999
 10
1039.778344
 20
749.7000544
 10
1040.1395872
 20
749.5194328
 10
1040.5008304
 20
749.5194328
 10
1040.8620736
 20
749.3388111999999
 10
1041.4039384
 20
749.1581896
 10
1041.7651816
 20
748.977568
 10
1042.6682896
 20
748.6163248
  0
LWPOLYLINE
  5
5A4
330
1F
100
AcDbEntity
  8
PDF _0
370
    25
100
AcDbPolyline
 90
       94
 70
     0
 43
0.0
 10
1038.875236
 20
768.1234576
 10
1039.778344
 20
767.7622144
 10
1040.1395872
 20
767.5815928
 10
1040.5008304
 20
767.4009712000001
 10
1041.0426952
 20
767.2203496
 10
1041.4039384
 20
767.0397280000001
 10
1041.7651816
 20
766.8591064000001
 10
1042.1264248
 20
766.6784848
 10
1042.3070464
 20
766.4978632000001
 10
1042.487668
 20
766.3172416
 10
1042.6682896
 20
766.3172416
 10
1042.8489112
 20
766.1366199999999
 10
1042.8489112
 20
765.9559984
 10
1043.0295328
 20
765.9559984
 10
1043.2101544
 20
765.7753768
 10
1043.390776
 20
765.5947552
 10
1043.5713976
 20
765.5947552
 10
1043.5713976
 20
765.4141336
 10
1043.7520192
 20
765.233512
 10
1043.9326408
 20
765.233512
 10
1043.9326408
 20
765.0528904
 10
1044.1132624
 20
764.8722688
 10
1044.293884
 20
764.6916472
 10
1044.4745056
 20
764.5110256
 10
1044.4745056
 20
764.330404
 10
1044.4745056
 20
764.1497824
 10
1044.6551272
 20
763.9691608
 10
1044.6551272
 20
763.7885392000001
 10
1044.6551272
 20
763.6079176
 10
1044.8357488
 20
763.6079176
 10
1044.8357488
 20
763.427296
 10
1044.8357488
 20
763.2466744000001
 10
1044.8357488
 20
763.0660528
 10
1044.8357488
 20
762.8854312000001
 10
1044.8357488
 20
762.7048096000001
 10
1044.8357488
 20
762.524188
 10
1044.8357488
 20
762.3435663999999
 10
1044.8357488
 20
762.1629448
 10
1044.8357488
 20
761.8017016
 10
1044.6551272
 20
761.62108
 10
1044.6551272
 20
761.4404583999999
 10
1044.6551272
 20
761.2598368
 10
1044.6551272
 20
761.0792152
 10
1044.4745056
 20
760.717972
 10
1044.293884
 20
760.3567288
 10
1044.293884
 20
759.814864
 10
1044.1132624
 20
759.4536208
 10
1043.7520192
 20
758.5505128000001
 10
1043.5713976
 20
757.8280263999999
 10
1043.390776
 20
757.2861615999999
 10
1043.2101544
 20
756.9249184
 10
1043.0295328
 20
756.5636752
 10
1043.0295328
 20
756.202432
 10
1042.8489112
 20
755.6605672
 10
1042.8489112
 20
755.4799456
 10
1042.8489112
 20
755.2993240000001
 10
1042.6682896
 20
755.1187024
 10
1042.6682896
 20
754.9380808000001
 10
1042.6682896
 20
754.7574592000001
 10
1042.6682896
 20
754.5768376
 10
1042.6682896
 20
754.3962160000001
 10
1042.6682896
 20
754.2155944
 10
1042.6682896
 20
754.0349727999999
 10
1042.6682896
 20
753.8543512
 10
1042.6682896
 20
753.6737296
 10
1042.6682896
 20
753.4931079999999
 10
1042.6682896
 20
753.3124864
 10
1042.6682896
 20
753.1318648
 10
1042.8489112
 20
753.1318648
 10
1042.8489112
 20
752.9512432
 10
1042.8489112
 20
752.7706216
 10
1043.0295328
 20
752.59
 10
1043.0295328
 20
752.4093784
 10
1043.2101544
 20
752.4093784
 10
1043.2101544
 20
752.2287568
 10
1043.390776
 20
752.0481352
 10
1043.5713976
 20
751.8675136
 10
1043.7520192
 20
751.686892
 10
1043.9326408
 20
751.5062704
 10
1044.1132624
 20
751.3256488
 10
1044.293884
 20
751.3256488
 10
1044.4745056
 20
751.1450272000001
 10
1044.6551272
 20
751.1450272000001
 10
1044.8357488
 20
750.9644056
 10
1045.0163704
 20
750.9644056
 10
1045.196992
 20
750.783784
 10
1045.3776136
 20
750.783784
 10
1045.5582352
 20
750.6031624000001
 10
1045.9194784
 20
750.4225408
 10
1046.2807216
 20
750.2419191999999
 10
1046.6419648
 20
750.0612976
 10
1047.1838296
 20
750.0612976
 10
1047.5450728
 20
749.8806759999999
 10
1048.4481808
 20
749.5194328
  0
LWPOLYLINE
  5
5A5
330
1F
100
AcDbEntity
  8
PDF _0
370
    25
100
AcDbPolyline
 90
        4
 70
     0
 43
0.0
 10
1105.224216423256
 20
792.6833207129881
 42
-0.4101813607579066
 10
1107.511444
 20
790.1592928
 10
1106.608336
 20
774.9870784000001
 10
1065.6072328
 20
777.5157808
  0
LWPOLYLINE
  5
5A8
330
1F
100
AcDbEntity
  8
PDF _0
370
    25
100
AcDbPolyline
 90
        3
 70
     0
 43
0.0
 10
1056.7567744
 20
793.22986
 10
1055.6730448
 20
778.0576456
 10
1058.5629904
 20
777.877024
  0
ARC
  5
5A9
330
1F
100
AcDbEntity
  8
PDF _0
370
    25
100
AcDbCircle
 10
1059.375804107787
 20
793.1395773797115
 30
0.0
 40
2.438378025533483
100
AcDbArc
 50
86.44613339492826
 51
175.6497469586956
  0
LWPOLYLINE
  5
5AC
330
1F
100
AcDbEntity
  8
PDF _0
370
    25
100
AcDbPolyline
 90
       94
 70
     0
 43
0.0
 10
1164.0460048
 20
820.8649648000001
 10
1164.7684912
 20
820.5037216
 10
1165.310356
 20
820.3231
 10
1165.6715992
 20
820.1424784
 10
1166.0328424
 20
819.9618568000001
 10
1166.3940856
 20
819.6006136000001
 10
1166.7553288
 20
819.419992
 10
1167.116572
 20
819.2393704
 10
1167.2971936
 20
819.2393704
 10
1167.4778152
 20
819.0587488000002
 10
1167.6584368
 20
818.8781271999999
 10
1167.8390584
 20
818.8781271999999
 10
1168.01968
 20
818.6975055999999
 10
1168.2003016
 20
818.5168839999999
 10
1168.3809232
 20
818.5168839999999
 10
1168.3809232
 20
818.3362624
 10
1168.5615448
 20
818.1556408
 10
1168.7421664
 20
818.1556408
 10
1168.922788
 20
817.9750192
 10
1168.922788
 20
817.7943975999999
 10
1169.1034096
 20
817.6137759999999
 10
1169.2840312
 20
817.6137759999999
 10
1169.2840312
 20
817.4331544000001
 10
1169.4646528
 20
817.2525328
 10
1169.4646528
 20
817.0719112
 10
1169.6452744
 20
816.8912896
 10
1169.6452744
 20
816.7106679999999
 10
1169.825896
 20
816.5300464000001
 10
1169.825896
 20
816.3494248000001
 10
1169.825896
 20
816.1688032
 10
1169.825896
 20
815.9881816
 10
1169.825896
 20
815.80756
 10
1169.825896
 20
815.6269384000001
 10
1169.825896
 20
815.4463168000001
 10
1169.825896
 20
815.2656952
 10
1169.825896
 20
815.0850736
 10
1169.825896
 20
814.904452
 10
1169.825896
 20
814.7238304
 10
1169.825896
 20
814.5432087999999
 10
1169.825896
 20
814.3625871999999
 10
1169.825896
 20
814.1819656
 10
1169.6452744
 20
814.001344
 10
1169.6452744
 20
813.8207224
 10
1169.6452744
 20
813.2788576000001
 10
1169.4646528
 20
812.9176144
 10
1169.2840312
 20
812.5563711999999
 10
1169.1034096
 20
812.0145064
 10
1168.922788
 20
811.2920200000001
 10
1168.5615448
 20
810.3889119999999
 10
1168.3809232
 20
810.0276688000001
 10
1168.3809232
 20
809.6664256
 10
1168.2003016
 20
809.1245608000001
 10
1168.01968
 20
808.7633176
 10
1168.01968
 20
808.4020744
 10
1167.8390584
 20
808.2214528000001
 10
1167.8390584
 20
808.0408312000001
 10
1167.8390584
 20
807.8602096
 10
1167.8390584
 20
807.679588
 10
1167.8390584
 20
807.4989664
 10
1167.8390584
 20
807.3183448000001
 10
1167.6584368
 20
807.1377232000001
 10
1167.6584368
 20
806.9571016000001
 10
1167.6584368
 20
806.77648
 10
1167.6584368
 20
806.5958584
 10
1167.6584368
 20
806.4152368
 10
1167.8390584
 20
806.2346151999999
 10
1167.8390584
 20
806.0539935999999
 10
1167.8390584
 20
805.8733720000001
 10
1167.8390584
 20
805.6927504
 10
1167.8390584
 20
805.5121288
 10
1168.01968
 20
805.3315072
 10
1168.2003016
 20
805.1508855999999
 10
1168.2003016
 20
804.9702640000001
 10
1168.3809232
 20
804.7896424000001
 10
1168.5615448
 20
804.6090208
 10
1168.5615448
 20
804.4283992
 10
1168.7421664
 20
804.4283992
 10
1168.922788
 20
804.2477776
 10
1169.1034096
 20
804.2477776
 10
1169.2840312
 20
804.0671560000001
 10
1169.2840312
 20
803.8865344000001
 10
1169.4646528
 20
803.8865344000001
 10
1169.6452744
 20
803.7059128
 10
1169.825896
 20
803.7059128
 10
1170.0065176
 20
803.5252912
 10
1170.1871392
 20
803.5252912
 10
1170.3677608
 20
803.3446696
 10
1170.5483824
 20
803.3446696
 10
1170.9096256
 20
803.1640480000001
 10
1171.4514904
 20
802.9834264000001
 10
1171.8127336
 20
802.8028047999999
 10
1172.1739768
 20
802.6221832
 10
1172.7158416
 20
802.4415616
 10
1173.438328
 20
802.26094
  0
LWPOLYLINE
  5
5AD
330
1F
100
AcDbEntity
  8
PDF _0
370
    25
100
AcDbPolyline
 90
        2
 70
     0
 43
0.0
 10
1106.7889576
 20
776.7932944
 10
1068.8584216
 20
779.1413752000001
  0
LWPOLYLINE
  5
5AE
330
1F
100
AcDbEntity
  8
PDF _0
370
    25
100
AcDbPolyline
 90
        4
 70
     0
 43
0.0
 10
1098.964019876968
 20
795.68103960928
 42
0.5472201226140756
 10
1098.8416072
 20
796.1198056
 10
1066.1490976
 20
798.1066432
 42
0.5472519541448938
 10
1066.007564654303
 20
797.6953208636047
  0
LWPOLYLINE
  5
5AF
330
1F
100
AcDbEntity
  8
PDF _0
370
    25
100
AcDbPolyline
 90
        2
 70
     0
 43
0.0
 10
1097.577256
 20
796.6616704
 10
1067.4134488
 20
798.4678864
  0
LWPOLYLINE
  5
5B0
330
1F
100
AcDbEntity
  8
PDF _0
370
    25
100
AcDbPolyline
 90
       97
 70
     0
 43
0.0
 10
903.5896576
 20
757.10554
 10
907.924576
 20
757.8280263999999
 10
909.9114136
 20
758.1892695999999
 10
912.0788728
 20
758.7311344
 10
914.246332
 20
759.0923776000001
 10
916.2331696
 20
759.4536208
 10
918.4006288
 20
759.814864
 10
920.568088
 20
760.1761072
 10
922.5549256
 20
760.5373504
 10
924.7223848
 20
760.8985936
 10
926.7092224
 20
761.2598368
 10
927.792952
 20
761.4404583999999
 10
928.8766816
 20
761.4404583999999
 10
929.9604112
 20
761.62108
 10
930.8635192
 20
761.8017016
 10
931.9472488
 20
761.9823231999999
 10
933.0309784
 20
762.1629448
 10
934.114708
 20
762.1629448
 10
935.017816
 20
762.3435663999999
 10
936.1015456000002
 20
762.524188
 10
937.1852752
 20
762.524188
 10
938.2690048
 20
762.7048096000001
 10
939.1721128
 20
762.8854312000001
 10
940.2558424000002
 20
762.8854312000001
 10
941.339572
 20
763.0660528
 10
942.4233016
 20
763.0660528
 10
943.3264096
 20
763.2466744000001
 10
944.4101392000002
 20
763.2466744000001
 10
945.4938688
 20
763.2466744000001
 10
946.3969768
 20
763.427296
 10
947.4807064
 20
763.427296
 10
948.5644360000001
 20
763.427296
 10
949.6481656
 20
763.427296
 10
950.5512736
 20
763.427296
 10
951.6350032
 20
763.6079176
 10
952.7187328000001
 20
763.6079176
 10
953.6218408000001
 20
763.6079176
 10
954.7055703999999
 20
763.6079176
 10
955.7893000000001
 20
763.6079176
 10
956.6924080000001
 20
763.427296
 10
957.7761376000001
 20
763.427296
 10
958.8598672000001
 20
763.427296
 10
959.7629752000001
 20
763.427296
 10
960.8467048000001
 20
763.427296
 10
961.9304344000001
 20
763.2466744000001
 10
963.0141640000001
 20
763.2466744000001
 10
963.9172720000001
 20
763.0660528
 10
965.0010016000001
 20
763.0660528
 10
966.0847312000001
 20
762.8854312000001
 10
966.9878392000001
 20
762.8854312000001
 10
968.0715688000001
 20
762.7048096000001
 10
969.1552984000001
 20
762.7048096000001
 10
970.2390280000001
 20
762.524188
 10
971.1421360000001
 20
762.3435663999999
 10
972.2258656000001
 20
762.3435663999999
 10
973.3095952000001
 20
762.1629448
 10
974.3933248000001
 20
761.9823231999999
 10
975.2964328
 20
761.8017016
 10
976.3801624
 20
761.62108
 10
978.5476216000001
 20
761.4404583999999
 10
980.5344592
 20
761.0792152
 10
982.7019184
 20
760.717972
 10
984.688756
 20
760.3567288
 10
986.8562152
 20
759.9954856
 10
989.0236744
 20
759.6342424
 10
991.010512
 20
759.4536208
 10
993.1779712
 20
759.0923776000001
 10
995.3454304
 20
758.7311344
 10
997.332268
 20
758.3698912
 10
999.4997272
 20
758.008648
 10
1001.6671864
 20
757.6474048
 10
1003.8346456
 20
757.2861615999999
 10
1005.8214832
 20
757.10554
 10
1006.9052128
 20
756.9249184
 10
1007.9889424
 20
756.7442968
 10
1009.072672
 20
756.5636752
 10
1010.1564016
 20
756.3830536
 10
1011.2401312
 20
756.3830536
 10
1012.3238608
 20
756.202432
 10
1013.4075904
 20
756.0218104
 10
1014.49132
 20
756.0218104
 10
1015.5750496
 20
755.8411888000001
 10
1016.6587792
 20
755.8411888000001
 10
1017.7425088
 20
755.6605672
 10
1018.8262384
 20
755.6605672
 10
1019.909968
 20
755.4799456
 10
1020.813076
 20
755.4799456
 10
1021.8968056
 20
755.4799456
 10
1022.9805352
 20
755.2993240000001
 10
1024.0642648
 20
755.2993240000001
 10
1025.1479944
 20
755.2993240000001
 10
1027.3154536
 20
755.1187024
 10
1029.4829128
 20
755.1187024
 10
1031.650372
 20
754.9380808000001
 10
1033.8178312
 20
754.9380808000001
 10
1035.8046688
 20
754.9380808000001
 10
1037.972128
 20
754.9380808000001
  0
LWPOLYLINE
  5
5B1
330
1F
100
AcDbEntity
  8
PDF _0
370
    25
100
AcDbPolyline
 90
        4
 70
     0
 43
0.0
 10
1100.058597610264
 20
795.1539478499441
 42
0.4755567641892677
 10
1099.9253368
 20
795.5779408
 10
1065.065368
 20
797.7454
 42
0.4753911884781903
 10
1064.914865676963
 20
797.3500240782466
  0
ARC
  5
5B4
330
1F
100
AcDbEntity
  8
PDF _0
370
    25
100
AcDbCircle
 10
1097.667796761382
 20
796.3906767453423
 30
0.0
 40
0.2707014649181334
100
AcDbArc
 50
318.1510393433695
 51
81.42104649903325
  0
ARC
  5
5B5
330
1F
100
AcDbEntity
  8
PDF _0
370
    25
100
AcDbCircle
 10
1067.503740772351
 20
798.377648594037
 30
0.0
 40
0.270860023311811
100
AcDbArc
 50
91.46983769604025
 51
214.7246498452564
  0
LWPOLYLINE
  5
5B7
330
1F
100
AcDbEntity
  8
PDF _0
370
    25
100
AcDbPolyline
 90
        4
 70
     0
 43
0.0
 10
1070.3033944
 20
798.2872647999999
 10
1070.6646376
 20
803.5252912
 42
-0.4142098041141763
 10
1073.7352048
 20
806.4152368
 10
1092.3392296
 20
805.1508855999999
  0
LWPOLYLINE
  5
5B8
330
1F
100
AcDbEntity
  8
PDF _0
370
    25
100
AcDbPolyline
 90
        2
 70
     0
 43
0.0
 10
1094.6873104
 20
796.842292
 10
1095.0485536
 20
802.0803184
  0
ARC
  5
5BA
330
1F
100
AcDbEntity
  8
PDF _0
370
    25
100
AcDbCircle
 10
1092.248929715586
 20
802.351260438823
 30
0.0
 40
2.980246180346889
100
AcDbArc
 50
356.4453579482068
 51
86.4457538721102
  0
LWPOLYLINE
  5
5BC
330
1F
100
AcDbEntity
  8
PDF _0
370
    25
100
AcDbPolyline
 90
      325
 70
     0
 43
0.0
 10
1044.4745056
 20
760.5373504
 10
1045.196992
 20
760.5373504
 10
1045.7388568
 20
760.717972
 10
1046.4613432
 20
760.717972
 10
1047.1838296
 20
760.717972
 10
1048.6288024
 20
760.8985936
 10
1049.8931536
 20
760.8985936
 10
1051.3381264
 20
761.0792152
 10
1052.7830992
 20
761.0792152
 10
1054.0474504
 20
761.2598368
 10
1054.7699368
 20
761.2598368
 10
1055.4924232
 20
761.4404583999999
 10
1056.2149096
 20
761.4404583999999
 10
1056.7567744
 20
761.62108
 10
1057.4792608
 20
761.62108
 10
1058.2017472
 20
761.62108
 10
1058.743612
 20
761.8017016
 10
1059.4660984
 20
761.8017016
 10
1060.0079632
 20
761.9823231999999
 10
1060.7304496
 20
761.9823231999999
 10
1061.2723144
 20
762.1629448
 10
1061.9948008
 20
762.1629448
 10
1062.5366656
 20
762.3435663999999
 10
1063.0785304
 20
762.3435663999999
 10
1063.6203952
 20
762.524188
 10
1064.3428816
 20
762.524188
 10
1064.8847464
 20
762.7048096000001
 10
1065.4266112
 20
762.8854312000001
 10
1064.8847464
 20
763.0660528
 10
1064.3428816
 20
763.2466744000001
 10
1063.8010168
 20
763.427296
 10
1063.259152
 20
763.7885392000001
 10
1062.8979088
 20
763.9691608
 10
1062.356044
 20
764.1497824
 10
1061.8141792
 20
764.5110256
 10
1061.2723144
 20
764.6916472
 10
1060.7304496
 20
765.0528904
 10
1060.549828
 20
765.233512
 10
1060.3692064
 20
765.4141336
 10
1060.0079632
 20
765.5947552
 10
1059.8273416
 20
765.7753768
 10
1059.64672
 20
765.7753768
 10
1059.2854768
 20
765.9559984
 10
1059.1048552
 20
766.1366199999999
 10
1058.9242336
 20
766.4978632000001
 10
1058.743612
 20
766.6784848
 10
1058.3823688
 20
766.8591064000001
 10
1058.2017472
 20
767.0397280000001
 10
1058.0211256
 20
767.2203496
 10
1057.840504
 20
767.4009712000001
 10
1057.6598824
 20
767.5815928
 10
1057.6598824
 20
767.7622144
 10
1057.4792608
 20
767.7622144
 10
1057.2986392
 20
767.9428360000001
 10
1057.2986392
 20
768.1234576
 10
1057.1180176
 20
768.3040792
 10
1057.1180176
 20
768.4847008
 10
1056.937396
 20
768.6653224
 10
1056.7567744
 20
768.845944
 10
1056.7567744
 20
769.0265656
 10
1056.5761528
 20
769.2071872
 10
1056.5761528
 20
769.3878087999999
 10
1056.3955312
 20
769.5684304
 10
1056.3955312
 20
769.749052
 10
1056.2149096
 20
769.9296735999999
 10
1056.2149096
 20
770.1102952
 10
1056.2149096
 20
770.4715384
 10
1056.2149096
 20
770.6521600000001
 10
1056.034288
 20
770.8327816000001
 10
1056.034288
 20
771.0134032
 10
1056.034288
 20
771.1940248000001
 10
1056.034288
 20
771.3746464
 10
1056.034288
 20
771.555268
 10
1055.8536664
 20
771.7358896000001
 10
1055.8536664
 20
771.9165112
 10
1055.8536664
 20
772.2777544
 10
1055.8536664
 20
772.458376
 10
1055.8536664
 20
772.6389976
 10
1056.034288
 20
772.8196192
 10
1056.034288
 20
773.0002408
 10
1056.034288
 20
773.1808624
 10
1056.034288
 20
773.361484
 10
1056.034288
 20
773.5421056
 10
1056.034288
 20
773.7227272
 10
1056.2149096
 20
773.9033488
 10
1056.2149096
 20
774.0839703999999
 10
1056.2149096
 20
774.264592
 10
1056.2149096
 20
774.4452136
 10
1056.3955312
 20
774.6258352
 10
1056.3955312
 20
774.8064568000001
 10
1056.3955312
 20
774.9870784000001
 10
1056.5761528
 20
775.1677
 10
1056.7567744
 20
775.3483216000001
 10
1056.7567744
 20
775.7095648
 10
1056.937396
 20
776.070808
 10
1057.1180176
 20
776.2514296
 10
1057.2986392
 20
776.4320512
 10
1057.4792608
 20
776.7932944
 10
1057.6598824
 20
776.973916
 10
1057.840504
 20
777.1545376
 10
1058.0211256
 20
777.5157808
 10
1058.2017472
 20
777.6964024
 10
1058.3823688
 20
777.877024
 10
1058.5629904
 20
778.0576456
 10
1058.9242336
 20
778.2382671999999
 10
1059.1048552
 20
778.4188888
 10
1059.2854768
 20
778.5995104000001
 10
1059.4660984
 20
778.780132
 10
1059.64672
 20
778.9607536
 10
1059.8273416
 20
779.1413752000001
 10
1060.3692064
 20
779.5026184000001
 10
1060.7304496
 20
779.8638616
 10
1061.2723144
 20
780.2251048
 10
1061.6335576
 20
780.586348
 10
1062.1754224
 20
780.9475912
 10
1062.7172872
 20
781.1282128
 10
1063.259152
 20
781.4894559999999
 10
1063.8010168
 20
781.8506992
 10
1064.3428816
 20
782.0313207999999
 10
1064.7041248
 20
782.3925639999999
 10
1065.4266112
 20
782.7538072000001
 10
1065.968476
 20
782.9344288000001
 10
1066.5103408
 20
783.2956720000001
 10
1067.0522056
 20
783.6569152
 10
1067.5940704
 20
783.8375368000001
 10
1068.1359352
 20
784.19878
 10
1068.8584216
 20
784.3794016
 10
1069.4002864
 20
784.7406448
 10
1070.1227728
 20
785.101888
 10
1070.6646376
 20
785.2825096
 10
1071.2065024
 20
785.6437528
 10
1072.4708536
 20
786.1856175999999
 10
1073.9158264
 20
786.7274824
 10
1075.1801776
 20
787.2693472
 10
1076.47996797147
 20
787.8901480226979
 42
-0.8453760476765701
 10
1079.3344744
 20
784.0181584
 10
1077.70888
 20
783.2956720000001
 10
1076.2639072
 20
782.7538072000001
 10
1075.5414208
 20
782.3925639999999
 10
1074.6383128
 20
782.0313207999999
 10
1073.9158264
 20
781.6700776
 10
1073.19334
 20
781.3088344
 10
1072.4708536
 20
780.9475912
 10
1071.7483672
 20
780.586348
 10
1071.0258808
 20
780.2251048
 10
1070.3033944
 20
779.8638616
 10
1069.580908
 20
779.68324
 10
1069.0390432
 20
779.3219968
 10
1068.6778
 20
779.1413752000001
 10
1068.3165568
 20
778.9607536
 10
1067.9553136
 20
778.780132
 10
1067.5940704
 20
778.5995104000001
 10
1067.4134488
 20
778.4188888
 10
1067.0522056
 20
778.2382671999999
 10
1066.6909624
 20
778.0576456
 10
1066.5103408
 20
777.877024
 10
1066.1490976
 20
777.6964024
 10
1065.968476
 20
777.6964024
 10
1065.6072328
 20
777.5157808
 10
1065.4266112
 20
777.3351592
 10
1065.065368
 20
777.1545376
 10
1064.8847464
 20
776.973916
 10
1064.5235032
 20
776.7932944
 10
1064.3428816
 20
776.6126728
 10
1063.9816384
 20
776.4320512
 10
1063.8010168
 20
776.2514296
 10
1063.6203952
 20
776.070808
 10
1063.4397736
 20
775.8901864000001
 10
1063.259152
 20
775.8901864000001
 10
1062.8979088
 20
775.7095648
 10
1062.7172872
 20
775.5289432
 10
1062.5366656
 20
775.3483216000001
 10
1062.356044
 20
775.1677
 10
1062.1754224
 20
774.9870784000001
 10
1061.9948008
 20
774.8064568000001
 10
1061.8141792
 20
774.6258352
 10
1061.8141792
 20
774.4452136
 10
1061.6335576
 20
774.4452136
 10
1061.452936
 20
774.264592
 10
1061.2723144
 20
774.0839703999999
 10
1061.2723144
 20
773.9033488
 10
1061.0916928
 20
773.7227272
 10
1061.0916928
 20
773.5421056
 10
1060.9110712
 20
773.361484
 10
1060.7304496
 20
773.1808624
 10
1060.7304496
 20
773.0002408
 10
1060.7304496
 20
772.8196192
 10
1060.7304496
 20
772.6389976
 10
1060.7304496
 20
772.458376
 10
1060.549828
 20
772.2777544
 10
1060.549828
 20
772.0971328
 10
1060.7304496
 20
771.9165112
 10
1060.7304496
 20
771.7358896000001
 10
1060.7304496
 20
771.555268
 10
1060.7304496
 20
771.3746464
 10
1060.9110712
 20
771.3746464
 10
1060.9110712
 20
771.1940248000001
 10
1060.9110712
 20
771.0134032
 10
1061.0916928
 20
770.8327816000001
 10
1061.2723144
 20
770.6521600000001
 10
1061.452936
 20
770.4715384
 10
1061.6335576
 20
770.2909167999999
 10
1061.8141792
 20
770.1102952
 10
1061.9948008
 20
769.9296735999999
 10
1062.1754224
 20
769.9296735999999
 10
1062.356044
 20
769.749052
 10
1062.5366656
 20
769.5684304
 10
1062.7172872
 20
769.3878087999999
 10
1062.8979088
 20
769.2071872
 10
1063.0785304
 20
769.2071872
 10
1063.4397736
 20
769.0265656
 10
1063.6203952
 20
768.845944
 10
1063.8010168
 20
768.6653224
 10
1064.16226
 20
768.6653224
 10
1064.3428816
 20
768.4847008
 10
1064.7041248
 20
768.3040792
 10
1064.8847464
 20
768.1234576
 10
1065.2459896
 20
768.1234576
 10
1065.4266112
 20
767.9428360000001
 10
1065.968476
 20
767.5815928
 10
1066.6909624
 20
767.4009712000001
 10
1067.2328272
 20
767.0397280000001
 10
1068.3165568
 20
766.6784848
 10
1069.0390432
 20
766.3172416
 10
1069.580908
 20
766.1366199999999
 10
1070.1227728
 20
765.7753768
 10
1070.6646376
 20
765.5947552
 10
1070.8452592
 20
765.4141336
 10
1071.2065024
 20
765.4141336
 10
1071.387124
 20
765.233512
 10
1071.7483672
 20
765.0528904
 10
1071.9289888
 20
765.0528904
 10
1072.290232
 20
764.8722688
 10
1072.4708536
 20
764.6916472
 10
1072.6514752
 20
764.6916472
 10
1072.8320968
 20
764.5110256
 10
1073.19334
 20
764.330404
 10
1073.3739616
 20
764.330404
 10
1073.5545832
 20
764.1497824
 10
1073.7352048
 20
764.1497824
 10
1073.9158264
 20
763.9691608
 10
1074.096448
 20
763.7885392000001
 10
1074.2770696
 20
763.7885392000001
 10
1074.2770696
 20
763.6079176
 10
1074.4576912
 20
763.427296
 10
1074.6383128
 20
763.427296
 10
1074.6383128
 20
763.2466744000001
 10
1074.8189344
 20
763.2466744000001
 10
1074.8189344
 20
763.0660528
 10
1074.999556
 20
762.8854312000001
 10
1074.999556
 20
762.7048096000001
 10
1075.1801776
 20
762.7048096000001
 10
1075.1801776
 20
762.524188
 10
1075.1801776
 20
762.3435663999999
 10
1075.1801776
 20
762.1629448
 10
1075.1801776
 20
761.9823231999999
 10
1075.1801776
 20
761.8017016
 10
1074.999556
 20
761.62108
 10
1074.999556
 20
761.4404583999999
 10
1074.8189344
 20
761.2598368
 10
1074.6383128
 20
761.0792152
 10
1074.4576912
 20
760.8985936
 10
1074.2770696
 20
760.8985936
 10
1074.2770696
 20
760.717972
 10
1074.096448
 20
760.717972
 10
1073.9158264
 20
760.5373504
 10
1073.7352048
 20
760.5373504
 10
1073.5545832
 20
760.3567288
 10
1073.3739616
 20
760.3567288
 10
1073.19334
 20
760.1761072
 10
1073.0127184
 20
760.1761072
 10
1072.8320968
 20
759.9954856
 10
1072.6514752
 20
759.9954856
 10
1072.4708536
 20
759.814864
 10
1072.290232
 20
759.814864
 10
1072.1096104
 20
759.814864
 10
1071.9289888
 20
759.6342424
 10
1071.5677456
 20
759.6342424
 10
1071.387124
 20
759.4536208
 10
1071.2065024
 20
759.4536208
 10
1070.8452592
 20
759.2729992
 10
1070.6646376
 20
759.2729992
 10
1070.3033944
 20
759.0923776000001
 10
1070.1227728
 20
759.0923776000001
 10
1069.7615296
 20
759.0923776000001
 10
1069.580908
 20
758.911756
 10
1069.2196648
 20
758.911756
 10
1069.0390432
 20
758.7311344
 10
1068.6778
 20
758.7311344
 10
1068.3165568
 20
758.7311344
 10
1068.1359352
 20
758.5505128000001
 10
1067.774692
 20
758.5505128000001
 10
1067.4134488
 20
758.3698912
 10
1067.0522056
 20
758.3698912
 10
1066.871584
 20
758.3698912
 10
1066.5103408
 20
758.1892695999999
 10
1066.1490976
 20
758.1892695999999
 10
1065.7878544
 20
758.1892695999999
 10
1065.4266112
 20
758.008648
 10
1064.7041248
 20
757.8280263999999
 10
1063.9816384
 20
757.8280263999999
 10
1063.259152
 20
757.6474048
 10
1062.5366656
 20
757.4667832
 10
1061.8141792
 20
757.4667832
 10
1061.0916928
 20
757.2861615999999
 10
1060.1885848
 20
757.2861615999999
 10
1059.4660984
 20
757.10554
 10
1058.743612
 20
757.10554
 10
1057.840504
 20
756.9249184
 10
1057.1180176
 20
756.7442968
 10
1056.2149096
 20
756.7442968
 10
1055.3118016
 20
756.7442968
 10
1054.5893152
 20
756.5636752
 10
1053.6862072
 20
756.5636752
 10
1052.9637208
 20
756.3830536
 10
1051.1575048
 20
756.202432
 10
1049.5319104
 20
756.202432
 10
1048.6288024
 20
756.202432
 10
1047.906316
 20
756.0218104
 10
1047.003208
 20
756.0218104
 10
1046.1001
 20
756.0218104
 10
1045.3776136
 20
756.0218104
 10
1044.4745056
 20
755.8411888000001
 10
1043.7520192
 20
755.8411888000001
 10
1042.8489112
 20
755.8411888000001
  0
LWPOLYLINE
  5
5BF
330
1F
100
AcDbEntity
  8
PDF _0
370
    25
100
AcDbPolyline
 90
        2
 70
     0
 43
0.0
 10
1060.549828
 20
779.68324
 10
1055.6730448
 20
780.0444832000001
  0
LWPOLYLINE
  5
5C1
330
1F
100
AcDbEntity
  8
PDF _0
370
    25
100
AcDbPolyline
 90
       28
 70
     0
 43
0.0
 10
1199.2672168
 20
818.3362624
 10
1195.8354064
 20
817.7943975999999
 10
1194.209812
 20
817.4331544000001
 10
1192.403596
 20
817.2525328
 10
1191.500488
 20
817.0719112
 10
1190.59738
 20
816.8912896
 10
1189.8748936
 20
816.7106679999999
 10
1188.9717856
 20
816.7106679999999
 10
1188.0686776
 20
816.5300464000001
 10
1187.1655696
 20
816.3494248000001
 10
1186.2624616
 20
816.3494248000001
 10
1185.3593536
 20
816.1688032
 10
1184.275624
 20
815.9881816
 10
1183.372516
 20
815.80756
 10
1182.469408
 20
815.80756
 10
1181.5663
 20
815.6269384000001
 10
1180.4825704
 20
815.4463168000001
 10
1179.5794624
 20
815.4463168000001
 10
1178.6763544
 20
815.2656952
 10
1177.5926248
 20
815.0850736
 10
1176.6895168
 20
814.904452
 10
1175.6057872
 20
814.7238304
 10
1174.7026792
 20
814.5432087999999
 10
1173.6189496
 20
814.3625871999999
 10
1172.7158416
 20
814.1819656
 10
1171.632112
 20
814.001344
 10
1170.729004
 20
813.8207224
 10
1169.6452744
 20
813.6401007999999
  0
LWPOLYLINE
  5
5C2
330
1F
100
AcDbEntity
  8
PDF _0
370
    25
100
AcDbPolyline
 90
       30
 70
     0
 43
0.0
 10
1199.9897032
 20
813.6401007999999
 10
1198.1834872
 20
813.2788576000001
 10
1196.3772712
 20
813.098236
 10
1194.3904336
 20
812.7369928
 10
1193.4873256
 20
812.5563711999999
 10
1192.5842176
 20
812.3757496000001
 10
1191.500488
 20
812.1951280000001
 10
1190.59738
 20
812.1951280000001
 10
1189.694272
 20
812.0145064
 10
1188.6105424
 20
811.8338848
 10
1187.7074344
 20
811.6532632
 10
1186.6237048
 20
811.4726416000001
 10
1185.5399752
 20
811.4726416000001
 10
1184.6368672
 20
811.2920200000001
 10
1183.5531376
 20
811.1113984000001
 10
1182.469408
 20
810.9307768
 10
1181.3856784
 20
810.9307768
 10
1180.4825704
 20
810.7501552
 10
1179.3988408
 20
810.5695336
 10
1178.3151112
 20
810.3889119999999
 10
1177.2313816
 20
810.2082903999999
 10
1176.147652
 20
810.0276688000001
 10
1175.244544
 20
809.8470472
 10
1174.1608144
 20
809.6664256
 10
1173.0770848
 20
809.485804
 10
1171.9933552
 20
809.3051823999999
 10
1171.0902472
 20
809.1245608000001
 10
1170.0065176
 20
808.9439392
 10
1168.922788
 20
808.582696
 10
1168.01968
 20
808.4020744
  0
LWPOLYLINE
  5
5C3
330
1F
100
AcDbEntity
  8
PDF _0
370
    25
100
AcDbPolyline
 90
       94
 70
     0
 43
0.0
 10
1158.2661136
 20
819.9618568000001
 10
1158.9886
 20
819.6006136000001
 10
1159.5304648
 20
819.419992
 10
1159.891708
 20
819.2393704
 10
1160.2529512
 20
819.0587488000002
 10
1160.6141944
 20
818.8781271999999
 10
1160.9754376
 20
818.6975055999999
 10
1161.3366808
 20
818.3362624
 10
1161.5173024
 20
818.3362624
 10
1161.697924
 20
818.1556408
 10
1161.8785456
 20
818.1556408
 10
1162.0591672
 20
817.9750192
 10
1162.2397888
 20
817.7943975999999
 10
1162.4204104
 20
817.7943975999999
 10
1162.601032
 20
817.6137759999999
 10
1162.601032
 20
817.4331544000001
 10
1162.7816536
 20
817.4331544000001
 10
1162.9622752
 20
817.2525328
 10
1163.1428968
 20
817.0719112
 10
1163.1428968
 20
816.8912896
 10
1163.3235184
 20
816.8912896
 10
1163.50414
 20
816.7106679999999
 10
1163.50414
 20
816.5300464000001
 10
1163.6847616
 20
816.3494248000001
 10
1163.6847616
 20
816.1688032
 10
1163.8653832
 20
815.9881816
 10
1163.8653832
 20
815.80756
 10
1164.0460048
 20
815.6269384000001
 10
1164.0460048
 20
815.4463168000001
 10
1164.0460048
 20
815.2656952
 10
1164.0460048
 20
815.0850736
 10
1164.0460048
 20
814.904452
 10
1164.0460048
 20
814.7238304
 10
1164.0460048
 20
814.5432087999999
 10
1164.0460048
 20
814.3625871999999
 10
1164.0460048
 20
814.1819656
 10
1164.0460048
 20
814.001344
 10
1164.0460048
 20
813.8207224
 10
1164.0460048
 20
813.6401007999999
 10
1164.0460048
 20
813.4594791999999
 10
1164.0460048
 20
813.2788576000001
 10
1163.8653832
 20
813.098236
 10
1163.8653832
 20
812.9176144
 10
1163.8653832
 20
812.5563711999999
 10
1163.6847616
 20
812.0145064
 10
1163.50414
 20
811.6532632
 10
1163.3235184
 20
811.2920200000001
 10
1163.1428968
 20
810.3889119999999
 10
1162.7816536
 20
809.485804
 10
1162.601032
 20
809.1245608000001
 10
1162.601032
 20
808.7633176
 10
1162.4204104
 20
808.4020744
 10
1162.2397888
 20
807.8602096
 10
1162.2397888
 20
807.4989664
 10
1162.0591672
 20
807.3183448000001
 10
1162.0591672
 20
807.1377232000001
 10
1162.0591672
 20
806.9571016000001
 10
1162.0591672
 20
806.77648
 10
1162.0591672
 20
806.5958584
 10
1161.8785456
 20
806.4152368
 10
1161.8785456
 20
806.2346151999999
 10
1161.8785456
 20
806.0539935999999
 10
1161.8785456
 20
805.8733720000001
 10
1161.8785456
 20
805.6927504
 10
1161.8785456
 20
805.5121288
 10
1162.0591672
 20
805.3315072
 10
1162.0591672
 20
805.1508855999999
 10
1162.0591672
 20
804.9702640000001
 10
1162.0591672
 20
804.7896424000001
 10
1162.2397888
 20
804.6090208
 10
1162.2397888
 20
804.4283992
 10
1162.4204104
 20
804.2477776
 10
1162.4204104
 20
804.0671560000001
 10
1162.601032
 20
804.0671560000001
 10
1162.601032
 20
803.8865344000001
 10
1162.7816536
 20
803.7059128
 10
1162.9622752
 20
803.5252912
 10
1163.1428968
 20
803.3446696
 10
1163.3235184
 20
803.3446696
 10
1163.3235184
 20
803.1640480000001
 10
1163.50414
 20
803.1640480000001
 10
1163.6847616
 20
802.9834264000001
 10
1163.8653832
 20
802.8028047999999
 10
1164.0460048
 20
802.8028047999999
 10
1164.2266264
 20
802.6221832
 10
1164.407248
 20
802.6221832
 10
1164.5878696
 20
802.4415616
 10
1164.7684912
 20
802.4415616
 10
1165.1297344
 20
802.26094
 10
1165.6715992
 20
802.0803184
 10
1166.0328424
 20
801.8996967999999
 10
1166.3940856
 20
801.7190752000001
 10
1166.9359504
 20
801.5384536
 10
1167.6584368
 20
801.357832
  0
LWPOLYLINE
  5
5C4
330
1F
100
AcDbEntity
  8
PDF _0
370
    25
100
AcDbPolyline
 90
      192
 70
     0
 43
0.0
 10
1163.8653832
 20
813.098236
 10
1162.4204104
 20
812.9176144
 10
1160.9754376
 20
812.7369928
 10
1160.2529512
 20
812.5563711999999
 10
1159.5304648
 20
812.5563711999999
 10
1158.8079784
 20
812.3757496000001
 10
1158.085492
 20
812.3757496000001
 10
1157.3630056
 20
812.1951280000001
 10
1156.6405192
 20
812.0145064
 10
1155.9180328
 20
812.0145064
 10
1155.1955464
 20
811.8338848
 10
1154.47306
 20
811.6532632
 10
1153.9311952
 20
811.6532632
 10
1153.2087088
 20
811.4726416000001
 10
1152.4862224
 20
811.2920200000001
 10
1151.9443576
 20
811.1113984000001
 10
1151.2218712
 20
810.9307768
 10
1150.6800064
 20
810.7501552
 10
1149.95752
 20
810.5695336
 10
1149.4156552
 20
810.3889119999999
 10
1149.054412
 20
810.3889119999999
 10
1148.8737904
 20
810.2082903999999
 10
1148.5125472
 20
810.2082903999999
 10
1148.151304
 20
810.0276688000001
 10
1147.9706824
 20
810.0276688000001
 10
1147.6094392
 20
809.8470472
 10
1147.4288176
 20
809.6664256
 10
1147.0675744
 20
809.6664256
 10
1146.8869528
 20
809.485804
 10
1146.5257096
 20
809.3051823999999
 10
1146.345088
 20
809.1245608000001
 10
1145.9838448
 20
809.1245608000001
 10
1145.8032232
 20
808.9439392
 10
1145.6226016
 20
808.7633176
 10
1145.2613584
 20
808.582696
 10
1145.0807368
 20
808.582696
 10
1144.9001152
 20
808.4020744
 10
1144.538872
 20
808.2214528000001
 10
1144.3582504
 20
808.0408312000001
 10
1144.1776288
 20
807.8602096
 10
1143.9970072
 20
807.679588
 10
1143.8163856
 20
807.4989664
 10
1143.4551424
 20
807.3183448000001
 10
1143.2745208
 20
807.1377232000001
 10
1143.0938992
 20
806.9571016000001
 10
1142.9132776
 20
806.77648
 10
1142.732656
 20
806.5958584
 10
1142.5520344
 20
806.4152368
 10
1142.3714128
 20
806.2346151999999
 10
1142.1907912
 20
806.0539935999999
 10
1142.0101696
 20
805.8733720000001
 10
1141.829548
 20
805.6927504
 10
1141.829548
 20
805.3315072
 10
1141.6489264
 20
805.1508855999999
 10
1141.4683048
 20
804.9702640000001
 10
1141.2876832
 20
804.7896424000001
 10
1141.2876832
 20
804.4283992
 10
1141.1070616
 20
804.2477776
 10
1140.92644
 20
804.0671560000001
 10
1140.92644
 20
803.7059128
 10
1140.7458184
 20
803.5252912
 10
1140.7458184
 20
803.1640480000001
 10
1140.5651968
 20
802.9834264000001
 10
1140.5651968
 20
802.6221832
 10
1140.3845752
 20
802.4415616
 10
1140.3845752
 20
802.0803184
 10
1140.2039536
 20
801.8996967999999
 10
1140.2039536
 20
801.5384536
 10
1140.2039536
 20
801.1772104
 10
1140.023332
 20
800.9965887999999
 10
1140.023332
 20
800.6353456000001
 10
1140.023332
 20
800.2741024
 10
1140.023332
 20
799.9128592
 10
1140.023332
 20
799.7322376
 10
1140.023332
 20
799.3709944
 10
1139.8427104
 20
799.0097512000001
 10
1139.8427104
 20
798.648508
 10
1139.8427104
 20
798.2872647999999
 10
1139.8427104
 20
798.1066432
 10
1139.8427104
 20
797.7454
 10
1139.8427104
 20
797.0229136
 10
1139.8427104
 20
796.3004272
 10
1139.8427104
 20
795.5779408
 10
1140.023332
 20
794.8554544000001
 10
1140.023332
 20
794.1329679999999
 10
1140.023332
 20
792.8686168
 10
1140.2039536
 20
792.1461304000001
 10
1140.2039536
 20
791.423644
 10
1140.2039536
 20
790.7011576000001
 10
1140.2039536
 20
790.1592928
 10
1140.2039536
 20
789.4368064
 10
1140.3845752
 20
789.0755632
 10
1140.3845752
 20
788.71432
 10
1140.3845752
 20
788.5336984
 10
1140.3845752
 20
788.1724552
 10
1140.3845752
 20
787.811212
 10
1140.3845752
 20
787.6305904
 10
1140.3845752
 20
787.2693472
 10
1140.3845752
 20
786.9081040000001
 10
1140.3845752
 20
786.7274824
 10
1140.2039536
 20
786.3662392
 10
1140.2039536
 20
786.1856175999999
 10
1140.2039536
 20
785.8243744
 10
1140.2039536
 20
785.6437528
 10
1140.2039536
 20
785.2825096
 10
1140.2039536
 20
785.101888
 10
1140.023332
 20
784.7406448
 10
1140.023332
 20
784.5600232
 10
1140.023332
 20
784.3794016
 10
1139.8427104
 20
784.19878
 10
1139.8427104
 20
783.8375368000001
 10
1139.8427104
 20
783.6569152
 10
1139.6620888
 20
783.4762936
 10
1139.6620888
 20
783.2956720000001
 10
1139.4814672
 20
783.1150504
 10
1139.4814672
 20
782.9344288000001
 10
1139.3008456
 20
782.7538072000001
 10
1139.3008456
 20
782.5731855999999
 10
1139.120224
 20
782.3925639999999
 10
1138.9396024
 20
782.2119424
 10
1138.7589808
 20
782.0313207999999
 10
1138.5783592
 20
781.8506992
 10
1138.3977376
 20
781.6700776
 10
1138.217116
 20
781.6700776
 10
1138.217116
 20
781.4894559999999
 10
1138.0364944
 20
781.4894559999999
 10
1137.8558728
 20
781.3088344
 10
1137.6752512
 20
781.1282128
 10
1137.4946296
 20
781.1282128
 10
1137.314008
 20
781.1282128
 10
1137.1333864
 20
780.9475912
 10
1136.9527648
 20
780.9475912
 10
1136.7721432
 20
780.7669696
 10
1136.5915216
 20
780.7669696
 10
1136.4109
 20
780.7669696
 10
1136.0496568
 20
780.586348
 10
1135.8690352
 20
780.586348
 10
1135.6884136
 20
780.586348
 10
1135.507792
 20
780.586348
 10
1135.3271704
 20
780.586348
 10
1134.9659272
 20
780.4057264
 10
1134.7853056
 20
780.4057264
 10
1134.604684
 20
780.4057264
 10
1134.2434408
 20
780.4057264
 10
1134.0628192
 20
780.4057264
 10
1133.8821976
 20
780.4057264
 10
1133.5209544
 20
780.4057264
 10
1133.3403328
 20
780.4057264
 10
1132.9790896
 20
780.4057264
 10
1132.798468
 20
780.4057264
 10
1132.4372248
 20
780.4057264
 10
1132.2566032
 20
780.4057264
 10
1131.89536
 20
780.586348
 10
1131.7147384
 20
780.586348
 10
1131.3534952
 20
780.586348
 10
1130.992252
 20
780.586348
 10
1130.8116304
 20
780.586348
 10
1130.4503872
 20
780.586348
 10
1130.089144
 20
780.7669696
 10
1129.9085224
 20
780.7669696
 10
1129.5472792
 20
780.7669696
 10
1129.186036
 20
780.9475912
 10
1129.0054144
 20
780.9475912
 10
1128.6441712
 20
780.9475912
 10
1127.9216848
 20
781.1282128
 10
1127.37982
 20
781.3088344
 10
1126.6573336
 20
781.3088344
 10
1125.9348472
 20
781.4894559999999
 10
1125.2123608
 20
781.6700776
 10
1124.4898744
 20
781.8506992
 10
1123.767388
 20
782.0313207999999
 10
1123.0449016
 20
782.2119424
 10
1122.3224152
 20
782.3925639999999
 10
1121.5999288
 20
782.5731855999999
 10
1120.8774424
 20
782.7538072000001
 10
1120.154956
 20
782.9344288000001
 10
1119.4324696
 20
783.1150504
 10
1118.5293616
 20
783.4762936
 10
1117.8068752
 20
783.6569152
 10
1117.0843888
 20
783.8375368000001
 10
1116.1812808
 20
784.0181584
 10
1115.4587944
 20
784.19878
 10
1114.5556864
 20
784.3794016
 10
1113.8332
 20
784.5600232
 10
1112.930092
 20
784.7406448
 10
1112.2076056
 20
784.9212664
 10
1111.3044976
 20
785.101888
 10
1110.5820112
 20
785.2825096
 10
1109.6789032
 20
785.4631312
 10
1108.9564168
 20
785.6437528
 10
1108.0533088
 20
785.8243744
 10
1107.1502008
 20
786.004996
  0
LWPOLYLINE
  5
5C5
330
1F
100
AcDbEntity
  8
PDF _0
370
    25
100
AcDbPolyline
 90
      185
 70
     0
 43
0.0
 10
1162.4204104
 20
808.2214528000001
 10
1161.697924
 20
808.0408312000001
 10
1160.9754376
 20
808.0408312000001
 10
1160.2529512
 20
807.8602096
 10
1159.5304648
 20
807.679588
 10
1158.8079784
 20
807.679588
 10
1158.2661136
 20
807.4989664
 10
1157.5436272
 20
807.4989664
 10
1156.8211408
 20
807.3183448000001
 10
1156.279276
 20
807.3183448000001
 10
1155.5567896
 20
807.1377232000001
 10
1155.0149248
 20
806.9571016000001
 10
1154.47306
 20
806.9571016000001
 10
1153.7505736
 20
806.77648
 10
1153.2087088
 20
806.5958584
 10
1153.0280872
 20
806.5958584
 10
1152.666844
 20
806.5958584
 10
1152.4862224
 20
806.4152368
 10
1152.1249792
 20
806.4152368
 10
1151.9443576
 20
806.2346151999999
 10
1151.5831144
 20
806.2346151999999
 10
1151.4024928
 20
806.0539935999999
 10
1151.2218712
 20
806.0539935999999
 10
1150.860628
 20
806.0539935999999
 10
1150.6800064
 20
805.8733720000001
 10
1150.4993848
 20
805.8733720000001
 10
1150.1381416
 20
805.6927504
 10
1149.95752
 20
805.6927504
 10
1149.7768984
 20
805.5121288
 10
1149.5962768
 20
805.5121288
 10
1149.2350336
 20
805.3315072
 10
1149.054412
 20
805.3315072
 10
1148.8737904
 20
805.1508855999999
 10
1148.6931688
 20
805.1508855999999
 10
1148.5125472
 20
804.9702640000001
 10
1148.3319256
 20
804.9702640000001
 10
1148.151304
 20
804.7896424000001
 10
1147.9706824
 20
804.7896424000001
 10
1147.7900608
 20
804.6090208
 10
1147.6094392
 20
804.6090208
 10
1147.6094392
 20
804.4283992
 10
1147.4288176
 20
804.4283992
 10
1147.248196
 20
804.2477776
 10
1147.0675744
 20
804.2477776
 10
1146.8869528
 20
804.0671560000001
 10
1146.7063312
 20
803.8865344000001
 10
1146.5257096
 20
803.8865344000001
 10
1146.5257096
 20
803.7059128
 10
1146.345088
 20
803.5252912
 10
1146.1644664
 20
803.3446696
 10
1145.9838448
 20
803.1640480000001
 10
1145.8032232
 20
802.8028047999999
 10
1145.6226016
 20
802.6221832
 10
1145.44198
 20
802.4415616
 10
1145.2613584
 20
802.26094
 10
1145.2613584
 20
802.0803184
 10
1145.2613584
 20
801.8996967999999
 10
1145.0807368
 20
801.8996967999999
 10
1145.0807368
 20
801.7190752000001
 10
1145.0807368
 20
801.5384536
 10
1145.0807368
 20
801.357832
 10
1144.9001152
 20
801.357832
 10
1144.9001152
 20
801.1772104
 10
1144.9001152
 20
800.9965887999999
 10
1144.9001152
 20
800.8159672000001
 10
1144.9001152
 20
800.6353456000001
 10
1144.7194936
 20
800.454724
 10
1144.7194936
 20
800.0934808
 10
1144.7194936
 20
799.9128592
 10
1144.7194936
 20
799.7322376
 10
1144.7194936
 20
799.5516160000001
 10
1144.7194936
 20
799.1903728000001
 10
1144.7194936
 20
799.0097512000001
 10
1144.7194936
 20
798.8291296
 10
1144.538872
 20
798.4678864
 10
1144.538872
 20
798.2872647999999
 10
1144.538872
 20
797.9260216
 10
1144.538872
 20
797.5647784
 10
1144.538872
 20
797.3841568
 10
1144.538872
 20
797.0229136
 10
1144.538872
 20
796.842292
 10
1144.538872
 20
796.4810488
 10
1144.7194936
 20
796.1198056
 10
1144.7194936
 20
795.5779408
 10
1144.7194936
 20
794.8554544000001
 10
1144.7194936
 20
794.3135896
 10
1144.7194936
 20
793.5911032
 10
1144.9001152
 20
792.8686168
 10
1144.9001152
 20
792.326752
 10
1144.9001152
 20
791.6042656000001
 10
1144.9001152
 20
790.8817792000001
 10
1144.9001152
 20
790.1592928
 10
1145.0807368
 20
789.4368064
 10
1145.0807368
 20
788.8949416
 10
1145.0807368
 20
788.1724552
 10
1145.0807368
 20
787.4499688000001
 10
1145.0807368
 20
787.0887256000001
 10
1145.0807368
 20
786.7274824
 10
1145.0807368
 20
786.3662392
 10
1145.0807368
 20
786.004996
 10
1144.9001152
 20
785.6437528
 10
1144.9001152
 20
785.2825096
 10
1144.9001152
 20
785.101888
 10
1144.9001152
 20
784.7406448
 10
1144.7194936
 20
784.3794016
 10
1144.7194936
 20
784.0181584
 10
1144.7194936
 20
783.6569152
 10
1144.538872
 20
783.2956720000001
 10
1144.538872
 20
782.9344288000001
 10
1144.3582504
 20
782.5731855999999
 10
1144.1776288
 20
782.2119424
 10
1144.1776288
 20
781.8506992
 10
1143.9970072
 20
781.4894559999999
 10
1143.8163856
 20
781.1282128
 10
1143.635764
 20
780.7669696
 10
1143.4551424
 20
780.4057264
 10
1143.2745208
 20
780.0444832000001
 10
1142.9132776
 20
779.68324
 10
1142.732656
 20
779.5026184000001
 10
1142.5520344
 20
779.1413752000001
 10
1142.3714128
 20
778.9607536
 10
1142.1907912
 20
778.780132
 10
1142.0101696
 20
778.780132
 10
1142.0101696
 20
778.5995104000001
 10
1141.6489264
 20
778.2382671999999
 10
1141.4683048
 20
778.0576456
 10
1141.1070616
 20
777.877024
 10
1140.7458184
 20
777.5157808
 10
1140.3845752
 20
777.3351592
 10
1140.2039536
 20
777.1545376
 10
1139.8427104
 20
776.973916
 10
1139.4814672
 20
776.7932944
 10
1139.120224
 20
776.7932944
 10
1138.7589808
 20
776.6126728
 10
1138.5783592
 20
776.4320512
 10
1138.217116
 20
776.2514296
 10
1137.8558728
 20
776.2514296
 10
1137.4946296
 20
776.070808
 10
1137.1333864
 20
776.070808
 10
1136.9527648
 20
776.070808
 10
1136.5915216
 20
775.8901864000001
 10
1136.2302784
 20
775.8901864000001
 10
1135.8690352
 20
775.8901864000001
 10
1135.507792
 20
775.7095648
 10
1135.1465488
 20
775.7095648
 10
1134.9659272
 20
775.7095648
 10
1134.604684
 20
775.7095648
 10
1134.2434408
 20
775.7095648
 10
1133.8821976
 20
775.7095648
 10
1133.5209544
 20
775.7095648
 10
1133.3403328
 20
775.7095648
 10
1132.9790896
 20
775.7095648
 10
1132.6178464
 20
775.7095648
 10
1132.2566032
 20
775.7095648
 10
1131.7147384
 20
775.7095648
 10
1130.992252
 20
775.8901864000001
 10
1130.2697656
 20
775.8901864000001
 10
1129.7279008
 20
776.070808
 10
1129.0054144
 20
776.070808
 10
1128.282928
 20
776.2514296
 10
1127.7410632
 20
776.4320512
 10
1127.0185768
 20
776.4320512
 10
1126.2960904
 20
776.6126728
 10
1125.573604
 20
776.7932944
 10
1124.8511176
 20
776.973916
 10
1124.3092528
 20
777.1545376
 10
1123.5867664
 20
777.3351592
 10
1122.86428
 20
777.5157808
 10
1122.1417936
 20
777.6964024
 10
1121.4193072
 20
777.877024
 10
1120.6968208
 20
778.0576456
 10
1119.9743344
 20
778.2382671999999
 10
1119.0712264
 20
778.4188888
 10
1117.6262536
 20
778.780132
 10
1116.1812808
 20
779.1413752000001
 10
1114.736308
 20
779.5026184000001
 10
1113.1107136
 20
779.8638616
 10
1112.3882272
 20
780.0444832000001
 10
1111.6657408
 20
780.2251048
 10
1110.7626328
 20
780.4057264
 10
1110.0401464
 20
780.586348
 10
1109.31766
 20
780.7669696
 10
1108.5951736
 20
780.9475912
 10
1107.6920656
 20
781.1282128
 10
1106.9695792
 20
781.3088344
  0
LWPOLYLINE
  5
5C6
330
1F
100
AcDbEntity
  8
PDF _0
370
    25
100
AcDbPolyline
 90
       95
 70
     0
 43
0.0
 10
903.5896576
 20
763.0660528
 10
907.924576
 20
763.7885392000001
 10
909.9114136
 20
764.330404
 10
912.0788728
 20
764.6916472
 10
914.246332
 20
765.0528904
 10
916.2331696
 20
765.4141336
 10
918.4006288
 20
765.7753768
 10
920.3874664
 20
766.1366199999999
 10
922.5549256
 20
766.4978632000001
 10
924.7223848
 20
766.8591064000001
 10
926.889844
 20
767.2203496
 10
927.792952
 20
767.4009712000001
 10
928.8766816
 20
767.5815928
 10
929.9604112
 20
767.7622144
 10
931.0441408
 20
767.7622144
 10
932.1278704
 20
767.9428360000001
 10
933.2116
 20
768.1234576
 10
934.2953296000001
 20
768.3040792
 10
935.1984376
 20
768.3040792
 10
936.2821672
 20
768.4847008
 10
937.3658968
 20
768.6653224
 10
938.4496264
 20
768.6653224
 10
939.533356
 20
768.845944
 10
940.6170856000001
 20
768.845944
 10
941.7008152000001
 20
769.0265656
 10
942.7845448000001
 20
769.0265656
 10
943.6876528
 20
769.2071872
 10
944.7713824
 20
769.2071872
 10
945.855112
 20
769.2071872
 10
946.9388416000001
 20
769.3878087999999
 10
948.0225712000001
 20
769.3878087999999
 10
949.1063008000001
 20
769.3878087999999
 10
950.1900304000001
 20
769.3878087999999
 10
951.2737600000001
 20
769.3878087999999
 10
952.3574896000001
 20
769.3878087999999
 10
953.2605976000001
 20
769.5684304
 10
954.3443272000001
 20
769.5684304
 10
955.4280568000001
 20
769.3878087999999
 10
956.5117864000001
 20
769.3878087999999
 10
957.5955160000001
 20
769.3878087999999
 10
958.6792456000001
 20
769.3878087999999
 10
959.7629752000001
 20
769.3878087999999
 10
960.8467048000001
 20
769.2071872
 10
961.9304344000001
 20
769.2071872
 10
963.0141640000001
 20
769.2071872
 10
964.0978936000001
 20
769.0265656
 10
965.0010016000001
 20
769.0265656
 10
966.0847312000001
 20
768.845944
 10
967.1684608000001
 20
768.845944
 10
968.2521904000001
 20
768.6653224
 10
969.3359200000001
 20
768.6653224
 10
970.4196496000001
 20
768.4847008
 10
971.5033791999999
 20
768.3040792
 10
972.4064872000001
 20
768.1234576
 10
973.4902168000001
 20
768.1234576
 10
974.5739464000001
 20
767.9428360000001
 10
975.6576759999999
 20
767.7622144
 10
977.8251352000001
 20
767.5815928
 10
979.8119728000001
 20
767.2203496
 10
981.9794320000001
 20
766.8591064000001
 10
983.9662696000001
 20
766.4978632000001
 10
986.1337288000001
 20
766.1366199999999
 10
988.3011880000001
 20
765.7753768
 10
992.4554848000001
 20
765.233512
 10
994.4423224000001
 20
764.8722688
 10
996.6097816000001
 20
764.5110256
 10
998.5966192000001
 20
764.1497824
 10
1000.7640784
 20
763.7885392000001
 10
1002.750916
 20
763.427296
 10
1004.9183752
 20
763.2466744000001
 10
1006.9052128
 20
762.8854312000001
 10
1007.9889424
 20
762.7048096000001
 10
1009.072672
 20
762.524188
 10
1009.97578
 20
762.524188
 10
1011.0595096
 20
762.3435663999999
 10
1012.1432392
 20
762.1629448
 10
1013.2269688
 20
762.1629448
 10
1014.1300768
 20
761.9823231999999
 10
1015.2138064
 20
761.8017016
 10
1016.297536
 20
761.8017016
 10
1017.200644
 20
761.62108
 10
1018.2843736
 20
761.62108
 10
1019.3681032
 20
761.4404583999999
 10
1020.4518328
 20
761.4404583999999
 10
1021.3549408
 20
761.4404583999999
 10
1022.4386704
 20
761.2598368
 10
1023.5224
 20
761.2598368
 10
1024.6061296
 20
761.2598368
 10
1025.5092376
 20
761.0792152
 10
1027.6766968
 20
761.0792152
 10
1029.6635344
 20
761.0792152
 10
1031.8309936
 20
760.8985936
 10
1033.9984528
 20
760.8985936
 10
1035.9852904
 20
760.8985936
 10
1038.1527496
 20
760.717972
  0
LWPOLYLINE
  5
5C7
330
1F
100
AcDbEntity
  8
PDF _PV-9585
370
    25
100
AcDbPolyline
 90
        2
 70
     0
 43
0.0
 10
884.6243896
 20
1713.3162904
 10
884.6243896
 20
1699.2278056
  0
LWPOLYLINE
  5
5C8
330
1F
100
AcDbEntity
  8
PDF _PV-9585
370
    25
100
AcDbPolyline
 90
        4
 70
     0
 43
0.0
 10
884.6243896
 20
1723.2504784
 10
874.6902015999999
 20
1723.2504784
 10
874.6902015999999
 20
1709.3426152
 10
884.6243896
 20
1709.3426152
  0
LWPOLYLINE
  5
5C9
330
1F
100
AcDbEntity
  8
PDF _PV-9585
370
    25
100
AcDbPolyline
 90
        2
 70
     0
 43
0.0
 10
862.5885544
 20
1746.1894216
 10
862.5885544
 20
1686.2230504
  0
ARC
  5
5CA
330
1F
100
AcDbEntity
  8
PDF _PV-9585
370
    25
100
AcDbCircle
 10
793.5007905056437
 20
1716.29654717351
 30
0.0
 40
75.04852786441633
100
AcDbArc
 50
22.57168481088521
 51
337.4233731982275
  0
ARC
  5
5CD
330
1F
100
AcDbEntity
  8
PDF _PV-9585
370
    25
100
AcDbCircle
 10
832.3344442886385
 20
1716.296551848939
 30
0.0
 40
42.71701791817422
100
AcDbArc
 50
7.064230342529843
 51
44.66494814127833
  0
ARC
  5
5CE
330
1F
100
AcDbEntity
  8
PDF _PV-9585
370
    25
100
AcDbCircle
 10
832.3344452500101
 20
1716.296543733892
 30
0.0
 40
42.71703530391979
100
AcDbArc
 50
315.3351725683549
 51
352.9358903671599
  0
CIRCLE
  5
5CF
330
1F
100
AcDbEntity
  8
PDF _0
370
    25
100
AcDbCircle
 10
894.2876570970064
 20
2016.309036297003
 30
0.0
 40
75.04826290299472
  0
MTEXT
  5
5DB
330
1F
100
AcDbEntity
  8
PDF _Testo
100
AcDbMText
 10
584.1116557844407
 20
1553.2855528
 30
0.0
 40
24.00066977302032
 41
0.0
 46
0.0
 71
     7
 72
     5
  1
1640
  7
PDF Microsoft YaHei
 11
0.0000000000000001
 21
1.0
 31
0.0
 73
     1
 44
1.0
  0
MTEXT
  5
5E4
330
1F
100
AcDbEntity
  8
PDF _Testo
100
AcDbMText
 10
1081.362920584441
 20
1977.0238264
 30
0.0
 40
24.00066977302032
 41
0.0
 46
0.0
 71
     7
 72
     5
  1
∅150
  7
PDF Microsoft YaHei
 11
0.0000000000000001
 21
1.0
 31
0.0
 73
     1
 44
1.0
  0
MTEXT
  5
5E5
330
1F
100
AcDbEntity
  8
PDF _Testo
100
AcDbMText
 10
1081.362920584441
 20
2127.120376
 30
0.0
 40
24.00066977302032
 41
0.0
 46
0.0
 71
     7
 72
     5
  1
∅120
  7
PDF Microsoft YaHei
 11
0.0000000000000001
 21
1.0
 31
0.0
 73
     1
 44
1.0
  0
MTEXT
  5
5E8
330
1F
100
AcDbEntity
  8
PDF _Testo
100
AcDbMText
 10
869.4521752000001
 20
641.8261184453529
 30
0.0
 40
24.00066977302032
 41
0.0
 46
0.0
 71
     7
 72
     5
  1
320
  7
PDF Microsoft YaHei
 73
     1
 44
1.0
  0
LWPOLYLINE
  5
601
330
1F
100
AcDbEntity
  8
PDF _0
370
    25
100
AcDbPolyline
 90
        3
 70
     0
 43
0.0
 10
1236.70219034716
 20
814.145982164848
 42
0.0152736381814144
 10
1239.835639150984
 20
814.7879908047521
 42
0.0245706499772453
 10
1239.448908437003
 20
816.5649713925747
  0
LWPOLYLINE
  5
602
330
1F
100
AcDbEntity
  8
PDF _0
370
    25
100
AcDbPolyline
 90
        3
 70
     0
 43
0.0
 10
1244.809701532312
 20
817.428788775928
 42
0.0053491620590695
 10
1239.524314342576
 20
816.3977555277281
 42
0.0322972441128862
 10
1236.438313026855
 20
815.8816437554575
  0
LWPOLYLINE
  5
603
330
1F
100
AcDbEntity
  8
PDF _0
370
    25
100
AcDbPolyline
 90
        4
 70
     0
 43
0.0
 10
1200.340450478824
 20
812.1325986082961
 42
0.0155325375040155
 10
1212.420843935152
 20
813.7660428230375
 42
-0.1443703966026937
 10
1222.200251867464
 20
811.7344905397361
 42
0.1557912404319554
 10
1237.657331817687
 20
809.2261604500041
  0
LWPOLYLINE
  5
604
330
1F
100
AcDbEntity
  8
PDF _0
370
    25
100
AcDbPolyline
 90
        5
 70
     0
 43
0.0
 10
1242.542494053712
 20
829.967614302784
 42
0.006257320604624
 10
1247.8582202536
 20
830.7080490711758
 42
0.8224539128117507
 10
1247.576812182255
 20
832.6052168573934
 42
-0.0112900745549215
 10
1242.3661947286
 20
831.893994240832
 42
0.0191078703647904
 10
1242.669935236023
 20
830.0192522120079
  0
LWPOLYLINE
  5
605
330
1F
100
AcDbEntity
  8
PDF _0
370
    25
100
AcDbPolyline
 90
        4
 70
     0
 43
0.0
 10
1250.468325196288
 20
816.8681826787119
 42
0.6707255997351003
 10
1250.136377571058
 20
818.676148820181
 42
0.0093480061868121
 10
1244.73835238788
 20
817.7148897778957
 42
0.0158684445921185
 10
1245.067580409282
 20
815.7207767398487
  0
LWPOLYLINE
  5
606
330
1F
100
AcDbEntity
  8
PDF _0
370
    25
100
AcDbPolyline
 90
        6
 70
     0
 43
0.0
 10
1200.485531166592
 20
812.0862962611361
 42
0.0058733219421608
 10
1199.097177819544
 20
820.1494016259282
 42
0.0155082086742241
 10
1210.129471092688
 20
822.5598348084647
 42
0.0889213434412543
 10
1216.8966074464
 20
825.5410629526725
 42
0.0099210998698038
 10
1219.201474528598
 20
827.7221915953616
 42
-0.1523069265654138
 10
1233.10289856856
 20
835.4777633991281
  0
LWPOLYLINE
  5
607
330
1F
100
AcDbEntity
  8
PDF _0
370
    25
100
AcDbPolyline
 90
        4
 70
     0
 43
0.0
 10
1234.017913144432
 20
829.7115867972159
 42
-0.0179504907422823
 10
1229.499197816704
 20
829.035754956496
 42
0.0760275464980999
 10
1222.079425048142
 20
826.3471572850997
 42
-0.0623532249072215
 10
1210.23398236288
 20
822.5597914592801
  0
ENDSEC
  0
SECTION
  2
OBJECTS
  0
DICTIONARY
  5
C
330
0
100
AcDbDictionary
281
     1
  3
ACAD_CIP_PREVIOUS_PRODUCT_INFO
350
216
  3
ACAD_COLOR
350
6B
  3
ACAD_DETAILVIEWSTYLE
350
21B
  3
ACAD_GROUP
350
D
  3
ACAD_LAYOUT
350
1A
  3
ACAD_MATERIAL
350
6A
  3
ACAD_MLEADERSTYLE
350
12D
  3
ACAD_MLINESTYLE
350
17
  3
ACAD_PLOTSETTINGS
350
19
  3
ACAD_PLOTSTYLENAME
350
E
  3
ACAD_SCALELIST
350
10C
  3
ACAD_SECTIONVIEWSTYLE
350
219
  3
ACAD_TABLESTYLE
350
7E
  3
ACAD_VISUALSTYLE
350
EF
  3
ACDB_RECOMPOSE_DATA
350
614
  3
AcDbVariableDictionary
350
5E
  3
AcDsDecomposeData
350
61A
  0
DICTIONARY
  5
1FF
330
2
100
AcDbDictionary
280
     1
281
     1
  3
ACAD_LAYERSTATES
360
200
  0
DICTIONARY
  5
13C
330
10
100
AcDbDictionary
280
     1
281
     1
  0
DICTIONARY
  5
1CE
330
1F
100
AcDbDictionary
280
     1
281
     1
  0
XRECORD
  5
216
102
{ACAD_REACTORS
330
C
102
}
330
C
100
AcDbXrecord
280
     1
300
ACD
300
2022
300

  0
DICTIONARY
  5
6B
102
{ACAD_REACTORS
330
C
102
}
330
C
100
AcDbDictionary
281
     1
  0
DICTIONARY
  5
21B
102
{ACAD_REACTORS
330
C
102
}
330
C
100
AcDbDictionary
281
     1
  3
Metric50
350
21C
  0
DICTIONARY
  5
D
102
{ACAD_REACTORS
330
C
102
}
330
C
100
AcDbDictionary
281
     1
  0
DICTIONARY
  5
1A
102
{ACAD_REACTORS
330
C
102
}
330
C
100
AcDbDictionary
281
     1
  3
Layout1
350
D3
  3
Layout2
350
D7
  3
Model
350
22
  0
DICTIONARY
  5
6A
102
{ACAD_REACTORS
330
C
102
}
330
C
100
AcDbDictionary
281
     1
  3
ByBlock
350
ED
  3
ByLayer
350
EC
  3
Global
350
EE
  0
DICTIONARY
  5
12D
102
{ACAD_REACTORS
330
C
102
}
330
C
100
AcDbDictionary
281
     1
  3
Annotativa
350
13B
  3
Standard
350
12E
  0
DICTIONARY
  5
17
102
{ACAD_REACTORS
330
C
102
}
330
C
100
AcDbDictionary
281
     1
  3
Standard
350
18
  0
DICTIONARY
  5
19
102
{ACAD_REACTORS
330
C
102
}
330
C
100
AcDbDictionary
281
     1
  0
ACDBDICTIONARYWDFLT
  5
E
102
{ACAD_REACTORS
330
C
102
}
330
C
100
AcDbDictionary
281
     1
  3
Normal
350
F
100
AcDbDictionaryWithDefault
340
F
  0
DICTIONARY
  5
10C
102
{ACAD_REACTORS
330
C
102
}
330
C
100
AcDbDictionary
281
     1
  3
A0
350
10D
  3
A1
350
1BE
  3
A2
350
1BF
  3
A3
350
1C0
  3
A4
350
1C1
  3
A5
350
1C2
  3
A6
350
1C3
  3
A7
350
1C4
  3
A8
350
1C5
  3
A9
350
1C6
  3
B0
350
1C7
  3
B1
350
1C8
  3
B2
350
1C9
  3
B3
350
1CA
  3
B4
350
1CB
  3
B5
350
1CC
  3
B6
350
1CD
  0
DICTIONARY
  5
219
102
{ACAD_REACTORS
330
C
102
}
330
C
100
AcDbDictionary
281
     1
  3
Metric50
350
21A
  0
DICTIONARY
  5
7E
102
{ACAD_REACTORS
330
C
102
}
330
C
100
AcDbDictionary
281
     1
  3
Standard
350
7F
  0
DICTIONARY
  5
EF
102
{ACAD_REACTORS
330
C
102
}
330
C
100
AcDbDictionary
281
     1
  3
2dWireframe
350
F5
  3
Basic
350
F4
  3
Brighten
350
FB
  3
ColorChange
350
FF
  3
Conceptual
350
F8
  3
Dim
350
FA
  3
EdgeColorOff
350
1E6
  3
Facepattern
350
FE
  3
Flat
350
F0
  3
FlatWithEdges
350
F1
  3
Gouraud
350
F2
  3
GouraudWithEdges
350
F3
  3
Hidden
350
F7
  3
JitterOff
350
1E4
  3
Linepattern
350
FD
  3
OverhangOff
350
1E5
  3
Realistic
350
F9
  3
Shaded
350
1F3
  3
Shaded with edges
350
1F2
  3
Shades of Gray
350
1EF
  3
Sketchy
350
1F0
  3
Thicken
350
FC
  3
Wireframe
350
F6
  3
X-Ray
350
1F1
  0
XRECORD
  5
614
102
{ACAD_REACTORS
330
C
102
}
330
C
100
AcDbXrecord
280
     1
 90
        1
330
7F
  0
DICTIONARY
  5
5E
102
{ACAD_REACTORS
330
C
102
}
330
C
100
AcDbDictionary
281
     1
  3
CANNOSCALE
350
146
  3
CENTEREXE
350
259
  3
CENTERLTYPEFILE
350
25A
  3
CMLEADERSTYLE
350
145
  3
CTABLESTYLE
350
84
  3
CVIEWDETAILSTYLE
350
227
  3
CVIEWSECTIONSTYLE
350
228
  3
DIMASSOC
350
5F
  3
HIDETEXT
350
63
  3
LAYEREVAL
350
1AE
  3
LAYERNOTIFY
350
1AF
  0
DICTIONARY
  5
61A
102
{ACAD_REACTORS
330
C
102
}
330
C
100
AcDbDictionary
281
     1
  3
AcDsRecords
350
61C
  3
AcDsSchemas
350
61B
1001
ACAD
1070
     2
  0
DICTIONARY
  5
200
102
{ACAD_REACTORS
330
1FF
102
}
330
1FF
100
AcDbDictionary
281
     1
  0
ACDBDETAILVIEWSTYLE
  5
21C
102
{ACAD_XDICTIONARY
360
61F
102
}
102
{ACAD_REACTORS
330
21B
102
}
330
21B
100
AcDbModelDocViewStyle
 70
     0
  3
Metric50
290
     0
100
AcDbDetailViewStyle
 70
     0
 71
     0
 90
        3
 71
     1
340
11
 62
   256
 40
5.0
340
0
 62
   256
 40
5.0
300

 40
0.0
280
     1
 71
     2
340
16
 90
       25
 62
   256
 71
     3
340
11
 62
   256
 40
5.0
 90
        0
 40
15.0
 90
        1
300
%<\AcVar ViewDetailId>% (%<\AcVar ViewScale \f "%sn">%)
 71
     4
340
16
 90
       25
 62
   256
340
16
 90
       25
 62
   256
280
     0
  0
LAYOUT
  5
D3
102
{ACAD_REACTORS
330
1A
102
}
330
1A
100
AcDbPlotSettings
  1

  2
C:\Documents and Settings\basas\Application Data\Autodesk\AutoCAD 2005\R16.1\enu\plotters\Default Windows System Printer.pc3
  4

  6

 40
0.0
 41
0.0
 42
0.0
 43
0.0
 44
0.0
 45
0.0
 46
0.0
 47
0.0
 48
0.0
 49
0.0
140
0.0
141
0.0
142
1.0
143
1.0
 70
   688
 72
     0
 73
     0
 74
     5
  7

 75
    16
147
1.0
 76
     0
 77
     2
 78
   300
148
0.0
149
0.0
100
AcDbLayout
  1
Layout1
 70
     1
 71
     1
 10
0.0
 20
0.0
 11
12.0
 21
9.0
 12
0.0
 22
0.0
 32
0.0
 14
0.0
 24
0.0
 34
0.0
 15
0.0
 25
0.0
 35
0.0
146
0.0
 13
0.0
 23
0.0
 33
0.0
 16
1.0
 26
0.0
 36
0.0
 17
0.0
 27
1.0
 37
0.0
 76
     0
330
D2
  0
LAYOUT
  5
D7
102
{ACAD_REACTORS
330
1A
102
}
330
1A
100
AcDbPlotSettings
  1

  2
C:\Documents and Settings\basas\Application Data\Autodesk\AutoCAD 2005\R16.1\enu\plotters\Default Windows System Printer.pc3
  4

  6

 40
0.0
 41
0.0
 42
0.0
 43
0.0
 44
0.0
 45
0.0
 46
0.0
 47
0.0
 48
0.0
 49
0.0
140
0.0
141
0.0
142
1.0
143
1.0
 70
   688
 72
     0
 73
     0
 74
     5
  7

 75
    16
147
1.0
 76
     0
 77
     2
 78
   300
148
0.0
149
0.0
100
AcDbLayout
  1
Layout2
 70
     1
 71
     2
 10
0.0
 20
0.0
 11
12.0
 21
9.0
 12
0.0
 22
0.0
 32
0.0
 14
0.0
 24
0.0
 34
0.0
 15
0.0
 25
0.0
 35
0.0
146
0.0
 13
0.0
 23
0.0
 33
0.0
 16
1.0
 26
0.0
 36
0.0
 17
0.0
 27
1.0
 37
0.0
 76
     0
330
D6
  0
LAYOUT
  5
22
102
{ACAD_XDICTIONARY
360
205
102
}
102
{ACAD_REACTORS
330
1A
102
}
330
1A
100
AcDbPlotSettings
  1

  2
none_device
  4
ISO_A4_(210.00_x_297.00_MM)
  6

 40
7.5
 41
20.0
 42
7.5
 43
20.0
 44
210.0
 45
297.0
 46
11.54999923706054
 47
-13.65000009536743
 48
0.0
 49
0.0
140
0.0
141
0.0
142
1.0
143
8.704084754739808
 70
 11952
 72
     1
 73
     0
 74
     0
  7

 75
     0
147
0.1148885871608098
 76
     0
 77
     2
 78
   300
148
0.0
149
0.0
100
AcDbLayout
  1
Model
 70
     1
 71
     0
 10
0.0
 20
0.0
 11
12.0
 21
9.0
 12
0.0
 22
0.0
 32
0.0
 14
0.0
 24
0.0
 34
0.0
 15
0.0
 25
0.0
 35
0.0
146
0.0
 13
0.0
 23
0.0
 33
0.0
 16
1.0
 26
0.0
 36
0.0
 17
0.0
 27
1.0
 37
0.0
 76
     0
330
1F
331
EA
1001
ACAD_PSEXT
1000
None
1000
None
1000
Not applicable
1000
The layout will not be plotted unless a new plotter configuration name is selected.
1070
     0
  0
MATERIAL
  5
ED
102
{ACAD_XDICTIONARY
360
1F9
102
}
102
{ACAD_REACTORS
330
6A
102
}
330
6A
100
AcDbMaterial
  1
ByBlock
 94
       63
  0
MATERIAL
  5
EC
102
{ACAD_XDICTIONARY
360
1F7
102
}
102
{ACAD_REACTORS
330
6A
102
}
330
6A
100
AcDbMaterial
  1
ByLayer
 94
       63
  0
MATERIAL
  5
EE
102
{ACAD_XDICTIONARY
360
173
102
}
102
{ACAD_REACTORS
330
6A
102
}
330
6A
100
AcDbMaterial
  1
Global
 43
0.0007999999797903
 43
0.0
 43
0.0
 43
0.0
 43
0.0
 43
0.0007999999797903
 43
0.0
 43
0.0
 43
0.0
 43
0.0
 43
1.0
 43
0.0
 43
0.0
 43
0.0
 43
0.0
 43
1.0
 49
0.0007999999797903
 49
0.0
 49
0.0
 49
0.0
 49
0.0
 49
0.0007999999797903
 49
0.0
 49
0.0
 49
0.0
 49
0.0
 49
1.0
 49
0.0
 49
0.0
 49
0.0
 49
0.0
 49
1.0
142
0.0007999999797903
142
0.0
142
0.0
142
0.0
142
0.0
142
0.0007999999797903
142
0.0
142
0.0
142
0.0
142
0.0
142
1.0
142
0.0
142
0.0
142
0.0
142
0.0
142
1.0
144
0.0007999999797903
144
0.0
144
0.0
144
0.0
144
0.0
144
0.0007999999797903
144
0.0
144
0.0
144
0.0
144
0.0
144
1.0
144
0.0
144
0.0
144
0.0
144
0.0
144
1.0
 94
       63
1001
ACAD
1070
    -1
1070
     3
1070
     0
1000

1071
        0
1070
     0
  0
MLEADERSTYLE
  5
13B
102
{ACAD_REACTORS
330
12D
102
}
330
12D
100
AcDbMLeaderStyle
179
     2
170
     2
171
     1
172
     0
 90
        2
 40
0.0
 41
0.0
173
     1
 91
-1056964608
340
14
 92
       -2
290
     1
 42
2.0
291
     1
 43
8.0
  3
Standard
 44
4.0
300

342
11
174
     1
178
     1
175
     1
176
     0
 93
-1056964608
 45
4.0
292
     0
297
     0
 46
4.0
 94
-1056964608
 47
1.0
 49
1.0
140
1.0
293
     1
141
0.0
294
     1
177
     0
142
1.0
295
     0
296
     1
143
3.75
271
     0
272
     9
273
     9
298
     0
  0
MLEADERSTYLE
  5
12E
102
{ACAD_REACTORS
330
12D
102
}
330
12D
100
AcDbMLeaderStyle
179
     2
170
     2
171
     1
172
     0
 90
        2
 40
0.0
 41
0.0
173
     1
 91
-1056964608
340
14
 92
       -2
290
     1
 42
2.0
291
     1
 43
8.0
  3
Standard
 44
4.0
300

342
11
174
     1
178
     1
175
     1
176
     0
 93
-1056964608
 45
4.0
292
     0
297
     0
 46
4.0
 94
-1056964608
 47
1.0
 49
1.0
140
1.0
293
     1
141
0.0
294
     1
177
     0
142
1.0
295
     0
296
     0
143
3.75
271
     0
272
     9
273
     9
298
     0
  0
MLINESTYLE
  5
18
102
{ACAD_REACTORS
330
17
102
}
330
17
100
AcDbMlineStyle
  2
STANDARD
 70
     0
  3

 62
   256
 51
90.0
 52
90.0
 71
     2
 49
0.5
 62
   256
  6
BYLAYER
 49
-0.5
 62
   256
  6
BYLAYER
  0
ACDBPLACEHOLDER
  5
F
102
{ACAD_REACTORS
330
E
102
}
330
E
  0
SCALE
  5
10D
102
{ACAD_REACTORS
330
10C
102
}
330
10C
100
AcDbScale
 70
     0
300
1:1
140
1.0
141
1.0
290
     1
  0
SCALE
  5
1BE
102
{ACAD_REACTORS
330
10C
102
}
330
10C
100
AcDbScale
 70
     0
300
1:2
140
1.0
141
2.0
290
     0
  0
SCALE
  5
1BF
102
{ACAD_REACTORS
330
10C
102
}
330
10C
100
AcDbScale
 70
     0
300
1:4
140
1.0
141
4.0
290
     0
  0
SCALE
  5
1C0
102
{ACAD_REACTORS
330
10C
102
}
330
10C
100
AcDbScale
 70
     0
300
1:5
140
1.0
141
5.0
290
     0
  0
SCALE
  5
1C1
102
{ACAD_REACTORS
330
10C
102
}
330
10C
100
AcDbScale
 70
     0
300
1:8
140
1.0
141
8.0
290
     0
  0
SCALE
  5
1C2
102
{ACAD_REACTORS
330
10C
102
}
330
10C
100
AcDbScale
 70
     0
300
1:10
140
1.0
141
10.0
290
     0
  0
SCALE
  5
1C3
102
{ACAD_REACTORS
330
10C
102
}
330
10C
100
AcDbScale
 70
     0
300
1:16
140
1.0
141
16.0
290
     0
  0
SCALE
  5
1C4
102
{ACAD_REACTORS
330
10C
102
}
330
10C
100
AcDbScale
 70
     0
300
1:20
140
1.0
141
20.0
290
     0
  0
SCALE
  5
1C5
102
{ACAD_REACTORS
330
10C
102
}
330
10C
100
AcDbScale
 70
     0
300
1:30
140
1.0
141
30.0
290
     0
  0
SCALE
  5
1C6
102
{ACAD_REACTORS
330
10C
102
}
330
10C
100
AcDbScale
 70
     0
300
1:40
140
1.0
141
40.0
290
     0
  0
SCALE
  5
1C7
102
{ACAD_REACTORS
330
10C
102
}
330
10C
100
AcDbScale
 70
     0
300
1:50
140
1.0
141
50.0
290
     0
  0
SCALE
  5
1C8
102
{ACAD_REACTORS
330
10C
102
}
330
10C
100
AcDbScale
 70
     0
300
1:100
140
1.0
141
100.0
290
     0
  0
SCALE
  5
1C9
102
{ACAD_REACTORS
330
10C
102
}
330
10C
100
AcDbScale
 70
     0
300
2:1
140
2.0
141
1.0
290
     0
  0
SCALE
  5
1CA
102
{ACAD_REACTORS
330
10C
102
}
330
10C
100
AcDbScale
 70
     0
300
4:1
140
4.0
141
1.0
290
     0
  0
SCALE
  5
1CB
102
{ACAD_REACTORS
330
10C
102
}
330
10C
100
AcDbScale
 70
     0
300
8:1
140
8.0
141
1.0
290
     0
  0
SCALE
  5
1CC
102
{ACAD_REACTORS
330
10C
102
}
330
10C
100
AcDbScale
 70
     0
300
10:1
140
10.0
141
1.0
290
     0
  0
SCALE
  5
1CD
102
{ACAD_REACTORS
330
10C
102
}
330
10C
100
AcDbScale
 70
     0
300
100:1
140
100.0
141
1.0
290
     0
  0
ACDBSECTIONVIEWSTYLE
  5
21A
102
{ACAD_XDICTIONARY
360
61D
102
}
102
{ACAD_REACTORS
330
219
102
}
330
219
100
AcDbModelDocViewStyle
 70
     0
  3
Metric50
290
     0
100
AcDbSectionViewStyle
 70
     0
 71
     0
 90
      102
 71
     1
340
11
 62
   256
 40
5.0
340
0
340
0
 62
   256
 40
5.0
300
I, O, Q, S, X, Z
 40
10.0
 90
        0
 40
2.5
 90
        0
 71
     2
340
16
 90
       25
 62
   256
340
16
 90
       50
 62
   256
 40
5.0
 40
2.5
 40
5.0
 71
     3
340
11
 62
   256
 40
5.0
 90
        0
 40
15.0
 90
        1
300
%<\AcVar ViewSectionStartId>%-%<\AcVar ViewSectionEndId>% (%<\AcVar ViewScale \f "%sn">%)
 71
     4
 62
   256
 62
   257
300
ANSI31
 40
1.0
 90
        0
290
     0
290
     0
 90
        6
 40
0.0
 40
1.570796326794896
 40
0.2617993877991494
 40
1.308996938995747
 40
-0.2617993877991494
 40
1.832595714594046
  0
TABLESTYLE
  5
7F
102
{ACAD_XDICTIONARY
360
162
102
}
102
{ACAD_REACTORS
330
7E
102
}
330
7E
100
AcDbTableStyle
280
     0
  3
Standard
 70
     0
 71
     0
 40
1.5
 41
1.5
280
     0
281
     0
  7
Standard
140
4.5
170
     2
 62
     0
 63
     7
283
     0
 90
      512
 91
        0
  1

274
    -2
284
     1
 64
     0
275
    -2
285
     1
 65
     0
276
    -2
286
     1
 66
     0
277
    -2
287
     1
 67
     0
278
    -2
288
     1
 68
     0
279
    -2
289
     1
 69
     0
  7
Standard
140
6.0
170
     5
 62
     0
 63
     7
283
     0
 90
      512
 91
        0
  1

274
    -2
284
     1
 64
     0
275
    -2
285
     1
 65
     0
276
    -2
286
     1
 66
     0
277
    -2
287
     1
 67
     0
278
    -2
288
     1
 68
     0
279
    -2
289
     1
 69
     0
  7
Standard
140
4.5
170
     5
 62
     0
 63
     7
283
     0
 90
      512
 91
        0
  1

274
    -2
284
     1
 64
     0
275
    -2
285
     1
 65
     0
276
    -2
286
     1
 66
     0
277
    -2
287
     1
 67
     0
278
    -2
288
     1
 68
     0
279
    -2
289
     1
 69
     0
  0
VISUALSTYLE
  5
F5
102
{ACAD_REACTORS
330
EF
102
}
330
EF
100
AcDbVisualStyle
  2
2dWireframe
 70
     4
177
     3
291
     0
 70
    58
 90
        0
176
     1
 90
        2
176
     1
 90
        1
176
     1
 90
        0
176
     1
 40
0.6
176
     1
 40
30.0
176
     1
 62
     7
420
 16777215
176
     1
 90
        1
176
     1
 90
        4
176
     1
 62
     7
176
     1
 62
   257
176
     1
 90
        1
176
     1
 90
        1
176
     1
 40
1.0
176
     1
 90
        0
176
     1
 62
   257
176
     1
 40
1.0
176
     1
 90
        1
176
     1
 90
        6
176
     1
 90
        2
176
     1
 62
     7
176
     1
 90
        5
176
     1
 90
        0
176
     1
 90
        0
176
     1
290
     0
176
     1
 90
        1
176
     1
 40
0.0
176
     1
 90
        0
176
     1
290
     1
176
     1
290
     1
176
     1
290
     0
176
     1
290
     0
176
     1
290
     0
176
     1
290
     0
176
     1
290
     0
176
     1
290
     0
176
     1
290
     0
176
     1
 90
       50
176
     1
 40
0.0
176
     1
 40
1.0
176
     1
 90
        0
176
     1
 62
    18
420
        0
176
     1
 90
       50
176
     1
 90
        3
176
     1
 62
     5
420
      255
176
     1
290
     0
176
     1
 90
       50
176
     1
 90
       50
176
     1
 90
       50
176
     1
290
     0
176
     1
 90
       50
176
     1
 62
   256
176
     0
 40
1.0
176
     0
 90
        2
176
     1
  1
strokes_ogs.tif
176
     1
290
     0
176
     1
 40
1.0
176
     1
 40
1.0
176
     1
1001
ACAD
1000
AcDbSavedByObjectVersion
1070
     0
  0
VISUALSTYLE
  5
F4
102
{ACAD_REACTORS
330
EF
102
}
330
EF
100
AcDbVisualStyle
  2
Basic
 70
     7
177
     3
291
     1
 70
    58
 90
        1
176
     1
 90
        0
176
     1
 90
        1
176
     1
 90
        0
176
     1
 40
0.6
176
     1
 40
30.0
176
     1
 62
     7
420
 16777215
176
     1
 90
        0
176
     1
 90
        4
176
     1
 62
     7
176
     1
 62
   257
176
     1
 90
        1
176
     1
 90
        1
176
     1
 40
1.0
176
     1
 90
        8
176
     1
 62
     7
176
     1
 40
1.0
176
     1
 90
        1
176
     1
 90
        6
176
     1
 90
        2
176
     1
 62
     7
176
     1
 90
        5
176
     1
 90
        0
176
     1
 90
        0
176
     1
290
     0
176
     1
 90
        1
176
     1
 40
0.0
176
     1
 90
        0
176
     1
290
     0
176
     1
290
     1
176
     1
290
     1
176
     1
290
     0
176
     1
290
     0
176
     1
290
     0
176
     1
290
     0
176
     1
290
     0
176
     1
290
     0
176
     1
 90
       50
176
     1
 40
0.0
176
     1
 40
1.0
176
     1
 90
        0
176
     1
 62
    18
420
        0
176
     1
 90
       50
176
     1
 90
        3
176
     1
 62
     5
420
      255
176
     1
290
     0
176
     1
 90
       50
176
     1
 90
       50
176
     1
 90
       50
176
     1
290
     0
176
     1
 90
       50
176
     1
 62
   256
176
     0
 40
1.0
176
     0
 90
        2
176
     1
  1
strokes_ogs.tif
176
     1
290
     0
176
     1
 40
1.0
176
     1
 40
1.0
176
     1
1001
ACAD
1000
AcDbSavedByObjectVersion
1070
     0
  0
VISUALSTYLE
  5
FB
102
{ACAD_REACTORS
330
EF
102
}
330
EF
100
AcDbVisualStyle
  2
Brighten
 70
    12
177
     3
291
     1
 70
    58
 90
        2
176
     1
 90
        2
176
     1
 90
        1
176
     1
 90
        0
176
     1
 40
0.6
176
     1
 40
30.0
176
     1
 62
     7
420
 16777215
176
     1
 90
        1
176
     1
 90
        4
176
     1
 62
     7
176
     1
 62
   257
176
     1
 90
        1
176
     1
 90
        1
176
     1
 40
1.0
176
     1
 90
        8
176
     1
 62
     7
176
     1
 40
1.0
176
     1
 90
        1
176
     1
 90
        6
176
     1
 90
        2
176
     1
 62
     7
176
     1
 90
        5
176
     1
 90
        0
176
     1
 90
        0
176
     1
290
     0
176
     1
 90
        1
176
     1
 40
50.0
176
     1
 90
        0
176
     1
290
     0
176
     1
290
     1
176
     1
290
     1
176
     1
290
     0
176
     1
290
     0
176
     1
290
     0
176
     1
290
     0
176
     1
290
     0
176
     1
290
     0
176
     1
 90
       50
176
     1
 40
0.0
176
     1
 40
1.0
176
     1
 90
        0
176
     1
 62
    18
420
        0
176
     1
 90
       50
176
     1
 90
        3
176
     1
 62
     5
420
      255
176
     1
290
     0
176
     1
 90
       50
176
     1
 90
       50
176
     1
 90
       50
176
     1
290
     0
176
     1
 90
       50
176
     1
 62
   256
176
     0
 40
1.0
176
     0
 90
        2
176
     1
  1
strokes_ogs.tif
176
     1
290
     0
176
     1
 40
1.0
176
     1
 40
1.0
176
     1
1001
ACAD
1000
AcDbSavedByObjectVersion
1070
     0
  0
VISUALSTYLE
  5
FF
102
{ACAD_REACTORS
330
EF
102
}
330
EF
100
AcDbVisualStyle
  2
ColorChange
 70
    16
177
     3
291
     1
 70
    58
 90
        2
176
     1
 90
        2
176
     1
 90
        3
176
     1
 90
        0
176
     1
 40
0.6
176
     1
 40
30.0
176
     1
 62
     8
420
  8421504
176
     1
 90
        1
176
     1
 90
        4
176
     1
 62
     7
176
     1
 62
   257
176
     1
 90
        1
176
     1
 90
        1
176
     1
 40
1.0
176
     1
 90
        8
176
     1
 62
     8
420
  8421504
176
     1
 40
1.0
176
     1
 90
        1
176
     1
 90
        6
176
     1
 90
        2
176
     1
 62
     7
176
     1
 90
        5
176
     1
 90
        0
176
     1
 90
        0
176
     1
290
     0
176
     1
 90
        1
176
     1
 40
0.0
176
     1
 90
        0
176
     1
290
     0
176
     1
290
     1
176
     1
290
     1
176
     1
290
     0
176
     1
290
     0
176
     1
290
     0
176
     1
290
     0
176
     1
290
     0
176
     1
290
     0
176
     1
 90
       50
176
     1
 40
0.0
176
     1
 40
1.0
176
     1
 90
        0
176
     1
 62
    18
420
        0
176
     1
 90
       50
176
     1
 90
        3
176
     1
 62
     5
420
      255
176
     1
290
     0
176
     1
 90
       50
176
     1
 90
       50
176
     1
 90
       50
176
     1
290
     0
176
     1
 90
       50
176
     1
 62
   256
176
     0
 40
1.0
176
     0
 90
        2
176
     1
  1
strokes_ogs.tif
176
     1
290
     0
176
     1
 40
1.0
176
     1
 40
1.0
176
     1
1001
ACAD
1000
AcDbSavedByObjectVersion
1070
     0
  0
VISUALSTYLE
  5
F8
102
{ACAD_REACTORS
330
EF
102
}
330
EF
100
AcDbVisualStyle
  2
Conceptual
 70
     9
177
     3
291
     0
 70
    58
 90
        3
176
     1
 90
        2
176
     1
 90
        1
176
     1
 90
        0
176
     1
 40
0.6
176
     1
 40
30.0
176
     1
 62
     7
420
 16777215
176
     1
 90
        2
176
     1
 90
        2
176
     1
 62
     7
176
     1
 62
   257
176
     1
 90
        1
176
     1
 90
        1
176
     1
 40
40.0
176
     1
 90
        8
176
     1
 62
     7
176
     1
 40
1.0
176
     1
 90
        1
176
     1
 90
        6
176
     1
 90
        2
176
     1
 62
     7
176
     1
 90
        3
176
     1
 90
        0
176
     1
 90
        0
176
     1
290
     0
176
     1
 90
        1
176
     1
 40
0.0
176
     1
 90
        0
176
     1
290
     0
176
     1
290
     1
176
     1
290
     1
176
     1
290
     0
176
     1
290
     0
176
     1
290
     0
176
     1
290
     0
176
     1
290
     0
176
     1
290
     0
176
     1
 90
       50
176
     1
 40
0.0
176
     1
 40
1.0
176
     1
 90
        0
176
     1
 62
    18
420
        0
176
     1
 90
       50
176
     1
 90
        3
176
     1
 62
     5
420
      255
176
     1
290
     0
176
     1
 90
       50
176
     1
 90
       50
176
     1
 90
       50
176
     1
290
     0
176
     1
 90
       50
176
     1
 62
   256
176
     0
 40
1.0
176
     0
 90
        2
176
     1
  1
strokes_ogs.tif
176
     1
290
     0
176
     1
 40
1.0
176
     1
 40
1.0
176
     1
1001
ACAD
1000
AcDbSavedByObjectVersion
1070
     0
  0
VISUALSTYLE
  5
FA
102
{ACAD_REACTORS
330
EF
102
}
330
EF
100
AcDbVisualStyle
  2
Dim
 70
    11
177
     3
291
     1
 70
    58
 90
        2
176
     1
 90
        2
176
     1
 90
        1
176
     1
 90
        0
176
     1
 40
0.6
176
     1
 40
30.0
176
     1
 62
     7
420
 16777215
176
     1
 90
        1
176
     1
 90
        4
176
     1
 62
     7
176
     1
 62
   257
176
     1
 90
        1
176
     1
 90
        1
176
     1
 40
1.0
176
     1
 90
        8
176
     1
 62
     7
176
     1
 40
1.0
176
     1
 90
        1
176
     1
 90
        6
176
     1
 90
        2
176
     1
 62
     7
176
     1
 90
        5
176
     1
 90
        0
176
     1
 90
        0
176
     1
290
     0
176
     1
 90
        1
176
     1
 40
-50.0
176
     1
 90
        0
176
     1
290
     0
176
     1
290
     1
176
     1
290
     1
176
     1
290
     0
176
     1
290
     0
176
     1
290
     0
176
     1
290
     0
176
     1
290
     0
176
     1
290
     0
176
     1
 90
       50
176
     1
 40
0.0
176
     1
 40
1.0
176
     1
 90
        0
176
     1
 62
    18
420
        0
176
     1
 90
       50
176
     1
 90
        3
176
     1
 62
     5
420
      255
176
     1
290
     0
176
     1
 90
       50
176
     1
 90
       50
176
     1
 90
       50
176
     1
290
     0
176
     1
 90
       50
176
     1
 62
   256
176
     0
 40
1.0
176
     0
 90
        2
176
     1
  1
strokes_ogs.tif
176
     1
290
     0
176
     1
 40
1.0
176
     1
 40
1.0
176
     1
1001
ACAD
1000
AcDbSavedByObjectVersion
1070
     0
  0
VISUALSTYLE
  5
1E6
102
{ACAD_REACTORS
330
EF
102
}
330
EF
100
AcDbVisualStyle
  2
EdgeColorOff
 70
    22
177
     3
291
     1
 70
    58
 90
        2
176
     0
 90
        2
176
     0
 90
        0
176
     0
 90
        0
176
     0
 40
0.6
176
     0
 40
30.0
176
     0
 62
     7
420
 16777215
176
     0
 90
        1
176
     0
 90
        4
176
     0
 62
     7
176
     0
 62
   257
176
     0
 90
        1
176
     0
 90
        1
176
     0
 40
1.0
176
     0
 90
        8
176
     2
 62
     7
176
     0
 40
1.0
176
     0
 90
        1
176
     0
 90
        6
176
     0
 90
        2
176
     0
 62
     7
176
     0
 90
        5
176
     0
 90
        0
176
     0
 90
        0
176
     0
290
     0
176
     0
 90
        1
176
     0
 40
0.0
176
     0
 90
        0
176
     0
290
     0
176
     1
290
     1
176
     1
290
     1
176
     1
290
     0
176
     1
290
     0
176
     1
290
     0
176
     1
290
     0
176
     1
290
     0
176
     1
290
     0
176
     1
 90
       50
176
     1
 40
0.0
176
     1
 40
1.0
176
     1
 90
        0
176
     1
 62
    18
420
        0
176
     1
 90
       50
176
     1
 90
        3
176
     1
 62
     5
420
      255
176
     1
290
     0
176
     1
 90
       50
176
     1
 90
       50
176
     1
 90
       50
176
     1
290
     0
176
     1
 90
       50
176
     1
 62
   256
176
     0
 40
1.0
176
     0
 90
        2
176
     1
  1
strokes_ogs.tif
176
     1
290
     0
176
     1
 40
1.0
176
     1
 40
1.0
176
     1
1001
ACAD
1000
AcDbSavedByObjectVersion
1070
     0
  0
VISUALSTYLE
  5
FE
102
{ACAD_REACTORS
330
EF
102
}
330
EF
100
AcDbVisualStyle
  2
Facepattern
 70
    15
177
     3
291
     1
 70
    58
 90
        2
176
     1
 90
        2
176
     1
 90
        1
176
     1
 90
        0
176
     1
 40
0.6
176
     1
 40
30.0
176
     1
 62
     7
420
 16777215
176
     1
 90
        1
176
     1
 90
        4
176
     1
 62
     7
176
     1
 62
   257
176
     1
 90
        1
176
     1
 90
        1
176
     1
 40
1.0
176
     1
 90
        8
176
     1
 62
     7
176
     1
 40
1.0
176
     1
 90
        1
176
     1
 90
        6
176
     1
 90
        2
176
     1
 62
     7
176
     1
 90
        5
176
     1
 90
        0
176
     1
 90
        0
176
     1
290
     0
176
     1
 90
        1
176
     1
 40
0.0
176
     1
 90
        0
176
     1
290
     0
176
     1
290
     1
176
     1
290
     1
176
     1
290
     0
176
     1
290
     0
176
     1
290
     0
176
     1
290
     0
176
     1
290
     0
176
     1
290
     0
176
     1
 90
       50
176
     1
 40
0.0
176
     1
 40
1.0
176
     1
 90
        0
176
     1
 62
    18
420
        0
176
     1
 90
       50
176
     1
 90
        3
176
     1
 62
     5
420
      255
176
     1
290
     0
176
     1
 90
       50
176
     1
 90
       50
176
     1
 90
       50
176
     1
290
     0
176
     1
 90
       50
176
     1
 62
   256
176
     0
 40
1.0
176
     0
 90
        2
176
     1
  1
strokes_ogs.tif
176
     1
290
     0
176
     1
 40
1.0
176
     1
 40
1.0
176
     1
1001
ACAD
1000
AcDbSavedByObjectVersion
1070
     0
  0
VISUALSTYLE
  5
F0
102
{ACAD_REACTORS
330
EF
102
}
330
EF
100
AcDbVisualStyle
  2
Flat
 70
     0
177
     3
291
     1
 70
    58
 90
        2
176
     1
 90
        1
176
     1
 90
        1
176
     1
 90
        2
176
     1
 40
0.6
176
     1
 40
30.0
176
     1
 62
     7
420
 16777215
176
     1
 90
        0
176
     1
 90
        0
176
     1
 62
     7
176
     1
 62
   257
176
     1
 90
        1
176
     1
 90
        1
176
     1
 40
1.0
176
     1
 90
        8
176
     1
 62
     7
176
     1
 40
1.0
176
     1
 90
        1
176
     1
 90
        6
176
     1
 90
        2
176
     1
 62
     7
176
     1
 90
        5
176
     1
 90
        0
176
     1
 90
        0
176
     1
290
     0
176
     1
 90
       13
176
     1
 40
0.0
176
     1
 90
        0
176
     1
290
     0
176
     1
290
     1
176
     1
290
     1
176
     1
290
     0
176
     1
290
     0
176
     1
290
     0
176
     1
290
     0
176
     1
290
     0
176
     1
290
     0
176
     1
 90
       50
176
     1
 40
0.0
176
     1
 40
1.0
176
     1
 90
        0
176
     1
 62
    18
420
        0
176
     1
 90
       50
176
     1
 90
        3
176
     1
 62
     5
420
      255
176
     1
290
     0
176
     1
 90
       50
176
     1
 90
       50
176
     1
 90
       50
176
     1
290
     0
176
     1
 90
       50
176
     1
 62
   256
176
     0
 40
1.0
176
     0
 90
        2
176
     1
  1
strokes_ogs.tif
176
     1
290
     0
176
     1
 40
1.0
176
     1
 40
1.0
176
     1
1001
ACAD
1000
AcDbSavedByObjectVersion
1070
     0
  0
VISUALSTYLE
  5
F1
102
{ACAD_REACTORS
330
EF
102
}
330
EF
100
AcDbVisualStyle
  2
FlatWithEdges
 70
     1
177
     3
291
     1
 70
    58
 90
        2
176
     1
 90
        1
176
     1
 90
        1
176
     1
 90
        2
176
     1
 40
0.6
176
     1
 40
30.0
176
     1
 62
     7
420
 16777215
176
     1
 90
        1
176
     1
 90
        0
176
     1
 62
     7
176
     1
 62
   257
176
     1
 90
        1
176
     1
 90
        1
176
     1
 40
1.0
176
     1
 90
        0
176
     1
 62
   257
176
     1
 40
1.0
176
     1
 90
        1
176
     1
 90
        6
176
     1
 90
        2
176
     1
 62
     7
176
     1
 90
        5
176
     1
 90
        0
176
     1
 90
        0
176
     1
290
     0
176
     1
 90
       13
176
     1
 40
0.0
176
     1
 90
        0
176
     1
290
     0
176
     1
290
     1
176
     1
290
     1
176
     1
290
     0
176
     1
290
     0
176
     1
290
     0
176
     1
290
     0
176
     1
290
     0
176
     1
290
     0
176
     1
 90
       50
176
     1
 40
0.0
176
     1
 40
1.0
176
     1
 90
        0
176
     1
 62
    18
420
        0
176
     1
 90
       50
176
     1
 90
        3
176
     1
 62
     5
420
      255
176
     1
290
     0
176
     1
 90
       50
176
     1
 90
       50
176
     1
 90
       50
176
     1
290
     0
176
     1
 90
       50
176
     1
 62
   256
176
     0
 40
1.0
176
     0
 90
        2
176
     1
  1
strokes_ogs.tif
176
     1
290
     0
176
     1
 40
1.0
176
     1
 40
1.0
176
     1
1001
ACAD
1000
AcDbSavedByObjectVersion
1070
     0
  0
VISUALSTYLE
  5
F2
102
{ACAD_REACTORS
330
EF
102
}
330
EF
100
AcDbVisualStyle
  2
Gouraud
 70
     2
177
     3
291
     1
 70
    58
 90
        2
176
     1
 90
        2
176
     1
 90
        1
176
     1
 90
        2
176
     1
 40
0.6
176
     1
 40
30.0
176
     1
 62
     7
420
 16777215
176
     1
 90
        0
176
     1
 90
        0
176
     1
 62
     7
176
     1
 62
   257
176
     1
 90
        1
176
     1
 90
        1
176
     1
 40
1.0
176
     1
 90
        0
176
     1
 62
     7
176
     1
 40
1.0
176
     1
 90
        1
176
     1
 90
        6
176
     1
 90
        2
176
     1
 62
     7
176
     1
 90
        5
176
     1
 90
        0
176
     1
 90
        0
176
     1
290
     0
176
     1
 90
       13
176
     1
 40
0.0
176
     1
 90
        0
176
     1
290
     0
176
     1
290
     1
176
     1
290
     1
176
     1
290
     0
176
     1
290
     0
176
     1
290
     0
176
     1
290
     0
176
     1
290
     0
176
     1
290
     0
176
     1
 90
       50
176
     1
 40
0.0
176
     1
 40
1.0
176
     1
 90
        0
176
     1
 62
    18
420
        0
176
     1
 90
       50
176
     1
 90
        3
176
     1
 62
     5
420
      255
176
     1
290
     0
176
     1
 90
       50
176
     1
 90
       50
176
     1
 90
       50
176
     1
290
     0
176
     1
 90
       50
176
     1
 62
   256
176
     0
 40
1.0
176
     0
 90
        2
176
     1
  1
strokes_ogs.tif
176
     1
290
     0
176
     1
 40
1.0
176
     1
 40
1.0
176
     1
1001
ACAD
1000
AcDbSavedByObjectVersion
1070
     0
  0
VISUALSTYLE
  5
F3
102
{ACAD_REACTORS
330
EF
102
}
330
EF
100
AcDbVisualStyle
  2
GouraudWithEdges
 70
     3
177
     3
291
     1
 70
    58
 90
        2
176
     1
 90
        2
176
     1
 90
        1
176
     1
 90
        2
176
     1
 40
0.6
176
     1
 40
30.0
176
     1
 62
     7
420
 16777215
176
     1
 90
        1
176
     1
 90
        0
176
     1
 62
     7
176
     1
 62
   257
176
     1
 90
        1
176
     1
 90
        1
176
     1
 40
1.0
176
     1
 90
        0
176
     1
 62
   257
176
     1
 40
1.0
176
     1
 90
        1
176
     1
 90
        6
176
     1
 90
        2
176
     1
 62
     7
176
     1
 90
        5
176
     1
 90
        0
176
     1
 90
        0
176
     1
290
     0
176
     1
 90
       13
176
     1
 40
0.0
176
     1
 90
        0
176
     1
290
     0
176
     1
290
     1
176
     1
290
     1
176
     1
290
     0
176
     1
290
     0
176
     1
290
     0
176
     1
290
     0
176
     1
290
     0
176
     1
290
     0
176
     1
 90
       50
176
     1
 40
0.0
176
     1
 40
1.0
176
     1
 90
        0
176
     1
 62
    18
420
        0
176
     1
 90
       50
176
     1
 90
        3
176
     1
 62
     5
420
      255
176
     1
290
     0
176
     1
 90
       50
176
     1
 90
       50
176
     1
 90
       50
176
     1
290
     0
176
     1
 90
       50
176
     1
 62
   256
176
     0
 40
1.0
176
     0
 90
        2
176
     1
  1
strokes_ogs.tif
176
     1
290
     0
176
     1
 40
1.0
176
     1
 40
1.0
176
     1
1001
ACAD
1000
AcDbSavedByObjectVersion
1070
     0
  0
VISUALSTYLE
  5
F7
102
{ACAD_REACTORS
330
EF
102
}
330
EF
100
AcDbVisualStyle
  2
Hidden
 70
     6
177
     3
291
     0
 70
    58
 90
        1
176
     1
 90
        2
176
     1
 90
        2
176
     1
 90
        0
176
     1
 40
0.6
176
     1
 40
30.0
176
     1
 62
     7
420
 16777215
176
     1
 90
        2
176
     1
 90
        2
176
     1
 62
     7
176
     1
 62
   257
176
     1
 90
        2
176
     1
 90
        1
176
     1
 40
40.0
176
     1
 90
        0
176
     1
 62
   257
176
     1
 40
1.0
176
     1
 90
        1
176
     1
 90
        6
176
     1
 90
        2
176
     1
 62
     7
176
     1
 90
        3
176
     1
 90
        0
176
     1
 90
        0
176
     1
290
     0
176
     1
 90
        1
176
     1
 40
0.0
176
     1
 90
        0
176
     1
290
     0
176
     1
290
     1
176
     1
290
     1
176
     1
290
     0
176
     1
290
     0
176
     1
290
     0
176
     1
290
     0
176
     1
290
     0
176
     1
290
     0
176
     1
 90
       50
176
     1
 40
0.0
176
     1
 40
1.0
176
     1
 90
        0
176
     1
 62
    18
420
        0
176
     1
 90
       50
176
     1
 90
        3
176
     1
 62
     5
420
      255
176
     1
290
     0
176
     1
 90
       50
176
     1
 90
       50
176
     1
 90
       50
176
     1
290
     0
176
     1
 90
       50
176
     1
 62
   256
176
     0
 40
1.0
176
     0
 90
        2
176
     1
  1
strokes_ogs.tif
176
     1
290
     0
176
     1
 40
1.0
176
     1
 40
1.0
176
     1
1001
ACAD
1000
AcDbSavedByObjectVersion
1070
     0
  0
VISUALSTYLE
  5
1E4
102
{ACAD_REACTORS
330
EF
102
}
330
EF
100
AcDbVisualStyle
  2
JitterOff
 70
    20
177
     3
291
     1
 70
    58
 90
        2
176
     0
 90
        2
176
     0
 90
        0
176
     0
 90
        0
176
     0
 40
0.6
176
     0
 40
30.0
176
     0
 62
     7
420
 16777215
176
     0
 90
        1
176
     0
 90
        4
176
     0
 62
     7
176
     0
 62
   257
176
     0
 90
        1
176
     0
 90
        1
176
     0
 40
1.0
176
     0
 90
       10
176
     2
 62
     7
176
     0
 40
1.0
176
     0
 90
        1
176
     0
 90
        6
176
     0
 90
        2
176
     0
 62
     7
176
     0
 90
        5
176
     0
 90
        0
176
     0
 90
        0
176
     0
290
     0
176
     0
 90
        1
176
     0
 40
0.0
176
     0
 90
        0
176
     0
290
     0
176
     1
290
     1
176
     1
290
     1
176
     1
290
     0
176
     1
290
     0
176
     1
290
     0
176
     1
290
     0
176
     1
290
     0
176
     1
290
     0
176
     1
 90
       50
176
     1
 40
0.0
176
     1
 40
1.0
176
     1
 90
        0
176
     1
 62
    18
420
        0
176
     1
 90
       50
176
     1
 90
        3
176
     1
 62
     5
420
      255
176
     1
290
     0
176
     1
 90
       50
176
     1
 90
       50
176
     1
 90
       50
176
     1
290
     0
176
     1
 90
       50
176
     1
 62
   256
176
     0
 40
1.0
176
     0
 90
        2
176
     1
  1
strokes_ogs.tif
176
     1
290
     0
176
     1
 40
1.0
176
     1
 40
1.0
176
     1
1001
ACAD
1000
AcDbSavedByObjectVersion
1070
     0
  0
VISUALSTYLE
  5
FD
102
{ACAD_REACTORS
330
EF
102
}
330
EF
100
AcDbVisualStyle
  2
Linepattern
 70
    14
177
     3
291
     1
 70
    58
 90
        2
176
     1
 90
        2
176
     1
 90
        1
176
     1
 90
        0
176
     1
 40
0.6
176
     1
 40
30.0
176
     1
 62
     7
420
 16777215
176
     1
 90
        1
176
     1
 90
        4
176
     1
 62
     7
176
     1
 62
   257
176
     1
 90
        7
176
     1
 90
        7
176
     1
 40
1.0
176
     1
 90
        8
176
     1
 62
     7
176
     1
 40
1.0
176
     1
 90
        1
176
     1
 90
        6
176
     1
 90
        2
176
     1
 62
     7
176
     1
 90
        5
176
     1
 90
        0
176
     1
 90
        0
176
     1
290
     0
176
     1
 90
        1
176
     1
 40
0.0
176
     1
 90
        0
176
     1
290
     0
176
     1
290
     1
176
     1
290
     1
176
     1
290
     0
176
     1
290
     0
176
     1
290
     0
176
     1
290
     0
176
     1
290
     0
176
     1
290
     0
176
     1
 90
       50
176
     1
 40
0.0
176
     1
 40
1.0
176
     1
 90
        0
176
     1
 62
    18
420
        0
176
     1
 90
       50
176
     1
 90
        3
176
     1
 62
     5
420
      255
176
     1
290
     0
176
     1
 90
       50
176
     1
 90
       50
176
     1
 90
       50
176
     1
290
     0
176
     1
 90
       50
176
     1
 62
   256
176
     0
 40
1.0
176
     0
 90
        2
176
     1
  1
strokes_ogs.tif
176
     1
290
     0
176
     1
 40
1.0
176
     1
 40
1.0
176
     1
1001
ACAD
1000
AcDbSavedByObjectVersion
1070
     0
  0
VISUALSTYLE
  5
1E5
102
{ACAD_REACTORS
330
EF
102
}
330
EF
100
AcDbVisualStyle
  2
OverhangOff
 70
    21
177
     3
291
     1
 70
    58
 90
        2
176
     0
 90
        2
176
     0
 90
        0
176
     0
 90
        0
176
     0
 40
0.6
176
     0
 40
30.0
176
     0
 62
     7
420
 16777215
176
     0
 90
        1
176
     0
 90
        4
176
     0
 62
     7
176
     0
 62
   257
176
     0
 90
        1
176
     0
 90
        1
176
     0
 40
1.0
176
     0
 90
        9
176
     2
 62
     7
176
     0
 40
1.0
176
     0
 90
        1
176
     0
 90
        6
176
     0
 90
        2
176
     0
 62
     7
176
     0
 90
        5
176
     0
 90
        0
176
     0
 90
        0
176
     0
290
     0
176
     0
 90
        1
176
     0
 40
0.0
176
     0
 90
        0
176
     0
290
     0
176
     1
290
     1
176
     1
290
     1
176
     1
290
     0
176
     1
290
     0
176
     1
290
     0
176
     1
290
     0
176
     1
290
     0
176
     1
290
     0
176
     1
 90
       50
176
     1
 40
0.0
176
     1
 40
1.0
176
     1
 90
        0
176
     1
 62
    18
420
        0
176
     1
 90
       50
176
     1
 90
        3
176
     1
 62
     5
420
      255
176
     1
290
     0
176
     1
 90
       50
176
     1
 90
       50
176
     1
 90
       50
176
     1
290
     0
176
     1
 90
       50
176
     1
 62
   256
176
     0
 40
1.0
176
     0
 90
        2
176
     1
  1
strokes_ogs.tif
176
     1
290
     0
176
     1
 40
1.0
176
     1
 40
1.0
176
     1
1001
ACAD
1000
AcDbSavedByObjectVersion
1070
     0
  0
VISUALSTYLE
  5
F9
102
{ACAD_REACTORS
330
EF
102
}
330
EF
100
AcDbVisualStyle
  2
Realistic
 70
     8
177
     3
291
     0
 70
    58
 90
        2
176
     1
 90
        3
176
     1
 90
        0
176
     1
 90
        2
176
     1
 40
0.6
176
     1
 40
30.0
176
     1
 62
     7
420
 16777215
176
     1
 90
        0
176
     1
 90
        0
176
     1
 62
     7
176
     1
 62
   257
176
     1
 90
        1
176
     1
 90
        1
176
     1
 40
1.0
176
     1
 90
        8
176
     1
 62
   257
176
     1
 40
1.0
176
     1
 90
        1
176
     1
 90
        6
176
     1
 90
        2
176
     1
 62
     7
176
     1
 90
        3
176
     1
 90
        0
176
     1
 90
        0
176
     1
290
     0
176
     1
 90
       13
176
     1
 40
0.0
176
     1
 90
        0
176
     1
290
     0
176
     1
290
     1
176
     1
290
     1
176
     1
290
     0
176
     1
290
     0
176
     1
290
     0
176
     1
290
     0
176
     1
290
     0
176
     1
290
     0
176
     1
 90
       50
176
     1
 40
0.0
176
     1
 40
1.0
176
     1
 90
        0
176
     1
 62
    18
420
        0
176
     1
 90
       50
176
     1
 90
        3
176
     1
 62
     5
420
      255
176
     1
290
     0
176
     1
 90
       50
176
     1
 90
       50
176
     1
 90
       50
176
     1
290
     0
176
     1
 90
       50
176
     1
 62
   256
176
     0
 40
1.0
176
     0
 90
        2
176
     1
  1
strokes_ogs.tif
176
     1
290
     0
176
     1
 40
1.0
176
     1
 40
1.0
176
     1
1001
ACAD
1000
AcDbSavedByObjectVersion
1070
     0
  0
VISUALSTYLE
  5
1F3
102
{ACAD_REACTORS
330
EF
102
}
330
EF
100
AcDbVisualStyle
  2
Shaded
 70
    27
177
     3
291
     0
 70
    58
 90
        2
176
     1
 90
        2
176
     1
 90
        1
176
     1
 90
        2
176
     1
 40
0.6
176
     1
 40
30.0
176
     1
 62
     7
420
 16777215
176
     1
 90
        0
176
     1
 90
        4
176
     1
 62
     7
176
     1
 62
   257
176
     1
 90
        1
176
     1
 90
        1
176
     1
 40
1.0
176
     1
 90
        8
176
     1
 62
   257
176
     1
 40
1.0
176
     1
 90
        1
176
     1
 90
        6
176
     1
 90
        2
176
     1
 62
     8
420
  7895160
176
     1
 90
        3
176
     1
 90
        0
176
     1
 90
        0
176
     1
290
     0
176
     1
 90
        5
176
     1
 40
0.0
176
     1
 90
        0
176
     1
290
     0
176
     1
290
     1
176
     1
290
     1
176
     1
290
     0
176
     1
290
     0
176
     1
290
     0
176
     1
290
     0
176
     1
290
     0
176
     1
290
     0
176
     1
 90
       50
176
     1
 40
0.0
176
     1
 40
1.0
176
     1
 90
        0
176
     1
 62
    18
420
        0
176
     1
 90
       50
176
     1
 90
        3
176
     1
 62
     5
420
      255
176
     1
290
     0
176
     1
 90
       50
176
     1
 90
       50
176
     1
 90
       50
176
     1
290
     0
176
     1
 90
       50
176
     1
 62
   256
176
     0
 40
1.0
176
     0
 90
        2
176
     1
  1
strokes_ogs.tif
176
     1
290
     0
176
     1
 40
1.0
176
     1
 40
1.0
176
     1
1001
ACAD
1000
AcDbSavedByObjectVersion
1070
     0
  0
VISUALSTYLE
  5
1F2
102
{ACAD_REACTORS
330
EF
102
}
330
EF
100
AcDbVisualStyle
  2
Shaded with edges
 70
    26
177
     3
291
     0
 70
    58
 90
        2
176
     1
 90
        2
176
     1
 90
        1
176
     1
 90
        2
176
     1
 40
0.6
176
     1
 40
30.0
176
     1
 62
     7
420
 16777215
176
     1
 90
        1
176
     1
 90
        2
176
     1
 62
     7
176
     1
 62
   257
176
     1
 90
        2
176
     1
 90
        1
176
     1
 40
1.0
176
     1
 90
        8
176
     1
 62
   257
176
     1
 40
1.0
176
     1
 90
        1
176
     1
 90
        6
176
     1
 90
        2
176
     1
 62
     7
176
     1
 90
        3
176
     1
 90
        0
176
     1
 90
        0
176
     1
290
     0
176
     1
 90
        5
176
     1
 40
0.0
176
     1
 90
        0
176
     1
290
     0
176
     1
290
     1
176
     1
290
     1
176
     1
290
     0
176
     1
290
     0
176
     1
290
     0
176
     1
290
     0
176
     1
290
     0
176
     1
290
     0
176
     1
 90
       50
176
     1
 40
0.0
176
     1
 40
1.0
176
     1
 90
        0
176
     1
 62
    18
420
        0
176
     1
 90
       50
176
     1
 90
        3
176
     1
 62
     5
420
      255
176
     1
290
     0
176
     1
 90
       50
176
     1
 90
       50
176
     1
 90
       50
176
     1
290
     0
176
     1
 90
       50
176
     1
 62
   256
176
     0
 40
1.0
176
     0
 90
        2
176
     1
  1
strokes_ogs.tif
176
     1
290
     0
176
     1
 40
1.0
176
     1
 40
1.0
176
     1
1001
ACAD
1000
AcDbSavedByObjectVersion
1070
     0
  0
VISUALSTYLE
  5
1EF
102
{ACAD_REACTORS
330
EF
102
}
330
EF
100
AcDbVisualStyle
  2
Shades of Gray
 70
    23
177
     3
291
     0
 70
    58
 90
        2
176
     1
 90
        2
176
     1
 90
        3
176
     1
 90
        0
176
     1
 40
0.6
176
     1
 40
30.0
176
     1
 62
     7
420
 16777215
176
     1
 90
        2
176
     1
 90
        2
176
     1
 62
     7
176
     1
 62
     7
176
     1
 90
        1
176
     1
 90
        1
176
     1
 40
40.0
176
     1
 90
        8
176
     1
 62
     7
176
     1
 40
1.0
176
     1
 90
        1
176
     1
 90
        6
176
     1
 90
        2
176
     1
 62
     7
176
     1
 90
        3
176
     1
 90
        0
176
     1
 90
        0
176
     1
290
     0
176
     1
 90
        1
176
     1
 40
0.0
176
     1
 90
        0
176
     1
290
     0
176
     1
290
     1
176
     1
290
     1
176
     1
290
     0
176
     1
290
     0
176
     1
290
     0
176
     1
290
     0
176
     1
290
     0
176
     1
290
     0
176
     1
 90
       50
176
     1
 40
0.0
176
     1
 40
1.0
176
     1
 90
        0
176
     1
 62
    18
420
        0
176
     1
 90
       50
176
     1
 90
        3
176
     1
 62
     5
420
      255
176
     1
290
     0
176
     1
 90
       50
176
     1
 90
       50
176
     1
 90
       50
176
     1
290
     0
176
     1
 90
       50
176
     1
 62
   256
176
     0
 40
1.0
176
     0
 90
        2
176
     1
  1
strokes_ogs.tif
176
     1
290
     0
176
     1
 40
1.0
176
     1
 40
1.0
176
     1
1001
ACAD
1000
AcDbSavedByObjectVersion
1070
     0
  0
VISUALSTYLE
  5
1F0
102
{ACAD_REACTORS
330
EF
102
}
330
EF
100
AcDbVisualStyle
  2
Sketchy
 70
    24
177
     3
291
     0
 70
    58
 90
        1
176
     1
 90
        2
176
     1
 90
        2
176
     1
 90
        0
176
     1
 40
0.6
176
     1
 40
30.0
176
     1
 62
     7
420
 16777215
176
     1
 90
        2
176
     1
 90
        2
176
     1
 62
     7
176
     1
 62
     7
176
     1
 90
        1
176
     1
 90
        1
176
     1
 40
40.0
176
     1
 90
       11
176
     1
 62
     7
176
     1
 40
1.0
176
     1
 90
        1
176
     1
 90
        6
176
     1
 90
        2
176
     1
 62
     7
176
     1
 90
        6
176
     1
 90
        0
176
     1
 90
        0
176
     1
290
     0
176
     1
 90
        1
176
     1
 40
0.0
176
     1
 90
        0
176
     1
290
     0
176
     1
290
     1
176
     1
290
     1
176
     1
290
     0
176
     1
290
     0
176
     1
290
     0
176
     1
290
     0
176
     1
290
     0
176
     1
290
     0
176
     1
 90
       50
176
     1
 40
0.0
176
     1
 40
1.0
176
     1
 90
        0
176
     1
 62
    18
420
        0
176
     1
 90
       50
176
     1
 90
        3
176
     1
 62
     5
420
      255
176
     1
290
     0
176
     1
 90
       50
176
     1
 90
       50
176
     1
 90
       50
176
     1
290
     0
176
     1
 90
       50
176
     1
 62
   256
176
     0
 40
1.0
176
     0
 90
        2
176
     1
  1
strokes_ogs.tif
176
     1
290
     0
176
     1
 40
1.0
176
     1
 40
1.0
176
     1
1001
ACAD
1000
AcDbSavedByObjectVersion
1070
     0
  0
VISUALSTYLE
  5
FC
102
{ACAD_REACTORS
330
EF
102
}
330
EF
100
AcDbVisualStyle
  2
Thicken
 70
    13
177
     3
291
     1
 70
    58
 90
        2
176
     1
 90
        2
176
     1
 90
        1
176
     1
 90
        0
176
     1
 40
0.6
176
     1
 40
30.0
176
     1
 62
     7
420
 16777215
176
     1
 90
        1
176
     1
 90
        4
176
     1
 62
     7
176
     1
 62
   257
176
     1
 90
        1
176
     1
 90
        1
176
     1
 40
1.0
176
     1
 90
       12
176
     1
 62
     7
176
     1
 40
1.0
176
     1
 90
        1
176
     1
 90
        6
176
     1
 90
        2
176
     1
 62
     7
176
     1
 90
        5
176
     1
 90
        0
176
     1
 90
        0
176
     1
290
     0
176
     1
 90
        1
176
     1
 40
0.0
176
     1
 90
        0
176
     1
290
     0
176
     1
290
     1
176
     1
290
     1
176
     1
290
     0
176
     1
290
     0
176
     1
290
     0
176
     1
290
     0
176
     1
290
     0
176
     1
290
     0
176
     1
 90
       50
176
     1
 40
0.0
176
     1
 40
1.0
176
     1
 90
        0
176
     1
 62
    18
420
        0
176
     1
 90
       50
176
     1
 90
        3
176
     1
 62
     5
420
      255
176
     1
290
     0
176
     1
 90
       50
176
     1
 90
       50
176
     1
 90
       50
176
     1
290
     0
176
     1
 90
       50
176
     1
 62
   256
176
     0
 40
1.0
176
     0
 90
        2
176
     1
  1
strokes_ogs.tif
176
     1
290
     0
176
     1
 40
1.0
176
     1
 40
1.0
176
     1
1001
ACAD
1000
AcDbSavedByObjectVersion
1070
     0
  0
VISUALSTYLE
  5
F6
102
{ACAD_REACTORS
330
EF
102
}
330
EF
100
AcDbVisualStyle
  2
Wireframe
 70
     5
177
     3
291
     0
 70
    58
 90
        0
176
     1
 90
        2
176
     1
 90
        0
176
     1
 90
        0
176
     1
 40
0.6
176
     1
 40
30.0
176
     1
 62
     7
420
 16777215
176
     1
 90
        1
176
     1
 90
        4
176
     1
 62
     7
176
     1
 62
   257
176
     1
 90
        1
176
     1
 90
        1
176
     1
 40
1.0
176
     1
 90
        0
176
     1
 62
   257
176
     1
 40
1.0
176
     1
 90
        1
176
     1
 90
        6
176
     1
 90
        2
176
     1
 62
     7
176
     1
 90
        3
176
     1
 90
        0
176
     1
 90
        0
176
     1
290
     0
176
     1
 90
        1
176
     1
 40
0.0
176
     1
 90
        0
176
     1
290
     0
176
     1
290
     1
176
     1
290
     1
176
     1
290
     0
176
     1
290
     0
176
     1
290
     0
176
     1
290
     0
176
     1
290
     0
176
     1
290
     0
176
     1
 90
       50
176
     1
 40
0.0
176
     1
 40
1.0
176
     1
 90
        0
176
     1
 62
    18
420
        0
176
     1
 90
       50
176
     1
 90
        3
176
     1
 62
     5
420
      255
176
     1
290
     0
176
     1
 90
       50
176
     1
 90
       50
176
     1
 90
       50
176
     1
290
     0
176
     1
 90
       50
176
     1
 62
   256
176
     0
 40
1.0
176
     0
 90
        2
176
     1
  1
strokes_ogs.tif
176
     1
290
     0
176
     1
 40
1.0
176
     1
 40
1.0
176
     1
1001
ACAD
1000
AcDbSavedByObjectVersion
1070
     0
  0
VISUALSTYLE
  5
1F1
102
{ACAD_REACTORS
330
EF
102
}
330
EF
100
AcDbVisualStyle
  2
X-Ray
 70
    25
177
     3
291
     0
 70
    58
 90
        2
176
     1
 90
        2
176
     1
 90
        1
176
     1
 90
        1
176
     1
 40
0.5
176
     1
 40
30.0
176
     1
 62
     7
420
 16777215
176
     1
 90
        1
176
     1
 90
        0
176
     1
 62
     7
176
     1
 62
   257
176
     1
 90
        1
176
     1
 90
        1
176
     1
 40
1.0
176
     1
 90
        8
176
     1
 62
     7
176
     1
 40
1.0
176
     1
 90
        1
176
     1
 90
        6
176
     1
 90
        2
176
     1
 62
     7
176
     1
 90
        3
176
     1
 90
        0
176
     1
 90
        0
176
     1
290
     0
176
     1
 90
       13
176
     1
 40
0.0
176
     1
 90
        0
176
     1
290
     0
176
     1
290
     1
176
     1
290
     1
176
     1
290
     0
176
     1
290
     0
176
     1
290
     0
176
     1
290
     0
176
     1
290
     0
176
     1
290
     0
176
     1
 90
       50
176
     1
 40
0.0
176
     1
 40
1.0
176
     1
 90
        0
176
     1
 62
    18
420
        0
176
     1
 90
       50
176
     1
 90
        3
176
     1
 62
     5
420
      255
176
     1
290
     0
176
     1
 90
       50
176
     1
 90
       50
176
     1
 90
       50
176
     1
290
     0
176
     1
 90
       50
176
     1
 62
   256
176
     0
 40
1.0
176
     0
 90
        2
176
     1
  1
strokes_ogs.tif
176
     1
290
     0
176
     1
 40
1.0
176
     1
 40
1.0
176
     1
1001
ACAD
1000
AcDbSavedByObjectVersion
1070
     0
  0
DICTIONARYVAR
  5
146
102
{ACAD_REACTORS
330
5E
102
}
330
5E
100
DictionaryVariables
280
     0
  1
1:1
  0
DICTIONARYVAR
  5
259
102
{ACAD_REACTORS
330
5E
102
}
330
5E
100
DictionaryVariables
280
     0
  1
3.500000
  0
DICTIONARYVAR
  5
25A
102
{ACAD_REACTORS
330
5E
102
}
330
5E
100
DictionaryVariables
280
     0
  1
acadiso.lin
  0
DICTIONARYVAR
  5
145
102
{ACAD_REACTORS
330
5E
102
}
330
5E
100
DictionaryVariables
280
     0
  1
STANDARD
  0
DICTIONARYVAR
  5
84
102
{ACAD_REACTORS
330
5E
102
}
330
5E
100
DictionaryVariables
280
     0
  1
STANDARD
  0
DICTIONARYVAR
  5
227
102
{ACAD_REACTORS
330
5E
102
}
330
5E
100
DictionaryVariables
280
     0
  1
Metric50
  0
DICTIONARYVAR
  5
228
102
{ACAD_REACTORS
330
5E
102
}
330
5E
100
DictionaryVariables
280
     0
  1
Metric50
  0
DICTIONARYVAR
  5
5F
102
{ACAD_REACTORS
330
5E
102
}
330
5E
100
DictionaryVariables
280
     0
  1
2
  0
DICTIONARYVAR
  5
63
102
{ACAD_REACTORS
330
5E
102
}
330
5E
100
DictionaryVariables
280
     0
  1
1
  0
DICTIONARYVAR
  5
1AE
102
{ACAD_REACTORS
330
5E
102
}
330
5E
100
DictionaryVariables
280
     0
  1
0
  0
DICTIONARYVAR
  5
1AF
102
{ACAD_REACTORS
330
5E
102
}
330
5E
100
DictionaryVariables
280
     0
  1
0
  0
DICTIONARY
  5
61C
102
{ACAD_REACTORS
330
61A
102
}
330
61A
100
AcDbDictionary
281
     1
  0
DICTIONARY
  5
61B
102
{ACAD_REACTORS
330
61A
102
}
330
61A
100
AcDbDictionary
281
     1
  3
2448842377216
350
618
  3
2448842377232
350
619
  3
2448842387280
350
615
  3
2448842387296
350
616
  3
2448842387312
350
617
  0
DICTIONARY
  5
61F
330
21C
100
AcDbDictionary
280
     1
281
     1
  3
ACAD_XREC_ROUNDTRIP
360
620
  0
DICTIONARY
  5
205
330
22
100
AcDbDictionary
280
     1
281
     1
  0
DICTIONARY
  5
1F9
330
ED
100
AcDbDictionary
280
     1
281
     1
  3
FBXASSET
360
1FA
  0
DICTIONARY
  5
1F7
330
EC
100
AcDbDictionary
280
     1
281
     1
  3
FBXASSET
360
1F8
  0
DICTIONARY
  5
173
330
EE
100
AcDbDictionary
280
     1
281
     1
  3
BUMPTILE
360
175
  3
DIFFUSETILE
360
174
  3
FBXASSET
360
1FB
  3
OPACITYTILE
360
176
  3
REFLECTIONTILE
360
177
  0
DICTIONARY
  5
61D
330
21A
100
AcDbDictionary
280
     1
281
     1
  3
ACAD_XREC_ROUNDTRIP
360
61E
  0
DICTIONARY
  5
162
330
7F
100
AcDbDictionary
280
     1
281
     1
  3
ACAD_ROUNDTRIP_2008_TABLESTYLE_CELLSTYLEMAP
360
613
  0
XRECORD
  5
618
102
{ACAD_REACTORS
330
61B
102
}
330
61B
100
AcDbXrecord
280
     1
  1
AcDbDs::IndexedPropertySchema
  2
AcDs:Indexable
280
     1
 91
        0
  0
XRECORD
  5
619
102
{ACAD_REACTORS
330
61B
102
}
330
61B
100
AcDbXrecord
280
     1
  1
AcDbDs::HandleAttributeSchema
  2
AcDbDs::HandleAttribute
280
     7
 91
        1
284
     1
  0
XRECORD
  5
615
102
{ACAD_REACTORS
330
61B
102
}
330
61B
100
AcDbXrecord
280
     1
  1
AcDb_Thumbnail_Schema
102
{ATTRRECORD
341
616
  2
AcDbDs::TreatedAsObjectData
280
     1
291
     1
102
ATTRRECORD}
102
{ATTRRECORD
341
617
  2
AcDbDs::Legacy
280
     1
291
     1
102
ATTRRECORD}
  2
AcDbDs::ID
280
    10
 91
        8
102
{ATTRRECORD
341
618
  2
AcDs:Indexable
280
     1
291
     1
102
ATTRRECORD}
102
{ATTRRECORD
341
619
  2
AcDbDs::HandleAttribute
280
     7
282
     1
102
ATTRRECORD}
  2
Thumbnail_Data
280
    15
 91
        0
  0
XRECORD
  5
616
102
{ACAD_REACTORS
330
61B
102
}
330
61B
100
AcDbXrecord
280
     1
  1
AcDbDs::TreatedAsObjectDataSchema
  2
AcDbDs::TreatedAsObjectData
280
     1
 91
        0
  0
XRECORD
  5
617
102
{ACAD_REACTORS
330
61B
102
}
330
61B
100
AcDbXrecord
280
     1
  1
AcDbDs::LegacySchema
  2
AcDbDs::Legacy
280
     1
 91
        0
  0
XRECORD
  5
620
102
{ACAD_REACTORS
330
61F
102
}
330
61F
100
AcDbXrecord
280
     1
102
DISPLAYNAME
  1
Metric50
102
FLAGS
 90
        0
  0
XRECORD
  5
1FA
102
{ACAD_REACTORS
330
1F9
102
}
330
1F9
100
AcDbXrecord
280
     1
 70
     1
 90
429727718
  1
D62C5603-E3A1-4AEA-B7FB-FE5D8D0755AF
310
504B03040A0000080000CC70623B3DEE336E79000000790000001B0000006175746F6465736B2D64657369676E2D7061636B6167652E786D6C3C3F786D6C2076657273696F6E3D22312E302220656E636F64696E673D227574662D3822203F3E3C666F726D6174733E3C666F726D61743E687474703A2F2F736368656D612E
310
6175746F6465736B2E636F6D2F64657369676E2D7061636B6167652F323030393C2F666F726D61743E3C2F666F726D6174733E504B0304140006080800CC70623BD486FD9CA0000000F4000000130000005B436F6E74656E745F54797065735D2E786D6C7D8EC10E82300C865F65E91D8A1E8C310C0EEA1BF002731658846E
310
D98AC1B77784ABF1D8FE5FBFBF75BBCE937A534CCEB38643598122B6FEE978D0B0485F9C41B54DDD7D022595594E1A469170414C76A4D9A4D207E29CF43ECE46F218070CC6BECC4078ACAA135ACF422C856C0E68EA1BF5669944DDD7BCDE7B1F8E415D77AECB980613C2E4AC91FC167A2B244592486606FC29C8FD7F045B9A
310
EF7053A7E60B504B0304140006080800CC70623B853B8169EB0000007C01000008000000636F72652E786D6C8D90416EC3201045AF62CDB6C206821CC7C244919D9CA01740401C94182C03558F5F9C3852BBEB6A467FFE9B197D7EFC9E1EC5975982F5AE035262288C535E5B377690E21535501C055FBC8FBF6C503839990E
310
5619041F179FE64D52DE45E362569DD7661365082642A11EB9E920A89B99642953CC8E702F67A9EE7234257977194EC9EAE275C4EABCCF5EAD5940D4AC6F0E35A568B8F43562CD7046CD199FD07E60174276A7BE677B5EADB0E0D14EEFFB6A31321A0D82627C4084204C3F096B71DD52F6819B16635EADF63F509AF53FA164
310
5DDCD1EDDD17164090FCC8732078B56691CB33A85CD7DCC40F504B0304140006080800CC70623B55019EA25F0000007C00000007000000636E782E786D6C4DCB3B0E80201045D1AD90E915ED2CF8AC45050C11660C8261F98AB1B07AC9C97D42D718D865D3E909258CFD00CCE24AC6E326A164D74DC0B4128928FF32603847
310
2BA13128B1252AC747C6BAB984FC68F0B87FE8960A5C09FE86CFB69FBA01504B0304140006080800CC70623BDBABAAF470010000D40300000C0000006662782F636F72652E786D6CC553D16E823014FD95A6AF4B694182CC941A83FA05FB810A9511A125A5257EFE2E82712ECEB8A7F100CD39F7F69E734AF9FADC366850B6
310
AF8DCE7018308C942E4C59EB2AC3DE1D498AD15A706B8CFB56869196ADCAF00863C12B6B7C374385D14E6907A836A59A41D9F7CA615434B0C8705F7CAA5606D23BA8E84F41278B93AC54100640439DE0BDB320004D43C63716C7C399D30917DCFBBA9CD9BA8469F5B156168B24CED3F7248AC8769F27244EB73B92EED8862C
310
B7F13E0C179B3C8F979C8ECD82BBBABDAA2BAC924E9558448CBD9330242CFA08E3154B5651FCC6D215639C8EE5774DBE2B5F6CF2B5768B68963BB5F5588420E442FC700B1139D4CB01F450C1E918227C2E09DF070D8140C84E1E9AAB8F1340832A9CB13130A5F1376A908D57309505ECF2A0DF179C4E9D30F5B239B87E3823
310
7A79C6F31DE1A8A5AEC08474B03C7837EAE4938639B44E5932B833D2C6B6B279CDC613877FA26EE21F4A2A4C63EC7F29A2F301D1F9F7A0E37D145F504B0304140006080800CC70623B9C113CC27E0000009D0000000B0000006662782F636E782E786D6C4DCCDF0A83201C86E15B91DFB94BFB330DD428C8FB886521330DA7
310
6397BF1A1DECE883878F57749FCDA1B7892F1BBC047A23808C7F84D9FA55424E0BE6803A256208E9EF06C84F9B91703228B1C690F78B66B34CD9A5439DF5CF0BFBF65E35BCA1B8D6A5C6F540381E886698B5741C695F9503EBA150A2F8958E3DC3EA0B504B0304140006080800CC70623B7DF2F77C2A010000120200003100
310
00006662782F41393633353835312D344632462D344230382D423046372D3739314545314133324237412F636F72652E786D6C8D51DB8EC22014FC15C2939B0D2DB4B45643319AE817EC0F6041255A68B86CFCFC856D4D76DF7CE190393373060EDB3DC707F856CE6B6B7A480A0C81328395DA5C7B18C3057510EC3873D686
310
3F34088C18550F330C39BB3A1BA7051AAC09CA84841A2BD5020AEF55806078A44B0FFD7053A328440C89E1EFC52486BBB8AA8214A99D789CF9E05200300FC927E4FB4D5B375D43103D5527440FB843077C5AA3F5861C8F645F5787F59E95B390B318B55CE45AA638FAA2957BD7248B390B7A7CC51F9C124149C82B8C378810
310
84AB2F42B7B8DD56F413775B8C5999E9FF4471926F8AA236A1AE96B8B3CC434E5839373893369E1FAF30EA395917409EB7F26AF8801C171837A4A6AC9C89E9F9C9B1A58BA30FD6A5EF5DDDCF894B9AD9B6A59C957943A9FCAE2FD5BC4DFE03504B0304140006080800CC70623BAD7543B64E01000033030000300000006662
310
782F41393633353835312D344632462D344230382D423046372D3739314545314133324237412F636E782E786D6CD593CD6EC32010845F0571AD6CE3D48AD20813A9873E410FBD12D82434182C7EAAE6EDBB2424CD25871E7B41D6EC30B3FA84F9E67BB2E40B4234DE8DB46F1925E094D7C6ED479AD3AE5951B2113C789FEE
310
6C943839C1488B4C05DF079FE72A69D8C96C13AAD6B8631503449F83828872B949AC57D26200B826A308D316B4064D6E46FCDA41C05550DC9E483A00797BFD207EFB092A45DE9514C1BBD22178396BD39D891265658C238DEA00936C654E5E433CB65A26D9F6EDB5EBC14EBF49A45CB856E66048291F6939A9A81BB5C89177
310
38143CA680F4AA299D66A042CEB3354A2684DC9D8D178FE0D9B8B41CAAD720F880EE7EF93C0C18769E099ECC04D5A102C8049A8A05632F4DDF376CF1DE0F6BB65C2F8627B65A33C6BB62177CEBBDAD973006829F89F22E814B54F4BC2BE347F8AA8F681390B50FA73F804400B5F542E796F19FF974E7F78DB802FE05E20750
310
4B0304140006080800CC70623BE75B7789680500003C100000340000006662782F41393633353835312D344632462D344230382D423046372D3739314545314133324237412F6F626A656374732E786D6CAD575B8F9B3818FD2B887D06C22499CB8AA1CA655245D5B455A356FB305264C061D8018C6C3393D95FBFC7600890
310
A4CD5EF210B0B1BFEBF98E3F7B1FF6596ABC522E1296DF9BAE3D320D9A872C4AF2F8DE2CE5CEBA358D0FBEC719939D65A691938CDE9B6ADAF4BD98B3B2D05311DD91329583D9D5FC0F438434A7A611A644887B5384CF34233629258BA878B12322891DEFF6B66BD70BFB62634E8AE781D082709A4B588AF91C528CDA28B73F
310
1C998EEF39EABBEFA97FBD6A7C7E9553F9D3D79FE442923C3C523610337627CB87ABE99D359D4CC6D6E4FACAB5E6ABF9D2726FC6A3C5F56271377BB88362213924694B38DD99FE47C48627A1E7D49F5A8BB5E1A74C0A599ED3B0F21F1E56366B89112D681E218F0915D0D6F17AD41FBA2A369DCF6335D62ABBD39779D5DDD1
310
11D4D8DE3CBB96B2E04FB8202E41051754A1AA8E8F76B4C6DFE810B580B1547F4B84911149794252234D024EF8BBE963A95AE27B3D310A9D5C215C7960FAEE415ED75694C6AFB17BCACA5D99A60A9AA65F217B0BFC53292ACB92BF283FAD0D3621576592CB5BED907C2FA8E9DF794E35E97BEA31BED21FEB401ABB94C44839
310
DCACBF0E1C5DA8DA5B2F4DFFD32AD86F543D9E565E7056502E157C00AD2671CD534549AB752FCA9CDA00677A313F04E51B22FF19E57B300579E3C97EB29F682D92935CEC18CF901B7B54FD8C51F362B56FC72FE0B3C1EAE335EDCCBF5AEC39ADB17DC238973F804BA5E6F6BFE7AF1FB32E523BE9F3BD571418E3631DCA4D48
310
5250CF639223210A9446CA30052EDF057BD35F8329C1ECD84552BF0DC8D18BE7BCE23BFE6BD960AB4A7DE79923A103BEBD80F911CBAA2C60DB19B01CF164A5583B772EE6D3FFA56666CBCDA74DC97724A48F9A58967497E489C4D979006FD7A05E227A1EBDD0F737C623387A9C844D3709995625106D157315F8B8392CD4E0
310
A0B9A720C4BE9829CEF37EA1E13111214D53925356365ADA634861B52519DD27A00AEB808EAF0628E6F435519D446F45CF2C9CF5214F0A15B2F6D06B79DA3EE3CBF7F56780D2F4E7EF73A0F5E5B02A38D07DC852C6B7C1FBB6664213E0C39E3EBA7FF4E1AD23EA2829407C85E586727488B751B2DB9502BC7B228A3FD68B6E
310
A65A22397E690AA8D158D7E404EC8CDA235CC3B7D1898680131CEC2CDF2638C65196279577750F15884AEE19F94199155B92B13297978469D4F8D358DF0AEF7631E28DC8F0D9F437D5D39A83B2231A1D52D543813A824EF8D44BCFF2FA6A31BD1E8DAD87F1CCB526B3879935BF59CDADD5C37479BB1CDD4CA7B3556B516589
310
EF352754B706114D9C885EC9131DE6EFEB43D99AFE2391C2F958179413D7CFEF6B1B6DB1E7600F00DE6E5C67454A339A4BA2E0FBA85ED26F045D454F463DBFCE484C2F90F2E5E3666003662ED8F755951A7D1BECD5B30B550B2785C8E7320B7292A4838DDA71BBC863ED7613CAF659337A3354231D4FF4A182A54904C2898C
310
98B28C4AD0CE056CCF332A80986E571EE9DBC305BB5FEB7E509220A58D25CF042D712A806AC0AD0C657FDEF80D2D9CEAA2EE4D1C76F60BFE74219A06527D6F82DF6412526107381E55E353090704D085B52408A8913C4ED159D79BDA71BB4BC506F4831350EB6F975CD22D69BF7AC49B91A2C0A9DDA3D5CA36AD20FC478E37
310
E61844E2352865EBCB61A275A65283CAAA9DD27703B4102F5AF51EF5F573B75CBB5AD38BC845F7A49F82A0966A49C2E3EA5EA0ECD326CD965F1DB402C6FA8B51A4658C5C5E2EC9E214602E55810345408596591009A82E7E7FFACA19EEA299B14A0081A705CB3296EBC14CDF658DCD336EA6D1136881AAEB87B81AB9EE53D5
310
F5EB8BC8362082DA24122F98680A4E7930C01A0079749CEA14382A0783E5EBA5A10F8C098456A03D6A4AEB6BB881E2513747552A5DB22C7EDAF83BD5528081A365F7FF06504B0304140006080000CC70623B000000000000000000000000350000006662782F41393633353835312D344632462D344230382D423046372D37
310
39314545314133324237412F76657274696365732E62696E504B0304140006080800CC70623BF270F1330600000004000000360000006662782F41393633353835312D344632462D344230382D423046372D3739314545314133324237412F747269616E676C65732E62696E636660600000504B0304140006080000CC7062
310
3B000000000000000000000000370000006662782F41393633353835312D344632462D344230382D423046372D3739314545314133324237412F617474726962757465732E62696E504B0304140006080800CC70623B08DA0BD19000000041010000360000006662782F41393633353835312D344632462D344230382D4230
310
46372D3739314545314133324237412F6469726563746F72792E786D6C858F410AC3201045AF22B36F53E9A60B35CBEEBAE80D244E44489C6234F4F835464A48035D0DF398FF9F8AF63D0E6CC63039F212F8F9020C7D47C6792B21C5FE7403D62A1188E2E60C98D7234A5830286103A55745067B9D86B8A3CF9C7F90C11DE6
310
07FB144396D7B6A82D282E9A152AD114D5EF2CB866EEE831B8EEA07A7BB5A8D7D61A2BAAEB7FD5F70921FF497D00504B0304140006080800CC70623BEDD1DC58FD000000A00100003B0000006662782F41393633353835312D344632462D344230382D423046372D3739314545314133324237412F7265736F75726365732F
310
636F72652E786D6C8D504B6E833010BD0A9A6D65B00922041947112427E8052C33A156828DFCA97AFC9A40A576D7CDCCE87D344F8F9FBFE667F689CE6B6B3A6039850C8DB2A336530731DC4903D95970676DF82583CCC8193B5861107C72362E3BA4AC096842428D1D7107A5F7182053CF7474E0D507CE32973124857FE48B
310
540F3961CEF244279DE03EB81420DB9EAC1384436FA353E879B1B182C7A8C75DA3C7F453DF353A1075D537A7BA6464B8F535A99AE14A9A2BBD90E350DD183B5CFABE3AF262350B1EF4FC9351399401471025A527C218A1E53BAB5A5AB765F5469B96525EACF23FA6B88CFF34456DC2A1DCE36E360F82A5202F42F062ED2BAD
310
579969AFDD8A6F504B010214000A0000080000CC70623B3DEE336E79000000790000001B00000000000000000000000000000000006175746F6465736B2D64657369676E2D7061636B6167652E786D6C504B01021400140006080800CC70623BD486FD9CA0000000F40000001300000000000000000000000000B20000005B
310
436F6E74656E745F54797065735D2E786D6C504B01021400140006080800CC70623B853B8169EB0000007C010000080000000000000000000000000083010000636F72652E786D6C504B01021400140006080800CC70623B55019EA25F0000007C000000070000000000000000000000000094020000636E782E786D6C504B
310
01021400140006080800CC70623BDBABAAF470010000D40300000C00000000000000000000000000180300006662782F636F72652E786D6C504B01021400140006080800CC70623B9C113CC27E0000009D0000000B00000000000000000000000000B20400006662782F636E782E786D6C504B01021400140006080800CC70
310
623B7DF2F77C2A010000120200003100000000000000000000000000590500006662782F41393633353835312D344632462D344230382D423046372D3739314545314133324237412F636F72652E786D6C504B01021400140006080800CC70623BAD7543B64E010000330300003000000000000000000000000000D2060000
310
6662782F41393633353835312D344632462D344230382D423046372D3739314545314133324237412F636E782E786D6C504B01021400140006080800CC70623BE75B7789680500003C10000034000000000000000000000000006E0800006662782F41393633353835312D344632462D344230382D423046372D3739314545
310
314133324237412F6F626A656374732E786D6C504B01021400140006080000CC70623B0000000000000000000000003500000000000000000000000000280E00006662782F41393633353835312D344632462D344230382D423046372D3739314545314133324237412F76657274696365732E62696E504B01021400140006
310
080800CC70623BF270F133060000000400000036000000000000000000000000007B0E00006662782F41393633353835312D344632462D344230382D423046372D3739314545314133324237412F747269616E676C65732E62696E504B01021400140006080000CC70623B0000000000000000000000003700000000000000
310
000000000000D50E00006662782F41393633353835312D344632462D344230382D423046372D3739314545314133324237412F617474726962757465732E62696E504B01021400140006080800CC70623B08DA0BD1900000004101000036000000000000000000000000002A0F00006662782F41393633353835312D344632
310
462D344230382D423046372D3739314545314133324237412F6469726563746F72792E786D6C504B01021400140006080800CC70623BEDD1DC58FD000000A00100003B000000000000000000000000000E1000006662782F41393633353835312D344632462D344230382D423046372D3739314545314133324237412F7265
310
736F75726365732F636F72652E786D6C504B0506000000000E000E0080040000641100000000
  0
XRECORD
  5
1F8
102
{ACAD_REACTORS
330
1F7
102
}
330
1F7
100
AcDbXrecord
280
     1
 70
     1
 90
429727718
  1
30362254-06B7-45E0-A893-8CFA70E3D6BC
310
504B03040A0000080000CC70623B3DEE336E79000000790000001B0000006175746F6465736B2D64657369676E2D7061636B6167652E786D6C3C3F786D6C2076657273696F6E3D22312E302220656E636F64696E673D227574662D3822203F3E3C666F726D6174733E3C666F726D61743E687474703A2F2F736368656D612E
310
6175746F6465736B2E636F6D2F64657369676E2D7061636B6167652F323030393C2F666F726D61743E3C2F666F726D6174733E504B0304140006080800CC70623BD486FD9CA0000000F4000000130000005B436F6E74656E745F54797065735D2E786D6C7D8EC10E82300C865F65E91D8A1E8C310C0EEA1BF002731658846E
310
D98AC1B77784ABF1D8FE5FBFBF75BBCE937A534CCEB38643598122B6FEE978D0B0485F9C41B54DDD7D022595594E1A469170414C76A4D9A4D207E29CF43ECE46F218070CC6BECC4078ACAA135ACF422C856C0E68EA1BF5669944DDD7BCDE7B1F8E415D77AECB980613C2E4AC91FC167A2B244592486606FC29C8FD7F045B9A
310
EF7053A7E60B504B0304140006080800CC70623B1EC5D7A3EB0000007C01000008000000636F72652E786D6C8D90416EC3201045AF82665B6103C6756C6122AB4D4ED00B204C5C94182C03558F5F9C3852BBEB6A467FFE9B197D71FC9E6FE8CBACC17AD7032D0820E3B41FAD9B7A48F1820F808E52ACDEC75F36404ECDA687
310
4D0629A6D5A76597B477D1B89855E747B38B2A041301E95B6E7A08FAD3CCAA50296647B8168BD2573599823EBB0CA76447F43862C7BCCF5EAC59410E4DDD9C7973C2755553CCCFA4C603E3040F1565ED3B1FDE4E432BCA0D9622DAF9795FAF464533826484B498524CD807E51D79ED187F21878E10516EF63F505AC67F42C9
310
BA58B1FDDD071640D2FCC87D2045B96591CB3DA85CB7DCE40F504B0304140006080800CC70623B55019EA25F0000007C00000007000000636E782E786D6C4DCB3B0E80201045D1AD90E915ED2CF8AC45050C11660C8261F98AB1B07AC9C97D42D718D865D3E909258CFD00CCE24AC6E326A164D74DC0B4128928FF32603847
310
2BA13128B1252AC747C6BAB984FC68F0B87FE8960A5C09FE86CFB69FBA01504B0304140006080800CC70623B8C9102E971010000D40300000C0000006662782F636F72652E786D6CC5535B6E833010BC8AE5DF0A6C08340F1947A84D4ED00B38C6A128602363A31CBFCB234A53A551FA553EC09AD9F5CE8C31DB9E9B1AF5CA
310
7695D1198E428A91D2D214952E33ECDD315861B4E5CC1AE3BE9561A445A3323CC098B3D21ADFCE9034DA29ED00D5A6503328BA4E398C640D8B0C77F253352214DE4145770A5B214FA2546114020D759C75CE8200340D19DE981F0F6746269C33EFAB6266AB02A655C74A59CCF365BADC27CB5D902ED22848F6340DF238A141
310
BE88E2F57B92BFEDF23523433367AE6A2EEAA455C2A902F398D2751045018D3FA264435F3771F242571B4A1919CA6F9A7C5B3CD9E42BED16F12C776AEB308F40C848FC700B1139D4891EF410CEC810227CC6846F8386402064270EF5C5C709A05E49676C024C61FC95EA45ED154CA5211D1FF4FB8291A913A68E9B83EBBB33
310
E2A7673CDE118E5AE8124C0807CB8377834E366998436B950D7A7746DAD846D4CFD978E0F04FD455FC5D49D2D4C6FE9722321F10997F0F32DC47FE05504B0304140006080800CC70623BFFEA85907E0000009D0000000B0000006662782F636E782E786D6C4DCCD10A83201886E15B91FFDC95D95A811AB6F23E625948A6C3
310
E9D8E5AF46073BFAE0E1E365ED67B3E8ADC3CB78C7815C7240DA3DFC64DCC221C519D7805AC182F7F1EF06C88D9BE6703008B6049F9E274D7A1E938DBB5AE3D6131B2589BA0D3D965551E0B2EA732C9B9A624AAEB41E3A557677029960D9AFB4EF11165F504B0304140006080800CC70623B4FEEA4082C0100001202000031
310
0000006662782F39464131463745442D413632322D343644302D413938332D3331353338454246344243312F636F72652E786D6C8D515B6EC32010BC0AE2AB55850DD871ED0813254D72825EC00192A2C460F1A872FC42ED48ED5F7E00CDCECCCEB26C731F6FE05B39AFADE921293004CA082BB5B9F43086336A21D870E6AC
310
0D7F68109861543DCC30E4ECE26C9C164858139409093556AA051CBC570102714B8F1E7AF1A5C6A11862480C7F2DA6415C878B2A4891CA89C7990F2E050073937C42DE1DB7E4F87ED8A36D4329AA9B3D46DBAEAD504556557BD81DEBDD0761E52CE42C462D17B996298E3E6BE59E35C962CE821E1FF18553435012728A7187
310
0841987E927A8D9B35ADDF70BBC6989599FE4F1427F9A4286A132ABAC49D651EF234CD5CE04CDA78BA3DC2A8FB645D00B9DF8B57E215725C60BCA2A463E54C4CE327C7A65E1C7DB02E7DEFCBF594B864C5CA6CDBD49C957943E9FA5D5FBAF336F90F504B0304140006080800CC70623BAD7543B64E01000033030000300000
310
006662782F39464131463745442D413632322D343644302D413938332D3331353338454246344243312F636E782E786D6CD593CD6EC32010845F0571AD6CE3D48AD20813A9873E410FBD12D82434182C7EAAE6EDBB2424CD25871E7B41D6EC30B3FA84F9E67BB2E40B4234DE8DB46F1925E094D7C6ED479AD3AE5951B2113C
310
789FEE6C943839C1488B4C05DF079FE72A69D8C96C13AAD6B8631503449F83828872B949AC57D26200B826A308D316B4064D6E46FCDA41C05550DC9E483A00797BFD207EFB092A45DE9514C1BBD22178396BD39D891265658C238DEA00936C654E5E433CB65A26D9F6EDB5EBC14EBF49A45CB856E66048291F6939A9A81BB5
310
C8917738143CA680F4AA299D66A042CEB3354A2684DC9D8D178FE0D9B8B41CAAD720F880EE7EF93C0C18769E099ECC04D5A102C8049A8A05632F4DDF376CF1DE0F6BB65C2F8627B65A33C6BB62177CEBBDAD973006829F89F22E814B54F4BC2BE347F8AA8F681390B50FA73F804400B5F542E796F19FF974E7F78DB802FE05
310
E207504B0304140006080800CC70623B16AB87BA640500003C100000340000006662782F39464131463745442D413632322D343644302D413938332D3331353338454246344243312F6F626A656374732E786D6CAD575B6FA33818FD2B887DE6924B3BED8A326A92B68A663B534DD4D13E548A0C38942D60649B369D5FBFC7
310
600890A493BDE42160637FD7F31D7FF63E6FB3D478A55C242CBF3247B66B1A340F5994E4F19559CA8D75611A9F7D8F33263BCB4C232719BD32D5B4E97B316765A1A722BA21652A07B3B7B33F0D11D29C9A46981221AE4C113ED38CD8A4942CA2E2C58E882476BCD9DA23BB5ED8171B73523C0F841684D35CC252CCE79062D4
310
468DFA43D7747CCF51DF7D4FFDEB5593E3AB9CCA9FBEFE241792E4E19EB28198C968BAB8199F5D5A67D3E9C49A9E8F47D6EC76B6B0469F26EEFC7C3EBFBCBEB98462213924694B38DD98FE1D62C393D073EA4FADC5DAF04326852CCF6958F90F0F2B9BB5C48816348F90C7840A68EB78EDF68723159BCEE7891A6B95DDE9D3
310
BCEAEEE8086A6C6F9E5D4B59F0175C10A7A0820BAA5055C7473B5AE3CFDD452D602CD5DF12616444529E90D448938013FE6EFA58AA96F85E4F8C42275708571E98FE6827AF6B2B4AE3D7D83D64E5A64C53054DD3AF90BD06FEA9149565C94FCA0F6B834DC85599E4F2423B24DF0B6AFA979E534DFA9E7A4CC6FA631D486393
310
921829879BF5D781A373557BCB85E97FB90DB62B558F8795179C15944B051F40AB495CF35451D26A4727654E6D8033BD98EF82F21D91FF8AF2DD9982BCF1643BDD4EB516C9492E368C67C88DED563FC36D5EACF66DFF057C3658BDBFA69DF9578B3DA735B64F18C7F20770A9D45CFCF7FCF563D6456A277DBEF78A02637CA2
310
43B90A490AEAB94F72244481D24819A6C0E59B606BFA4B3025981DBB48EAB701D97BF19C577CC77F2D1B6C55A9EF3C732474C0B727303F625995056C3B02963D9EAC146BE78EC5FCEC7FA999EBC5EACBAAE41B12D27B4D2C0BBA49F244E2ECDC81B76B502F113D8F5EE8FB1BE3111CDD4FC2AA9B844CAB1288B68AB90A7CDC
310
1C166AB0D3DC5310625FCC14E779BFD0709F8890A629C9292B1B2DED31A4B0DA928CEE135085754027E3018A397D4D5427D15BD1330B677DC8934285AC3DF45A9EB68FF8F2B8FC0A509AFEECFD0FF2DE25CC6047F7214B195F07EFEB9A094D800F7BFAE8FED187B78EA8A3A400F115961BCAD1215E47C966530AF0EE8128FE
310
58CEBB996A8964FFA529A046635D9353B0336A8F700DDF46271A024E70B0B37C9DE01847591E54DED53D54202AB947E4076556AC49C6CA5C9E1226B7F1A7B1BE15DEED62C41B91E1B3E9AFAAA735036547343A925075041DF0A9979E893B391F8FCFA6967B3EFB644DCF6E5CEBFAE272625DCC6FAF3FB93793C5F90CE1EF57
310
407342756B10D1C489E8953CD1617E5CEECAD6F4EF8914CE5D5D504E5C3F1F9736DA62CFC11E00BCDDB8CC8A9466349744C1F75EBDA4DF09BA8A9E8C7A7E9991989E20E5DBDD6A6003664ED8F7A04A8DBE0DF6EAD9B9AA858342E47399053949D2C146EDB85DE4B176BB0965FBAC19BD19AA918E27FA50C1D22402E144464C
310
59462568E704B6E71915404CB72B8FF4EDE184DDAF753F284990D2C6926782963815403548A70C657FDEF80D2D9CEAA2AE4C1C76F60BFE74219A06527D6582DF6412526107381E55E353090704D085B52408D0933C4ED159D79BDA71BB4BC506F4831350EB6F979CD22D69BF7AC49B91A2C0A9DDA3D5CA36AD20FC478E37E6
310
1844E2352865EBCB6EA275A652E3836BE04EFB400BF1A2556F515F1FBB35B2AB35BD889C744FFA1004B5544B121E57F70215746DD2F5E2C1412B602CBF19455AC6C8E5E9922C4E01E65215385004546899059180EAFCF7A707CE7017CD8CDB0410789AB32C63B91E5CEBBBACB17AC6CD347A022D5075FD106377347AAABA7E
310
7D11590744509B44E205134DC1290F06580320F78E537D3D73540E06CB970B431F185308AD40BBD794D6D77003C5A36E8EAA54BA64597CD8F83BD552A080A365F7FF06504B0304140006080000CC70623B000000000000000000000000350000006662782F39464131463745442D413632322D343644302D413938332D3331
310
353338454246344243312F76657274696365732E62696E504B0304140006080800CC70623BF270F1330600000004000000360000006662782F39464131463745442D413632322D343644302D413938332D3331353338454246344243312F747269616E676C65732E62696E636660600000504B0304140006080000CC70623B
310
000000000000000000000000370000006662782F39464131463745442D413632322D343644302D413938332D3331353338454246344243312F617474726962757465732E62696E504B0304140006080800CC70623B08DA0BD19000000041010000360000006662782F39464131463745442D413632322D343644302D413938
310
332D3331353338454246344243312F6469726563746F72792E786D6C858F410AC3201045AF22B36F53E9A60B35CBEEBAE80D244E44489C6234F4F835464A48035D0DF398FF9F8AF63D0E6CC63039F212F8F9020C7D47C6792B21C5FE7403D62A1188E2E60C98D7234A5830286103A55745067B9D86B8A3CF9C7F90C11DE607
310
FB144396D7B6A82D282E9A152AD114D5EF2CB866EEE831B8EEA07A7BB5A8D7D61A2BAAEB7FD5F70921FF497D00504B0304140006080800CC70623B0D6EF93BFE000000A00100003B0000006662782F39464131463745442D413632322D343644302D413938332D3331353338454246344243312F7265736F75726365732F63
310
6F72652E786D6C8D50596E833010BD0A9ADFCA60B334011947A8694ED00B586642AC041B79A97AFC9A40A5F6AF3F33A3B7689E1E3F7DCD8FEC139DD7D6F4C0720A191A65476DA61E62B892236427C19DB5E1970C322367EC618541F0C9D9B8EC90B226A009093576C41D94DE63804C3DD2D18357379C652E63480A7FCF17A9
310
EE72C29CE5894E3AC17D702940B63D59270887DE46A7D0F36263058F518FBB468FE9A7BE6A7420864373B8D4873369AA8691FA421B3294352543C5CAF65C0F6FEF43CB8BD52C78D0F34F46E550061C419494B6843142CB0F5677F4B52BEB177AEC28E5C52AFF638ACBF84F53D42654E51E77B379102C05791282176B5F693D
310
CB4C7BED567C03504B010214000A0000080000CC70623B3DEE336E79000000790000001B00000000000000000000000000000000006175746F6465736B2D64657369676E2D7061636B6167652E786D6C504B01021400140006080800CC70623BD486FD9CA0000000F40000001300000000000000000000000000B20000005B
310
436F6E74656E745F54797065735D2E786D6C504B01021400140006080800CC70623B1EC5D7A3EB0000007C010000080000000000000000000000000083010000636F72652E786D6C504B01021400140006080800CC70623B55019EA25F0000007C000000070000000000000000000000000094020000636E782E786D6C504B
310
01021400140006080800CC70623B8C9102E971010000D40300000C00000000000000000000000000180300006662782F636F72652E786D6C504B01021400140006080800CC70623BFFEA85907E0000009D0000000B00000000000000000000000000B30400006662782F636E782E786D6C504B01021400140006080800CC70
310
623B4FEEA4082C0100001202000031000000000000000000000000005A0500006662782F39464131463745442D413632322D343644302D413938332D3331353338454246344243312F636F72652E786D6C504B01021400140006080800CC70623BAD7543B64E010000330300003000000000000000000000000000D5060000
310
6662782F39464131463745442D413632322D343644302D413938332D3331353338454246344243312F636E782E786D6C504B01021400140006080800CC70623B16AB87BA640500003C1000003400000000000000000000000000710800006662782F39464131463745442D413632322D343644302D413938332D3331353338
310
454246344243312F6F626A656374732E786D6C504B01021400140006080000CC70623B0000000000000000000000003500000000000000000000000000270E00006662782F39464131463745442D413632322D343644302D413938332D3331353338454246344243312F76657274696365732E62696E504B01021400140006
310
080800CC70623BF270F133060000000400000036000000000000000000000000007A0E00006662782F39464131463745442D413632322D343644302D413938332D3331353338454246344243312F747269616E676C65732E62696E504B01021400140006080000CC70623B0000000000000000000000003700000000000000
310
000000000000D40E00006662782F39464131463745442D413632322D343644302D413938332D3331353338454246344243312F617474726962757465732E62696E504B01021400140006080800CC70623B08DA0BD190000000410100003600000000000000000000000000290F00006662782F39464131463745442D413632
310
322D343644302D413938332D3331353338454246344243312F6469726563746F72792E786D6C504B01021400140006080800CC70623B0D6EF93BFE000000A00100003B000000000000000000000000000D1000006662782F39464131463745442D413632322D343644302D413938332D3331353338454246344243312F7265
310
736F75726365732F636F72652E786D6C504B0506000000000E000E0080040000641100000000
  0
XRECORD
  5
175
102
{ACAD_REACTORS
330
173
102
}
330
173
100
AcDbXrecord
280
     1
270
     1
271
     1
  0
XRECORD
  5
174
102
{ACAD_REACTORS
330
173
102
}
330
173
100
AcDbXrecord
280
     1
270
     1
271
     1
  0
XRECORD
  5
1FB
102
{ACAD_REACTORS
330
173
102
}
330
173
100
AcDbXrecord
280
     1
 70
     0
 90
1673772943
  1
ECE7A1D2-D628-4531-984C-D00F80459256
310
504B03040A0000080000CC70623B3DEE336E79000000790000001B0000006175746F6465736B2D64657369676E2D7061636B6167652E786D6C3C3F786D6C2076657273696F6E3D22312E302220656E636F64696E673D227574662D3822203F3E3C666F726D6174733E3C666F726D61743E687474703A2F2F736368656D612E
310
6175746F6465736B2E636F6D2F64657369676E2D7061636B6167652F323030393C2F666F726D61743E3C2F666F726D6174733E504B0304140006080800CC70623BD486FD9CA0000000F4000000130000005B436F6E74656E745F54797065735D2E786D6C7D8EC10E82300C865F65E91D8A1E8C310C0EEA1BF002731658846E
310
D98AC1B77784ABF1D8FE5FBFBF75BBCE937A534CCEB38643598122B6FEE978D0B0485F9C41B54DDD7D022595594E1A469170414C76A4D9A4D207E29CF43ECE46F218070CC6BECC4078ACAA135ACF422C856C0E68EA1BF5669944DDD7BCDE7B1F8E415D77AECB980613C2E4AC91FC167A2B244592486606FC29C8FD7F045B9A
310
EF7053A7E60B504B0304140006080800CC70623BD9DDAED0EC0000007C01000008000000636F72652E786D6C8D90416EC3201045AF82665B61836D9CD8C2444DD39CA01740405C94182C03558F5F9C3852BBEB6A467FFE9B197D7EF89E6EE8CB2CC17A37002D0820E394D7D68D03A478C17B4007C117EFE32F1B20272733C0
310
2A83E0E3E2D3BC49CABB685CCCAAF3DA6CA20CC14440EA969B0182FA34932C648AD911AEC52CD5558EA6A0CF2EC329598D1E47ACCEFBECC59A050463A7EA5833865FEBDD0E37353BE3EE8DBDE3F6786A48D375FBF6CC78B9C282473B3DEFABC5C86834888A900E538A49F5419B9EB47DD5BC907D4F082F57FB1F28CDFA9F50
310
B22ED6D5F6EE030B20687EE43E10BC5CB3C8E51E54AE6B6EE207504B0304140006080800CC70623B55019EA25F0000007C00000007000000636E782E786D6C4DCB3B0E80201045D1AD90E915ED2CF8AC45050C11660C8261F98AB1B07AC9C97D42D718D865D3E909258CFD00CCE24AC6E326A164D74DC0B4128928FF326038
310
472BA13128B1252AC747C6BAB984FC68F0B87FE8960A5C09FE86CFB69FBA01504B0304140006080800CC70623BA24EB22D72010000D40300000C0000006662782F636F72652E786D6CC5535B6E833010BC8AE5DF0A6C5E49888CA3A6694ED00B38E05014B091B1518EDFE511A5A9D228FD2A1F60CDEC7A67C6986DCE4D8D7A
310
69BA4AAB0C073EC548AA5C17952A33ECECD15B61B4E1CC686DBF9561A44423333CC098B3D268D7CE50AE9595CA02AA74216750749DB418E5352C32DCE59FB211BE70162ABA93DF8AFC244AE9073ED050C759670D0840D390E18DF9F1706664C23973AE2A66B62A605A75ACA4C13C4976E1364A12EF355A2EBD384AF65EFA96
310
BC7B8BED2EA6719AAE16FB8491A199335B351775B991C2CA02F390D2D40B028F861F41BCA68B7518BFD0D59A524686F29B26D7164F36B94AD9289CE54E6D1DE6010819891F6E21228B3AD1831EC219194284CF98F06DD01008846CC5A1BEF83801D4CBDC6A1303536877A57A513B0953A94FC707FDBE6064EA84A9E3E6E0FA
310
EE8CF0E9198F7784A316AA0413C2C2F2E0ECA0934D1AE6D05A69BCDE9E91D2A611F573361E38FC1375157F5752AE6B6DFE4B11990F88CCBF0719EE23FF02504B0304140006080800CC70623B408A7D3B7C0000009D0000000B0000006662782F636E782E786D6C4DCCD10A83201886E15B91FFDC552A92A0064DBC8F581632
310
D3703A76F9ABD1C18E3E78F878E5F0D9027ABBFCF2292AE86E2D20171F69F6715550CB827B40839639A5F2770314A7CD293819B45C73AAFB45B35BA61ACAA1C1C7E7855C58C15BC331339661262CC762340413D68D77DA5B42298546CBE6573AF60CEB2F504B0304140006080800CC70623B449FB9BD290100001202000031
310
0000006662782F36394639363044362D344446342D343946362D394244322D3234314243333846323333332F636F72652E786D6C8D515B6EC32010BC0AE22B55850D98B871848994463E412FE002495162B07854397EA176A4F62F3F2C9A9D991D587EB84F37F0AD7D30CEF6905418026DA553C65E7A98E219ED203808EE9D
310
8B7F6810D871D23D2C3014FCE25D9A57483A1BB58D19B54EE9151C43D0110279CB971E06F9A5A7B11A53CC8C70ADE6515EC78BAE4895DB992778883E0700CB907242D17643D7E2538BD869608875438BBAE38922CAC8F1BDD90DB4691A5E2F42C153326A951B95E398B3D1FE599322163C9AE9115F7A3D46ADA0A018778810
310
84E907617BDCEE297BC5BB3DC6BC2EF47FA234AB2745C9D8D8D035EE220B50105E2F0DC1954B9FB747187D9F9D8FA0CCDB042D5FA0C015C65B42DF78BD10F3F3B363CB56C7109DCFDFBBB97E662ED92EB62D13BC2E1BCAE5777DB9966D8A1F504B0304140006080800CC70623BAD7543B64E01000033030000300000006662
310
782F36394639363044362D344446342D343946362D394244322D3234314243333846323333332F636E782E786D6CD593CD6EC32010845F0571AD6CE3D48AD20813A9873E410FBD12D82434182C7EAAE6EDBB2424CD25871E7B41D6EC30B3FA84F9E67BB2E40B4234DE8DB46F1925E094D7C6ED479AD3AE5951B2113C789FEE
310
6C943839C1488B4C05DF079FE72A69D8C96C13AAD6B8631503449F83828872B949AC57D26200B826A308D316B4064D6E46FCDA41C05550DC9E483A00797BFD207EFB092A45DE9514C1BBD22178396BD39D891265658C238DEA00936C654E5E433CB65A26D9F6EDB5EBC14EBF49A45CB856E66048291F6939A9A81BB5C89177
310
38143CA680F4AA299D66A042CEB3354A2684DC9D8D178FE0D9B8B41CAAD720F880EE7EF93C0C18769E099ECC04D5A102C8049A8A05632F4DDF376CF1DE0F6BB65C2F8627B65A33C6BB62177CEBBDAD973006829F89F22E814B54F4BC2BE347F8AA8F681390B50FA73F804400B5F542E796F19FF974E7F78DB802FE05E20750
310
4B0304140006080800CC70623B8D05915C650500003B100000340000006662782F36394639363044362D344446342D343946362D394244322D3234314243333846323333332F6F626A656374732E786D6CAD575B6FA33814FE2B887D06429276DA1565D4266D158D3A339A6846FB502932E050B66023DB74D2FDF5FB190C01
310
9276B2973C046C8ECFF53B17071F77456EBD502133CEAE6CDF9DD81665314F32965ED995DA3A17B6F5310C04E7AA47665B8C14F4CAD6DB7618A48257A5D94AE89654B91AEDDEDDFC61C998326A5B714EA4BCB265FC440BE2924AF184CA6737218AB8E976E7FA6E4338649B0A523E8D98964450A6A029F619B8588D52FE7039
310
B1BD30F0F4F730D0FF866AF6369557DB33949F31A9088B0F848DD8CCFCF9F2767A76E99CCDE733677E3EF59D9BBB9BA5E37F984D16E78BC5E5F5ED25044B25C0C96822E8D60EEFE11B91C581D77CEA34368A1F5329E68CD1B8B61F16D63A1B8E092D294B10C78C4A48EB593D192E7DED9BDEE7995E1B91FDEDD3ACEA9FE831
310
6A756F9F7D4D79F4274C90A7A04248AA51D5F8C718DAE06FB2F75AC4796EBE65D22A88A22223B995679120E2D50E41AA49C260C046A35368846B0BECD0DFF3EBEB8AD4F835768F69B9ADF25C43D30E6B646F807FAA64AD59F61715C7A54127C4AACA98BA3006A9D792DAE165E0D59B61A01FB3A9F9D838D2DAE62445C86166
310
F37564E842E7DE6A69879FEEA2DD5AE7E371E1A5E025154AC307D06A03D73EB5978C58FFA4C8E9033066E0F3BD53BEC1F39F91BE7B55103791EDE6BBB991A2046172CB4581D8B893FA674DDA17A77B3B7C413D1B511FD2743BFF8A38F03A658705E3ADF8015C3A3417FF3D7E439FF591DA0B5F18BC20C1B8981957AE6392A3
310
F43C640C01D1A0B4728E2DD4F26DB4B3C3152A252A3B4E913CEC1C72F012782FF88EFF8637AA552DBEF76408E8A8DE9E50F9E1CB3A2DA0DB1B6039A893B56063DC5B3E3FFB5F72E67AB9FEB4AEC496C4F4C1149625DD662C53E89D7BF0F6151A046260D1337DFDC94502430F83B0EE07A130A224BCAD7DAE1D9FB6CD422FF6
310
920702629C4BB9AE79C12F243C6432A6794E18E5552BA56B431AAB5D91317302B2B071E86C3A42B1A02F999E24061403B5D0EB639195DA655DD3EBEAB4FB862DDF579F014AD0E73C22F99E28DA57FB98E75C6CA2D74D53086D600F4786E0FE3144B771A8A7B900F03594DB8A633CBC49B2EDB69228BB479CF863B5E807AAAB
310
23872F6DFEB4129B949CA33823F58830E86D65621E10047D9DB34D862E8EAC3C2ABC2F7B2C40D67CDFE01F5545B92105AF983AC54D93D69E56FB8E797F88913F898A9FEC705D3F9D1B54EC8426FB500D40A03BD0119B06E1B95DDC7EB8F6975367793EBD70E66733DFB9BC982F9CE564727731999F5D4ECFCE3B8D6A4DC2A0
310
6D50FD148437D110834A64C6CDDF57FBACB5C307A2A477DFE4939736CFEF2B175371E0E10CF0DD1D5C15654E0BCA14D1E87DD02FF93782A162C0A3D95F1524A52770F972BF1EE9809D13CE7DD599467F8ECE9ADD85CE85A34CD45355448C64F9E8A031DC2D596ACC6E5DD93D9B82DE2EF5CAF81363A8E47996A0DE24564A79
310
4115AACE09C55E14540231FDA13C319787134EBF34E3A022514E5B4D9E0826E25C02D5805B15ABE1BEF51B26383D445DD9E875EE33FE4C22DA16427D65A3BCA92CA6D28DD01DF5DC53330704308475351050232CCD31583787BA75774AFB06E5070DD0C8EF484E19968C5D83BA5B90B244D31E54D55A372320FE4786B7EA58
310
44E135AA5467CB7EA333A61683CC6A8C3257034C10CF46F40EF9F5BE59BE5BD30C3C72D235E95D10345C1D45445A5F0BB47E46A5EBE5570F9380B5FA629579952296A773720405982B9DE04011506178964401AA8BDF1FBF0A8EAB6861DD6580C0E38217056766716DAEB2D6FA0917D3E4116581EADB879C4E7CFFB11EFACD
310
3D641311495D92C8676CB409A72D18610D803CE8A626049E8EC1887CB5B44CC39883690DDA8399B4B9855B481E7D71D4A9D22F96E5BB73BF5793020C02137BF837504B0304140006080000CC70623B000000000000000000000000350000006662782F36394639363044362D344446342D343946362D394244322D32343142
310
43333846323333332F76657274696365732E62696E504B0304140006080800CC70623BF270F1330600000004000000360000006662782F36394639363044362D344446342D343946362D394244322D3234314243333846323333332F747269616E676C65732E62696E636660600000504B0304140006080000CC70623B0000
310
00000000000000000000370000006662782F36394639363044362D344446342D343946362D394244322D3234314243333846323333332F617474726962757465732E62696E504B0304140006080800CC70623B08DA0BD19000000041010000360000006662782F36394639363044362D344446342D343946362D394244322D
310
3234314243333846323333332F6469726563746F72792E786D6C858F410AC3201045AF22B36F53E9A60B35CBEEBAE80D244E44489C6234F4F835464A48035D0DF398FF9F8AF63D0E6CC63039F212F8F9020C7D47C6792B21C5FE7403D62A1188E2E60C98D7234A5830286103A55745067B9D86B8A3CF9C7F90C11DE607FB14
310
4396D7B6A82D282E9A152AD114D5EF2CB866EEE831B8EEA07A7BB5A8D7D61A2BAAEB7FD5F70921FF497D00504B0304140006080800CC70623BCA768048FE000000A00100003B0000006662782F36394639363044362D344446342D343946362D394244322D3234314243333846323333332F7265736F75726365732F636F72
310
652E786D6C8D50596E833010BD0A9ADFCA60D600328E9AA639412F609909B1126CE4A5EAF16B0295DABFFECC8CDEA2797AECF8353F924FB44E193D409E5248504B332A3D0D10FC95B4901C39B3C6F85F3248B49871801506CE266BC2B243D2688FDA47549B11775038871E12F988C7004EDE7016A9083E2ADC3D5D84BC8B09
310
D33C8D74D471E6BC8D0192EDC93A815B742658898E651BCB59086ADC356A8C3FD555A1055ED7E7E254D615792D0F075295F585746FF53B694EE78A565DD736979A65AB9933AFE69F8CD2A2F038022F28ED489E135A7CE4554F9BBEA85E68DB53CAB255FEC71496F19FA6A0B42F8B3DEE6673C0F318E4497096AD7DC5F52C33
310
EEB55BFE0D504B010214000A0000080000CC70623B3DEE336E79000000790000001B00000000000000000000000000000000006175746F6465736B2D64657369676E2D7061636B6167652E786D6C504B01021400140006080800CC70623BD486FD9CA0000000F40000001300000000000000000000000000B20000005B436F
310
6E74656E745F54797065735D2E786D6C504B01021400140006080800CC70623BD9DDAED0EC0000007C010000080000000000000000000000000083010000636F72652E786D6C504B01021400140006080800CC70623B55019EA25F0000007C000000070000000000000000000000000095020000636E782E786D6C504B0102
310
1400140006080800CC70623BA24EB22D72010000D40300000C00000000000000000000000000190300006662782F636F72652E786D6C504B01021400140006080800CC70623B408A7D3B7C0000009D0000000B00000000000000000000000000B50400006662782F636E782E786D6C504B01021400140006080800CC70623B
310
449FB9BD290100001202000031000000000000000000000000005A0500006662782F36394639363044362D344446342D343946362D394244322D3234314243333846323333332F636F72652E786D6C504B01021400140006080800CC70623BAD7543B64E010000330300003000000000000000000000000000D20600006662
310
782F36394639363044362D344446342D343946362D394244322D3234314243333846323333332F636E782E786D6C504B01021400140006080800CC70623B8D05915C650500003B10000034000000000000000000000000006E0800006662782F36394639363044362D344446342D343946362D394244322D32343142433338
310
46323333332F6F626A656374732E786D6C504B01021400140006080000CC70623B0000000000000000000000003500000000000000000000000000250E00006662782F36394639363044362D344446342D343946362D394244322D3234314243333846323333332F76657274696365732E62696E504B010214001400060808
310
00CC70623BF270F13306000000040000003600000000000000000000000000780E00006662782F36394639363044362D344446342D343946362D394244322D3234314243333846323333332F747269616E676C65732E62696E504B01021400140006080000CC70623B00000000000000000000000037000000000000000000
310
00000000D20E00006662782F36394639363044362D344446342D343946362D394244322D3234314243333846323333332F617474726962757465732E62696E504B01021400140006080800CC70623B08DA0BD190000000410100003600000000000000000000000000270F00006662782F36394639363044362D344446342D
310
343946362D394244322D3234314243333846323333332F6469726563746F72792E786D6C504B01021400140006080800CC70623BCA768048FE000000A00100003B000000000000000000000000000B1000006662782F36394639363044362D344446342D343946362D394244322D3234314243333846323333332F7265736F
310
75726365732F636F72652E786D6C504B0506000000000E000E0080040000621100000000
  0
XRECORD
  5
176
102
{ACAD_REACTORS
330
173
102
}
330
173
100
AcDbXrecord
280
     1
270
     1
271
     1
  0
XRECORD
  5
177
102
{ACAD_REACTORS
330
173
102
}
330
173
100
AcDbXrecord
280
     1
270
     1
271
     1
  0
XRECORD
  5
61E
102
{ACAD_REACTORS
330
61D
102
}
330
61D
100
AcDbXrecord
280
     1
102
DISPLAYNAME
  1
Metric50
102
FLAGS
 90
        0
  0
CELLSTYLEMAP
  5
613
102
{ACAD_REACTORS
330
162
102
}
330
162
100
AcDbCellStyleMap
 90
        3
300
CELLSTYLE
  1
TABLEFORMAT_BEGIN
 90
        5
170
     1
 91
        0
 92
    32768
 62
   257
 93
        1
300
CONTENTFORMAT
  1
CONTENTFORMAT_BEGIN
 90
        0
 91
        0
 92
      512
 93
        0
300

 40
0.0
140
1.0
 94
        5
 62
     0
340
11
144
6.0
309
CONTENTFORMAT_END
171
     1
301
MARGIN
  1
CELLMARGIN_BEGIN
 40
1.5
 40
1.5
 40
1.5
 40
1.5
 40
4.5
 40
4.5
309
CELLMARGIN_END
 94
        6
 95
        1
302
GRIDFORMAT
  1
GRIDFORMAT_BEGIN
 90
        0
 91
        1
 62
     0
 92
       -2
340
14
 93
        0
 40
1.125
309
GRIDFORMAT_END
 95
        2
302
GRIDFORMAT
  1
GRIDFORMAT_BEGIN
 90
        0
 91
        1
 62
     0
 92
       -2
340
14
 93
        0
 40
1.125
309
GRIDFORMAT_END
 95
        4
302
GRIDFORMAT
  1
GRIDFORMAT_BEGIN
 90
        0
 91
        1
 62
     0
 92
       -2
340
14
 93
        0
 40
1.125
309
GRIDFORMAT_END
 95
        8
302
GRIDFORMAT
  1
GRIDFORMAT_BEGIN
 90
        0
 91
        1
 62
     0
 92
       -2
340
14
 93
        0
 40
1.125
309
GRIDFORMAT_END
 95
       16
302
GRIDFORMAT
  1
GRIDFORMAT_BEGIN
 90
        0
 91
        1
 62
     0
 92
       -2
340
14
 93
        0
 40
1.125
309
GRIDFORMAT_END
 95
       32
302
GRIDFORMAT
  1
GRIDFORMAT_BEGIN
 90
        0
 91
        1
 62
     0
 92
       -2
340
14
 93
        0
 40
1.125
309
GRIDFORMAT_END
309
TABLEFORMAT_END
  1
CELLSTYLE_BEGIN
 90
        1
 91
        1
300
_TITLE
309
CELLSTYLE_END
300
CELLSTYLE
  1
TABLEFORMAT_BEGIN
 90
        5
170
     1
 91
        0
 92
        0
 62
   257
 93
        1
300
CONTENTFORMAT
  1
CONTENTFORMAT_BEGIN
 90
        0
 91
        0
 92
      512
 93
        0
300

 40
0.0
140
1.0
 94
        5
 62
     0
340
11
144
4.5
309
CONTENTFORMAT_END
171
     1
301
MARGIN
  1
CELLMARGIN_BEGIN
 40
1.5
 40
1.5
 40
1.5
 40
1.5
 40
4.5
 40
4.5
309
CELLMARGIN_END
 94
        6
 95
        1
302
GRIDFORMAT
  1
GRIDFORMAT_BEGIN
 90
        0
 91
        1
 62
     0
 92
       -2
340
14
 93
        0
 40
1.125
309
GRIDFORMAT_END
 95
        2
302
GRIDFORMAT
  1
GRIDFORMAT_BEGIN
 90
        0
 91
        1
 62
     0
 92
       -2
340
14
 93
        0
 40
1.125
309
GRIDFORMAT_END
 95
        4
302
GRIDFORMAT
  1
GRIDFORMAT_BEGIN
 90
        0
 91
        1
 62
     0
 92
       -2
340
14
 93
        0
 40
1.125
309
GRIDFORMAT_END
 95
        8
302
GRIDFORMAT
  1
GRIDFORMAT_BEGIN
 90
        0
 91
        1
 62
     0
 92
       -2
340
14
 93
        0
 40
1.125
309
GRIDFORMAT_END
 95
       16
302
GRIDFORMAT
  1
GRIDFORMAT_BEGIN
 90
        0
 91
        1
 62
     0
 92
       -2
340
14
 93
        0
 40
1.125
309
GRIDFORMAT_END
 95
       32
302
GRIDFORMAT
  1
GRIDFORMAT_BEGIN
 90
        0
 91
        1
 62
     0
 92
       -2
340
14
 93
        0
 40
1.125
309
GRIDFORMAT_END
309
TABLEFORMAT_END
  1
CELLSTYLE_BEGIN
 90
        2
 91
        1
300
_HEADER
309
CELLSTYLE_END
300
CELLSTYLE
  1
TABLEFORMAT_BEGIN
 90
        5
170
     1
 91
        0
 92
        0
 62
   257
 93
        1
300
CONTENTFORMAT
  1
CONTENTFORMAT_BEGIN
 90
        0
 91
        0
 92
      512
 93
        0
300

 40
0.0
140
1.0
 94
        2
 62
     0
340
11
144
4.5
309
CONTENTFORMAT_END
171
     1
301
MARGIN
  1
CELLMARGIN_BEGIN
 40
1.5
 40
1.5
 40
1.5
 40
1.5
 40
4.5
 40
4.5
309
CELLMARGIN_END
 94
        6
 95
        1
302
GRIDFORMAT
  1
GRIDFORMAT_BEGIN
 90
        0
 91
        1
 62
     0
 92
       -2
340
14
 93
        0
 40
1.125
309
GRIDFORMAT_END
 95
        2
302
GRIDFORMAT
  1
GRIDFORMAT_BEGIN
 90
        0
 91
        1
 62
     0
 92
       -2
340
14
 93
        0
 40
1.125
309
GRIDFORMAT_END
 95
        4
302
GRIDFORMAT
  1
GRIDFORMAT_BEGIN
 90
        0
 91
        1
 62
     0
 92
       -2
340
14
 93
        0
 40
1.125
309
GRIDFORMAT_END
 95
        8
302
GRIDFORMAT
  1
GRIDFORMAT_BEGIN
 90
        0
 91
        1
 62
     0
 92
       -2
340
14
 93
        0
 40
1.125
309
GRIDFORMAT_END
 95
       16
302
GRIDFORMAT
  1
GRIDFORMAT_BEGIN
 90
        0
 91
        1
 62
     0
 92
       -2
340
14
 93
        0
 40
1.125
309
GRIDFORMAT_END
 95
       32
302
GRIDFORMAT
  1
GRIDFORMAT_BEGIN
 90
        0
 91
        1
 62
     0
 92
       -2
340
14
 93
        0
 40
1.125
309
GRIDFORMAT_END
309
TABLEFORMAT_END
  1
CELLSTYLE_BEGIN
 90
        3
 91
        2
300
_DATA
309
CELLSTYLE_END
  0
ENDSEC
  0
SECTION
  2
ACDSDATA
 70
     2
 71
     8
  0
ACDSSCHEMA
 90
        0
  1
AcDb_Thumbnail_Schema
  2
AcDbDs::ID
280
    10
 91
        8
  2
Thumbnail_Data
280
    15
 91
        0
101
ACDSRECORD
 95
        0
 90
        1
  2
AcDbDs::TreatedAsObjectData
280
     1
291
     1
101
ACDSRECORD
 95
        0
 90
        2
  2
AcDbDs::Legacy
280
     1
291
     1
101
ACDSRECORD
  1
AcDbDs::ID
 90
        3
  2
AcDs:Indexable
280
     1
291
     1
101
ACDSRECORD
  1
AcDbDs::ID
 90
        4
  2
AcDbDs::HandleAttribute
280
     7
282
     1
  0
ACDSSCHEMA
 90
        1
  1
AcDbDs::TreatedAsObjectDataSchema
  2
AcDbDs::TreatedAsObjectData
280
     1
 91
        0
  0
ACDSSCHEMA
 90
        2
  1
AcDbDs::LegacySchema
  2
AcDbDs::Legacy
280
     1
 91
        0
  0
ACDSSCHEMA
 90
        3
  1
AcDbDs::IndexedPropertySchema
  2
AcDs:Indexable
280
     1
 91
        0
  0
ACDSSCHEMA
 90
        4
  1
AcDbDs::HandleAttributeSchema
  2
AcDbDs::HandleAttribute
280
     7
 91
        1
284
     1
  0
ACDSRECORD
 90
        0
  2
AcDbDs::ID
280
    10
320
22
  2
Thumbnail_Data
280
    15
 94
      896
310
89504E470D0A1A0A0000000D49484452000001000000009108030000001BE1960600000300504C5445212830FFFFFF2128300000000000000000000000000000000000000000000000000000330000660000990000CC0000FF0033000033330033660033990033CC0033FF0066000066330066660066990066CC0066FF0099
310
000099330099660099990099CC0099FF00CC0000CC3300CC6600CC9900CCCC00CCFF00FF0000FF3300FF6600FF9900FFCC00FFFF3300003300333300663300993300CC3300FF3333003333333333663333993333CC3333FF3366003366333366663366993366CC3366FF3399003399333399663399993399CC3399FF33CC00
310
33CC3333CC6633CC9933CCCC33CCFF33FF0033FF3333FF6633FF9933FFCC33FFFF6600006600336600666600996600CC6600FF6633006633336633666633996633CC6633FF6666006666336666666666996666CC6666FF6699006699336699666699996699CC6699FF66CC0066CC3366CC6666CC9966CCCC66CCFF66FF0066
310
FF3366FF6666FF9966FFCC66FFFF9900009900339900669900999900CC9900FF9933009933339933669933999933CC9933FF9966009966339966669966999966CC9966FF9999009999339999669999999999CC9999FF99CC0099CC3399CC6699CC9999CCCC99CCFF99FF0099FF3399FF6699FF9999FFCC99FFFFCC0000CC00
310
33CC0066CC0099CC00CCCC00FFCC3300CC3333CC3366CC3399CC33CCCC33FFCC6600CC6633CC6666CC6699CC66CCCC66FFCC9900CC9933CC9966CC9999CC99CCCC99FFCCCC00CCCC33CCCC66CCCC99CCCCCCCCCCFFCCFF00CCFF33CCFF66CCFF99CCFFCCCCFFFFFF0000FF0033FF0066FF0099FF00CCFF00FFFF3300FF3333
310
FF3366FF3399FF33CCFF33FFFF6600FF6633FF6666FF6699FF66CCFF66FFFF9900FF9933FF9966FF9999FF99CCFF99FFFFCC00FFCC33FFCC66FFCC99FFCCCCFFCCFFFFFF00FFFF33FFFF66FFFF99FFFFCCFFFFFF0000000D0D0D1A1A1A2828283535354343435050505D5D5D6B6B6B787878868686939393A1A1A1AEAEAEBB
310
BBBBC9C9C9D6D6D6E4E4E4F1F1F1FFFFFF0000000000000000000000000000000000000000000000000000000000002E4550F10000003B4944415478DAEDC13101000000C2A0F54F6D0B2FA0000000000000000000000000000000000000000000000000000000000000000000000000CE06919100016C9A5B1B0000000049
310
454E44AE426082
  0
ENDSEC
  0
EOF
