  0
SECTION
  2
HEADER
  9
$ACADVER
  1
AC1032
  9
$ACADMAINTVER
 90
      199
  9
$DWGCODEPAGE
  3
ANSI_1252
  9
$LASTSAVEDBY
  1
ufficio.tecnico
  9
$REQUIREDVERSIONS
160
                 0
  9
$INSBASE
 10
0.0
 20
0.0
 30
0.0
  9
$EXTMIN
 10
14.30929904835279
 20
-56.8882201115448
 30
0.0
  9
$EXTMAX
 10
94.08929840045891
 20
-7.784502523498189
 30
0.0
  9
$LIMMIN
 10
0.0
 20
0.0
  9
$LIMMAX
 10
12.0
 20
9.0
  9
$ORTHOMODE
 70
     1
  9
$REGENMODE
 70
     1
  9
$FILLMODE
 70
     1
  9
$QTEXTMODE
 70
     0
  9
$MIRRTEXT
 70
     0
  9
$LTSCALE
 40
1.0
  9
$ATTMODE
 70
     1
  9
$TEXTSIZE
 40
0.2
  9
$TRACEWID
 40
0.05
  9
$TEXTSTYLE
  7
Standard
  9
$CLAYER
  8
0
  9
$CELTYPE
  6
ByLayer
  9
$CECOLOR
 62
   256
  9
$CELTSCALE
 40
1.0
  9
$DISPSILH
 70
     0
  9
$DIMSCALE
 40
1.0
  9
$DIMASZ
 40
0.18
  9
$DIMEXO
 40
0.0625
  9
$DIMDLI
 40
0.38
  9
$DIMRND
 40
0.0
  9
$DIMDLE
 40
0.0
  9
$DIMEXE
 40
0.18
  9
$DIMTP
 40
0.0
  9
$DIMTM
 40
0.0
  9
$DIMTXT
 40
0.18
  9
$DIMCEN
 40
0.09
  9
$DIMTSZ
 40
0.0
  9
$DIMTOL
 70
     0
  9
$DIMLIM
 70
     0
  9
$DIMTIH
 70
     1
  9
$DIMTOH
 70
     1
  9
$DIMSE1
 70
     0
  9
$DIMSE2
 70
     0
  9
$DIMTAD
 70
     0
  9
$DIMZIN
 70
     0
  9
$DIMBLK
  1

  9
$DIMASO
 70
     1
  9
$DIMSHO
 70
     1
  9
$DIMPOST
  1

  9
$DIMAPOST
  1

  9
$DIMALT
 70
     0
  9
$DIMALTD
 70
     2
  9
$DIMALTF
 40
25.4
  9
$DIMLFAC
 40
1.0
  9
$DIMTOFL
 70
     0
  9
$DIMTVP
 40
0.0
  9
$DIMTIX
 70
     0
  9
$DIMSOXD
 70
     0
  9
$DIMSAH
 70
     0
  9
$DIMBLK1
  1

  9
$DIMBLK2
  1

  9
$DIMSTYLE
  2
Standard
  9
$DIMCLRD
 70
     0
  9
$DIMCLRE
 70
     0
  9
$DIMCLRT
 70
     0
  9
$DIMTFAC
 40
1.0
  9
$DIMGAP
 40
0.09
  9
$DIMJUST
 70
     0
  9
$DIMSD1
 70
     0
  9
$DIMSD2
 70
     0
  9
$DIMTOLJ
 70
     1
  9
$DIMTZIN
 70
     0
  9
$DIMALTZ
 70
     0
  9
$DIMALTTZ
 70
     0
  9
$DIMUPT
 70
     0
  9
$DIMDEC
 70
     4
  9
$DIMTDEC
 70
     4
  9
$DIMALTU
 70
     2
  9
$DIMALTTD
 70
     2
  9
$DIMTXSTY
  7
Standard
  9
$DIMAUNIT
 70
     0
  9
$DIMADEC
 70
     0
  9
$DIMALTRND
 40
0.0
  9
$DIMAZIN
 70
     0
  9
$DIMDSEP
 70
    46
  9
$DIMATFIT
 70
     3
  9
$DIMFRAC
 70
     0
  9
$DIMLDRBLK
  1

  9
$DIMLUNIT
 70
     2
  9
$DIMLWD
 70
    -2
  9
$DIMLWE
 70
    -2
  9
$DIMTMOVE
 70
     0
  9
$DIMFXL
 40
1.0
  9
$DIMFXLON
 70
     0
  9
$DIMJOGANG
 40
0.7853981633974483
  9
$DIMTFILL
 70
     0
  9
$DIMTFILLCLR
 70
     0
  9
$DIMARCSYM
 70
     0
  9
$DIMLTYPE
  6

  9
$DIMLTEX1
  6

  9
$DIMLTEX2
  6

  9
$DIMTXTDIRECTION
 70
     0
  9
$LUNITS
 70
     2
  9
$LUPREC
 70
     4
  9
$SKETCHINC
 40
0.1
  9
$FILLETRAD
 40
0.0
  9
$AUNITS
 70
     0
  9
$AUPREC
 70
     0
  9
$MENU
  1
.
  9
$ELEVATION
 40
0.0
  9
$PELEVATION
 40
0.0
  9
$THICKNESS
 40
0.0
  9
$LIMCHECK
 70
     0
  9
$CHAMFERA
 40
0.0
  9
$CHAMFERB
 40
0.0
  9
$CHAMFERC
 40
0.0
  9
$CHAMFERD
 40
0.0
  9
$SKPOLY
 70
     0
  9
$TDCREATE
 40
2460266.462291667
  9
$TDUCREATE
 40
2460266.420625000
  9
$TDUPDATE
 40
2460266.463854167
  9
$TDUUPDATE
 40
2460266.422187500
  9
$TDINDWG
 40
0.0012384259
  9
$TDUSRTIMER
 40
0.0012384259
  9
$USRTIMER
 70
     1
  9
$ANGBASE
 50
0.0
  9
$ANGDIR
 70
     0
  9
$PDMODE
 70
     0
  9
$PDSIZE
 40
0.0
  9
$PLINEWID
 40
0.0
  9
$SPLFRAME
 70
     0
  9
$SPLINETYPE
 70
     6
  9
$SPLINESEGS
 70
     8
  9
$HANDSEED
  5
1F8
  9
$SURFTAB1
 70
     6
  9
$SURFTAB2
 70
     6
  9
$SURFTYPE
 70
     6
  9
$SURFU
 70
     6
  9
$SURFV
 70
     6
  9
$UCSBASE
  2

  9
$UCSNAME
  2

  9
$UCSORG
 10
0.0
 20
0.0
 30
0.0
  9
$UCSXDIR
 10
1.0
 20
0.0
 30
0.0
  9
$UCSYDIR
 10
0.0
 20
1.0
 30
0.0
  9
$UCSORTHOREF
  2

  9
$UCSORTHOVIEW
 70
     0
  9
$UCSORGTOP
 10
0.0
 20
0.0
 30
0.0
  9
$UCSORGBOTTOM
 10
0.0
 20
0.0
 30
0.0
  9
$UCSORGLEFT
 10
0.0
 20
0.0
 30
0.0
  9
$UCSORGRIGHT
 10
0.0
 20
0.0
 30
0.0
  9
$UCSORGFRONT
 10
0.0
 20
0.0
 30
0.0
  9
$UCSORGBACK
 10
0.0
 20
0.0
 30
0.0
  9
$PUCSBASE
  2

  9
$PUCSNAME
  2

  9
$PUCSORG
 10
0.0
 20
0.0
 30
0.0
  9
$PUCSXDIR
 10
1.0
 20
0.0
 30
0.0
  9
$PUCSYDIR
 10
0.0
 20
1.0
 30
0.0
  9
$PUCSORTHOREF
  2

  9
$PUCSORTHOVIEW
 70
     0
  9
$PUCSORGTOP
 10
0.0
 20
0.0
 30
0.0
  9
$PUCSORGBOTTOM
 10
0.0
 20
0.0
 30
0.0
  9
$PUCSORGLEFT
 10
0.0
 20
0.0
 30
0.0
  9
$PUCSORGRIGHT
 10
0.0
 20
0.0
 30
0.0
  9
$PUCSORGFRONT
 10
0.0
 20
0.0
 30
0.0
  9
$PUCSORGBACK
 10
0.0
 20
0.0
 30
0.0
  9
$USERI1
 70
     0
  9
$USERI2
 70
     0
  9
$USERI3
 70
     0
  9
$USERI4
 70
     0
  9
$USERI5
 70
     0
  9
$USERR1
 40
0.0
  9
$USERR2
 40
0.0
  9
$USERR3
 40
0.0
  9
$USERR4
 40
0.0
  9
$USERR5
 40
0.0
  9
$WORLDVIEW
 70
     1
  9
$SHADEDGE
 70
     3
  9
$SHADEDIF
 70
    70
  9
$TILEMODE
 70
     1
  9
$MAXACTVP
 70
    64
  9
$PINSBASE
 10
0.0
 20
0.0
 30
0.0
  9
$PLIMCHECK
 70
     0
  9
$PEXTMIN
 10
1.000000000000000E+20
 20
1.000000000000000E+20
 30
1.000000000000000E+20
  9
$PEXTMAX
 10
-1.000000000000000E+20
 20
-1.000000000000000E+20
 30
-1.000000000000000E+20
  9
$PLIMMIN
 10
0.0
 20
0.0
  9
$PLIMMAX
 10
12.0
 20
9.0
  9
$UNITMODE
 70
     0
  9
$VISRETAIN
 70
     1
  9
$PLINEGEN
 70
     0
  9
$PSLTSCALE
 70
     1
  9
$TREEDEPTH
 70
  3020
  9
$CMLSTYLE
  2
Standard
  9
$CMLJUST
 70
     0
  9
$CMLSCALE
 40
1.0
  9
$PROXYGRAPHICS
 70
     1
  9
$MEASUREMENT
 70
     0
  9
$CELWEIGHT
370
    -1
  9
$ENDCAPS
280
     0
  9
$JOINSTYLE
280
     0
  9
$LWDISPLAY
290
     1
  9
$INSUNITS
 70
     4
  9
$HYPERLINKBASE
  1

  9
$STYLESHEET
  1

  9
$XEDIT
290
     1
  9
$CEPSNTYPE
380
     0
  9
$PSTYLEMODE
290
     1
  9
$FINGERPRINTGUID
  2
{548DD33D-8813-824D-A32F-0E6985EF2AED}
  9
$VERSIONGUID
  2
{EFDBE062-CA87-C948-97DB-5C884FED7CFB}
  9
$EXTNAMES
290
     1
  9
$PSVPSCALE
 40
0.0
  9
$OLESTARTUP
290
     0
  9
$SORTENTS
280
   127
  9
$INDEXCTL
280
     0
  9
$HIDETEXT
280
     1
  9
$XCLIPFRAME
280
     2
  9
$HALOGAP
280
     0
  9
$OBSCOLOR
 70
   257
  9
$OBSLTYPE
280
     0
  9
$INTERSECTIONDISPLAY
280
     0
  9
$INTERSECTIONCOLOR
 70
   257
  9
$DIMASSOC
280
     2
  9
$PROJECTNAME
  1

  9
$CAMERADISPLAY
290
     0
  9
$LENSLENGTH
 40
50.0
  9
$CAMERAHEIGHT
 40
0.0
  9
$STEPSPERSEC
 40
2.0
  9
$STEPSIZE
 40
6.0
  9
$3DDWFPREC
 40
2.0
  9
$PSOLWIDTH
 40
0.25
  9
$PSOLHEIGHT
 40
4.0
  9
$LOFTANG1
 40
1.570796326794896
  9
$LOFTANG2
 40
1.570796326794896
  9
$LOFTMAG1
 40
0.0
  9
$LOFTMAG2
 40
0.0
  9
$LOFTPARAM
 70
     7
  9
$LOFTNORMALS
280
     1
  9
$LATITUDE
 40
37.795
  9
$LONGITUDE
 40
-122.394
  9
$NORTHDIRECTION
 40
0.0
  9
$TIMEZONE
 70
 -8000
  9
$LIGHTGLYPHDISPLAY
280
     1
  9
$TILEMODELIGHTSYNCH
280
     1
  9
$CMATERIAL
347
11
  9
$SOLIDHIST
280
     0
  9
$SHOWHIST
280
     1
  9
$DWFFRAME
280
     2
  9
$DGNFRAME
280
     0
  9
$REALWORLDSCALE
290
     1
  9
$INTERFERECOLOR
 62
     1
  9
$INTERFEREOBJVS
345
33
  9
$INTERFEREVPVS
346
30
  9
$CSHADOW
280
     0
  9
$SHADOWPLANELOCATION
 40
0.0
  0
ENDSEC
  0
SECTION
  2
CLASSES
  0
CLASS
  1
ACDBDICTIONARYWDFLT
  2
AcDbDictionaryWithDefault
  3
ObjectDBX Classes
 90
        0
 91
        1
280
     0
281
     0
  0
CLASS
  1
MATERIAL
  2
AcDbMaterial
  3
ObjectDBX Classes
 90
     1153
 91
        3
280
     0
281
     0
  0
CLASS
  1
VISUALSTYLE
  2
AcDbVisualStyle
  3
ObjectDBX Classes
 90
     4095
 91
       24
280
     0
281
     0
  0
CLASS
  1
SCALE
  2
AcDbScale
  3
ObjectDBX Classes
 90
     1153
 91
       17
280
     0
281
     0
  0
CLASS
  1
TABLESTYLE
  2
AcDbTableStyle
  3
ObjectDBX Classes
 90
     4095
 91
        1
280
     0
281
     0
  0
CLASS
  1
MLEADERSTYLE
  2
AcDbMLeaderStyle
  3
ACDB_MLEADERSTYLE_CLASS
 90
     4095
 91
        1
280
     0
281
     0
  0
CLASS
  1
ACDBSECTIONVIEWSTYLE
  2
AcDbSectionViewStyle
  3
ObjectDBX Classes
 90
     1025
 91
        1
280
     0
281
     0
  0
CLASS
  1
ACDBDETAILVIEWSTYLE
  2
AcDbDetailViewStyle
  3
ObjectDBX Classes
 90
     1025
 91
        1
280
     0
281
     0
  0
CLASS
  1
DICTIONARYVAR
  2
AcDbDictionaryVar
  3
ObjectDBX Classes
 90
        0
 91
        5
280
     0
281
     0
  0
CLASS
  1
EXACXREFPANELOBJECT
  2
ExAcXREFPanelObject
  3
EXAC_ESW
 90
     1025
 91
        1
280
     0
281
     0
  0
CLASS
  1
NPOCOLLECTION
  2
AcDbImpNonPersistentObjectsCollection
  3
ObjectDBX Classes
 90
     1153
 91
        1
280
     0
281
     0
  0
CLASS
  1
SORTENTSTABLE
  2
AcDbSortentsTable
  3
ObjectDBX Classes
 90
        0
 91
        1
280
     0
281
     0
  0
CLASS
  1
CELLSTYLEMAP
  2
AcDbCellStyleMap
  3
ObjectDBX Classes
 90
     1152
 91
        1
280
     0
281
     0
  0
ENDSEC
  0
SECTION
  2
TABLES
  0
TABLE
  2
VPORT
  5
8
330
0
100
AcDbSymbolTable
 70
     1
  0
VPORT
  5
57
330
8
100
AcDbSymbolTableRecord
100
AcDbViewportTableRecord
  2
*Active
 70
     0
 10
0.0
 20
0.0
 11
1.0
 21
1.0
 12
-15.95202400822109
 22
-20.41189210242992
 13
0.0
 23
0.0
 14
1.0
 24
1.0
 15
0.0
 25
0.0
 16
0.0
 26
0.0
 36
1.0
 17
37.4999999906338
 27
-24.99999999375587
 37
0.0
 40
170.0583170699242
 41
2.326781326781326
 42
50.0
 43
0.0
 44
0.0
 50
0.0
 51
0.0
 71
     0
 72
   100
 73
     1
 74
     1
 75
     0
 76
     0
 77
     0
 78
     0
281
     0
 65
     1
110
0.0
120
0.0
130
0.0
111
1.0
121
0.0
131
0.0
112
0.0
122
1.0
132
0.0
 79
     0
146
0.0
348
2F
 60
     3
 61
     5
292
     1
282
     1
141
0.0
142
0.0
 63
   250
421
  3355443
1001
ACAD_NAV_VCDISPLAY
1070
     3
  0
ENDTAB
  0
TABLE
  2
LTYPE
  5
5
330
0
100
AcDbSymbolTable
 70
     3
  0
LTYPE
  5
5B
330
5
100
AcDbSymbolTableRecord
100
AcDbLinetypeTableRecord
  2
ByBlock
 70
     0
  3

 72
    65
 73
     0
 40
0.0
  0
LTYPE
  5
5C
330
5
100
AcDbSymbolTableRecord
100
AcDbLinetypeTableRecord
  2
ByLayer
 70
     0
  3

 72
    65
 73
     0
 40
0.0
  0
LTYPE
  5
5D
330
5
100
AcDbSymbolTableRecord
100
AcDbLinetypeTableRecord
  2
Continuous
 70
     0
  3
Solid line
 72
    65
 73
     0
 40
0.0
  0
ENDTAB
  0
TABLE
  2
LAYER
  5
2
330
0
100
AcDbSymbolTable
 70
     3
  0
LAYER
  5
54
330
2
100
AcDbSymbolTableRecord
100
AcDbLayerTableRecord
  2
0
 70
     0
 62
     7
  6
Continuous
370
    -3
390
F
347
21
348
0
  0
LAYER
  5
78
330
2
100
AcDbSymbolTableRecord
100
AcDbLayerTableRecord
  2
Livello 1
 70
     0
 62
     7
  6
Continuous
370
     0
390
F
347
21
348
0
  0
LAYER
  5
1E4
330
2
100
AcDbSymbolTableRecord
100
AcDbLayerTableRecord
  2
Livello 2
 70
     0
 62
     7
  6
Continuous
370
     0
390
F
347
21
348
0
  0
ENDTAB
  0
TABLE
  2
STYLE
  5
3
330
0
100
AcDbSymbolTable
 70
     2
  0
STYLE
  5
55
330
3
100
AcDbSymbolTableRecord
100
AcDbTextStyleTableRecord
  2
Standard
 70
     0
 40
0.0
 41
1.0
 50
0.0
 71
     0
 42
0.2
  3
txt
  4

  0
STYLE
  5
5A
330
3
100
AcDbSymbolTableRecord
100
AcDbTextStyleTableRecord
  2
Annotative
 70
     0
 40
0.0
 41
1.0
 50
0.0
 71
     0
 42
0.2
  3
txt
  4

1001
AcadAnnotative
1000
AnnotativeData
1002
{
1070
     1
1070
     1
1002
}
  0
ENDTAB
  0
TABLE
  2
VIEW
  5
6
330
0
100
AcDbSymbolTable
 70
     0
  0
ENDTAB
  0
TABLE
  2
UCS
  5
7
330
0
100
AcDbSymbolTable
 70
     0
  0
ENDTAB
  0
TABLE
  2
APPID
  5
9
330
0
100
AcDbSymbolTable
 70
     4
  0
APPID
  5
56
330
9
100
AcDbSymbolTableRecord
100
AcDbRegAppTableRecord
  2
ACAD
 70
     0
  0
APPID
  5
5E
330
9
100
AcDbSymbolTableRecord
100
AcDbRegAppTableRecord
  2
AcadAnnotative
 70
     0
  0
APPID
  5
1DB
330
9
100
AcDbSymbolTableRecord
100
AcDbRegAppTableRecord
  2
ACAD_EXEMPT_FROM_CAD_STANDARDS
 70
     0
  0
APPID
  5
1E5
330
9
100
AcDbSymbolTableRecord
100
AcDbRegAppTableRecord
  2
ACAD_NAV_VCDISPLAY
 70
     0
  0
ENDTAB
  0
TABLE
  2
DIMSTYLE
  5
A
330
0
100
AcDbSymbolTable
 70
     3
100
AcDbDimStyleTable
 71
     1
340
58
  0
DIMSTYLE
105
58
330
A
100
AcDbSymbolTableRecord
100
AcDbDimStyleTableRecord
  2
Standard
 70
     0
340
55
  0
DIMSTYLE
105
59
330
A
100
AcDbSymbolTableRecord
100
AcDbDimStyleTableRecord
  2
Annotative
 70
     0
340
55
1001
AcadAnnotative
1000
AnnotativeData
1002
{
1070
     1
1070
     1
1002
}
  0
ENDTAB
  0
TABLE
  2
BLOCK_RECORD
  5
1
330
0
100
AcDbSymbolTable
 70
     4
  0
BLOCK_RECORD
  5
70
330
1
100
AcDbSymbolTableRecord
100
AcDbBlockTableRecord
  2
*Model_Space
340
73
 70
     0
280
     1
281
     0
  0
BLOCK_RECORD
  5
6C
330
1
100
AcDbSymbolTableRecord
100
AcDbBlockTableRecord
  2
*Paper_Space
340
6F
 70
     0
280
     1
281
     0
  0
BLOCK_RECORD
  5
74
330
1
100
AcDbSymbolTableRecord
100
AcDbBlockTableRecord
  2
*Paper_Space0
340
77
 70
     0
280
     1
281
     0
  0
ENDTAB
  0
ENDSEC
  0
SECTION
  2
BLOCKS
  0
BLOCK
  5
71
330
70
100
AcDbEntity
  8
0
100
AcDbBlockBegin
  2
*Model_Space
 70
     0
 10
0.0
 20
0.0
 30
0.0
  3
*Model_Space
  1

  0
ENDBLK
  5
72
330
70
100
AcDbEntity
  8
0
100
AcDbBlockEnd
  0
BLOCK
  5
6D
330
6C
100
AcDbEntity
 67
     1
  8
0
100
AcDbBlockBegin
  2
*Paper_Space
 70
     0
 10
0.0
 20
0.0
 30
0.0
  3
*Paper_Space
  1

  0
ENDBLK
  5
6E
330
6C
100
AcDbEntity
 67
     1
  8
0
100
AcDbBlockEnd
  0
BLOCK
  5
75
330
74
100
AcDbEntity
 67
     1
  8
0
100
AcDbBlockBegin
  2
*Paper_Space0
 70
     0
 10
0.0
 20
0.0
 30
0.0
  3
*Paper_Space0
  1

  0
ENDBLK
  5
76
330
74
100
AcDbEntity
 67
     1
  8
0
100
AcDbBlockEnd
  0
ENDSEC
  0
SECTION
  2
ENTITIES
  0
LINE
  5
79
330
70
100
AcDbEntity
  8
Livello 1
370
     9
100
AcDbLine
 10
21.481006943802
 20
-17.42296658244053
 30
0.0
 11
21.72004791360376
 21
-16.99729656499075
 31
0.0
  0
LINE
  5
7A
330
70
100
AcDbEntity
  8
Livello 1
370
     9
100
AcDbLine
 10
23.43382532367069
 20
-17.49094130847263
 30
0.0
 11
23.09824030708064
 21
-18.08862210970113
 31
0.0
  0
LINE
  5
7B
330
70
100
AcDbEntity
  8
Livello 1
370
     9
100
AcDbLine
 10
61.92092870644076
 20
-24.99196358017051
 30
0.0
 11
57.86256585636858
 21
-17.76464890623226
 31
0.0
  0
LINE
  5
7C
330
70
100
AcDbEntity
  8
Livello 1
370
     9
100
AcDbLine
 10
62.2464774830294
 20
-24.80917298234214
 30
0.0
 11
57.8599050670688
 21
-16.99735283545888
 31
0.0
  0
LINE
  5
7D
330
70
100
AcDbEntity
  8
Livello 1
370
     9
100
AcDbLine
 10
56.34222622064704
 20
-17.07777137368303
 30
0.0
 11
56.57494480137268
 21
-17.49225160652645
 31
0.0
  0
LINE
  5
7E
330
70
100
AcDbEntity
  8
Livello 1
370
     9
100
AcDbLine
 10
56.07248167160205
 20
-17.3599115030896
 30
0.0
 11
56.47826409773258
 21
-18.08271371050088
 31
0.0
  0
LINE
  5
7F
330
70
100
AcDbEntity
  8
Livello 1
370
     9
100
AcDbLine
 10
41.28897555085277
 20
-9.277904682051442
 30
0.0
 11
41.28897555085277
 21
-7.784502523498189
 31
0.0
  0
LINE
  5
80
330
70
100
AcDbEntity
  8
Livello 1
370
     9
100
AcDbLine
 10
34.36435580462568
 20
-9.277904682051442
 30
0.0
 11
34.36435580462568
 21
-7.784502523498189
 31
0.0
  0
LINE
  5
81
330
70
100
AcDbEntity
  8
Livello 1
370
     9
100
AcDbLine
 10
49.34663735559619
 20
-9.277904682051442
 30
0.0
 11
49.34663735559619
 21
-11.33131858244505
 31
0.0
  0
LINE
  5
82
330
70
100
AcDbEntity
  8
Livello 1
370
     9
100
AcDbLine
 10
25.57393995817208
 20
-11.3542930108987
 30
0.0
 11
25.6652106581916
 21
-11.3542930108987
 31
0.0
  0
LINE
  5
83
330
70
100
AcDbEntity
  8
Livello 1
370
     9
100
AcDbLine
 10
25.53612620329384
 20
-11.3542930108987
 30
0.0
 11
25.57300345680261
 21
-11.3542930108987
 31
0.0
  0
LINE
  5
84
330
70
100
AcDbEntity
  8
Livello 1
370
     9
100
AcDbLine
 10
54.00696962046603
 20
-11.3542930108987
 30
0.0
 11
54.04371423644151
 21
-11.3542930108987
 31
0.0
  0
LINE
  5
85
330
70
100
AcDbEntity
  8
Livello 1
370
     9
100
AcDbLine
 10
53.91475036111927
 20
-11.3542930108987
 30
0.0
 11
54.00602106113846
 21
-11.3542930108987
 31
0.0
  0
LINE
  5
86
330
70
100
AcDbEntity
  8
Livello 1
370
     9
100
AcDbLine
 10
21.96314035714247
 20
-18.79799979103958
 30
0.0
 11
21.96314035714247
 21
-19.73139824639078
 31
0.0
  0
LINE
  5
87
330
70
100
AcDbEntity
  8
Livello 1
370
     9
100
AcDbLine
 10
57.61679252693401
 20
-18.79799979103958
 30
0.0
 11
57.61679252693401
 21
-19.73139824639078
 31
0.0
  0
LINE
  5
88
330
70
100
AcDbEntity
  8
Livello 1
370
     9
100
AcDbLine
 10
56.59635169534422
 20
-17.38066726735339
 30
0.0
 11
56.57817633399654
 21
-17.49262138389099
 31
0.0
  0
SPLINE
  5
89
330
70
100
AcDbEntity
  8
Livello 1
370
     9
100
AcDbSpline
210
0.0
220
0.0
230
1.0
 70
     8
 71
     3
 72
     8
 73
     4
 74
     0
 42
0.000000001
 43
0.0000000001
 40
0.0
 40
0.0
 40
0.0
 40
0.0
 40
1.0
 40
1.0
 40
1.0
 40
1.0
 10
57.79812009257952
 20
-15.71912894871473
 30
0.0
 10
57.83420554020958
 20
-15.75719190138296
 30
0.0
 10
57.84947895310644
 20
-15.79525485405056
 30
0.0
 10
57.84974422817303
 20
-15.84767481484195
 30
0.0
  0
SPLINE
  5
8A
330
70
100
AcDbEntity
  8
Livello 1
370
     9
100
AcDbSpline
210
0.0
220
0.0
230
1.0
 70
     8
 71
     3
 72
     8
 73
     4
 74
     0
 42
0.000000001
 43
0.0000000001
 40
0.0
 40
0.0
 40
0.0
 40
0.0
 40
1.0
 40
1.0
 40
1.0
 40
1.0
 10
57.67018516296788
 20
-15.66204657767047
 30
0.0
 10
57.72127874842885
 20
-15.66350157121503
 30
0.0
 10
57.75816002125679
 20
-15.67930553424445
 30
0.0
 10
57.79438212573865
 20
-15.71539098187387
 30
0.0
  0
SPLINE
  5
8B
330
70
100
AcDbEntity
  8
Livello 1
370
     9
100
AcDbSpline
210
0.0
220
0.0
230
1.0
 70
     8
 71
     3
 72
     8
 73
     4
 74
     0
 42
0.000000001
 43
0.0000000001
 40
0.0
 40
0.0
 40
0.0
 40
0.0
 40
1.0
 40
1.0
 40
1.0
 40
1.0
 10
56.8778889268735
 20
-15.76441059863638
 30
0.0
 10
56.88631341988213
 20
-15.74650051235465
 30
0.0
 10
56.89685207478139
 20
-15.73083320617704
 30
0.0
 10
56.91028463949253
 20
-15.71633954120144
 30
0.0
  0
SPLINE
  5
8C
330
70
100
AcDbEntity
  8
Livello 1
370
     9
100
AcDbSpline
210
0.0
220
0.0
230
1.0
 70
     8
 71
     3
 72
     8
 73
     4
 74
     0
 42
0.000000001
 43
0.0000000001
 40
0.0
 40
0.0
 40
0.0
 40
0.0
 40
1.0
 40
1.0
 40
1.0
 40
1.0
 10
56.86120071362359
 20
-15.82071322175938
 30
0.0
 10
56.86317018002346
 20
-15.80649287048804
 30
0.0
 10
56.8665946399679
 20
-15.79292364892445
 30
0.0
 10
56.8716027116704
 20
-15.77936246599916
 30
0.0
  0
SPLINE
  5
8D
330
70
100
AcDbEntity
  8
Livello 1
370
     9
100
AcDbSpline
210
0.0
220
0.0
230
1.0
 70
     8
 71
     3
 72
     8
 73
     4
 74
     0
 42
0.000000001
 43
0.0000000001
 40
0.0
 40
0.0
 40
0.0
 40
0.0
 40
1.0
 40
1.0
 40
1.0
 40
1.0
 10
57.38985372719382
 20
-19.7313339372837
 30
0.0
 10
57.48191221377386
 20
-19.76953354680375
 30
0.0
 10
57.57462986869931
 20
-19.78494361655371
 30
0.0
 10
57.57647875552334
 20
-19.91533033086729
 30
0.0
  0
LINE
  5
8E
330
70
100
AcDbEntity
  8
Livello 1
370
     9
100
AcDbLine
 10
57.57647875552334
 20
-19.91557952865664
 30
0.0
 11
57.71015327292891
 21
-27.5714661684955
 31
0.0
  0
SPLINE
  5
8F
330
70
100
AcDbEntity
  8
Livello 1
370
     9
100
AcDbSpline
210
0.0
220
0.0
230
1.0
 70
     8
 71
     3
 72
     8
 73
     4
 74
     0
 42
0.000000001
 43
0.0000000001
 40
0.0
 40
0.0
 40
0.0
 40
0.0
 40
1.0
 40
1.0
 40
1.0
 40
1.0
 10
56.03070486800852
 20
-19.78125388154332
 30
0.0
 10
56.01647647809887
 20
-19.76795797368398
 30
0.0
 10
56.0009377901354
 20
-19.75741931878473
 30
0.0
 10
55.98328494028133
 20
-19.74898678713779
 30
0.0
  0
SPLINE
  5
90
330
70
100
AcDbEntity
  8
Livello 1
370
     9
100
AcDbSpline
210
0.0
220
0.0
230
1.0
 70
     8
 71
     3
 72
     8
 73
     4
 74
     0
 42
0.000000001
 43
0.0000000001
 40
0.0
 40
0.0
 40
0.0
 40
0.0
 40
1.0
 40
1.0
 40
1.0
 40
1.0
 10
56.02276269330197
 20
-19.78921213352647
 30
0.0
 10
56.05752980423992
 20
-19.82622202456855
 30
0.0
 10
56.07267459892327
 20
-19.86349719067658
 30
0.0
 10
56.07359904233529
 20
-19.9143335397099
 30
0.0
  0
SPLINE
  5
91
330
70
100
AcDbEntity
  8
Livello 1
370
     9
100
AcDbSpline
210
0.0
220
0.0
230
1.0
 70
     8
 71
     3
 72
     8
 73
     4
 74
     0
 42
0.000000001
 43
0.0000000001
 40
0.0
 40
0.0
 40
0.0
 40
0.0
 40
1.0
 40
1.0
 40
1.0
 40
1.0
 10
55.97340545372812
 20
-19.75188069694967
 30
0.0
 10
55.98986858510424
 20
-19.76044184681075
 30
0.0
 10
56.00421755458909
 20
-19.77085188349651
 30
0.0
 10
56.01752150108673
 20
-19.78389055492754
 30
0.0
  0
SPLINE
  5
92
330
70
100
AcDbEntity
  8
Livello 1
370
     9
100
AcDbSpline
210
0.0
220
0.0
230
1.0
 70
     8
 71
     3
 72
     8
 73
     4
 74
     0
 42
0.000000001
 43
0.0000000001
 40
0.0
 40
0.0
 40
0.0
 40
0.0
 40
1.0
 40
1.0
 40
1.0
 40
1.0
 10
23.56381814470418
 20
-19.78383428445878
 30
0.0
 10
23.5781711335085
 20
-19.76974255140158
 30
0.0
 10
23.59384647832408
 20
-19.75868138500871
 30
0.0
 10
23.61188920213912
 20
-19.74985496008167
 30
0.0
  0
SPLINE
  5
93
330
70
100
AcDbEntity
  8
Livello 1
370
     9
100
AcDbSpline
210
0.0
220
0.0
230
1.0
 70
     8
 71
     3
 72
     8
 73
     4
 74
     0
 42
0.000000001
 43
0.0000000001
 40
0.0
 40
0.0
 40
0.0
 40
0.0
 40
1.0
 40
1.0
 40
1.0
 40
1.0
 10
23.5077767773283
 20
-19.91427726924113
 30
0.0
 10
23.50869720142116
 20
-19.86383481348791
 30
0.0
 10
23.52370935857186
 20
-19.82683296108414
 30
0.0
 10
23.55795395801524
 20
-19.78982307004271
 30
0.0
  0
SPLINE
  5
94
330
70
100
AcDbEntity
  8
Livello 1
370
     9
100
AcDbSpline
210
0.0
220
0.0
230
1.0
 70
     8
 71
     3
 72
     8
 73
     4
 74
     0
 42
0.000000001
 43
0.0000000001
 40
0.0
 40
0.0
 40
0.0
 40
0.0
 40
1.0
 40
1.0
 40
1.0
 40
1.0
 10
22.00341795468045
 20
-19.91535444678221
 30
0.0
 10
22.00473227205373
 20
-19.82342457841696
 30
0.0
 10
22.037658534805
 20
-19.77640658260753
 30
0.0
 10
22.12353128916106
 20
-19.74361697670839
 30
0.0
  0
LINE
  5
95
330
70
100
AcDbEntity
  8
Livello 1
370
     9
100
AcDbLine
 10
22.00341795468045
 20
-19.91557952865664
 30
0.0
 11
21.86986803616955
 21
-27.5714661684955
 31
0.0
  0
LINE
  5
96
330
70
100
AcDbEntity
  8
Livello 1
370
     9
100
AcDbLine
 10
23.00227906157387
 20
-17.49647189166875
 30
0.0
 11
22.98383842515991
 21
-17.38241969051712
 31
0.0
  0
SPLINE
  5
97
330
70
100
AcDbEntity
  8
Livello 1
370
     9
100
AcDbSpline
210
0.0
220
0.0
230
1.0
 70
     8
 71
     3
 72
     8
 73
     4
 74
     0
 42
0.000000001
 43
0.0000000001
 40
0.0
 40
0.0
 40
0.0
 40
0.0
 40
1.0
 40
1.0
 40
1.0
 40
1.0
 10
22.59560032726605
 20
-15.67499682407952
 30
0.0
 10
22.61430221942682
 20
-15.68540686076527
 30
0.0
 10
22.62799603988508
 20
-15.69910470054237
 30
0.0
 10
22.64024692475656
 20
-15.71635561847805
 30
0.0
  0
SPLINE
  5
98
330
70
100
AcDbEntity
  8
Livello 1
370
     9
100
AcDbSpline
210
0.0
220
0.0
230
1.0
 70
     8
 71
     3
 72
     8
 73
     4
 74
     0
 42
0.000000001
 43
0.0000000001
 40
0.0
 40
0.0
 40
0.0
 40
0.0
 40
1.0
 40
1.0
 40
1.0
 40
1.0
 10
22.66960805139211
 20
-15.71640385030851
 30
0.0
 10
22.68580590770163
 20
-15.73366280688249
 30
0.0
 10
22.69752624244087
 20
-15.75249733657624
 30
0.0
 10
22.70635266736791
 20
-15.77449105114847
 30
0.0
  0
SPLINE
  5
99
330
70
100
AcDbEntity
  8
Livello 1
370
     9
100
AcDbSpline
210
0.0
220
0.0
230
1.0
 70
     8
 71
     3
 72
     8
 73
     4
 74
     0
 42
0.000000001
 43
0.0000000001
 40
0.0
 40
0.0
 40
0.0
 40
0.0
 40
1.0
 40
1.0
 40
1.0
 40
1.0
 10
22.70831409512947
 20
-15.77941873646793
 30
0.0
 10
22.71331814751315
 20
-15.79285933981737
 30
0.0
 10
22.71674260745726
 20
-15.80655717959511
 30
0.0
 10
22.71871609317628
 20
-15.82064891265231
 30
0.0
  0
LINE
  5
9A
330
70
100
AcDbEntity
  8
Livello 1
370
     9
100
AcDbLine
 10
22.54710724131662
 20
-15.67499682407952
 30
0.0
 11
22.59320079371339
 21
-15.67499682407952
 31
0.0
  0
SPLINE
  5
9B
330
70
100
AcDbEntity
  8
Livello 1
370
     9
100
AcDbSpline
210
0.0
220
0.0
230
1.0
 70
     8
 71
     3
 72
     8
 73
     4
 74
     0
 42
0.000000001
 43
0.0000000001
 40
0.0
 40
0.0
 40
0.0
 40
0.0
 40
1.0
 40
1.0
 40
1.0
 40
1.0
 10
21.78117773906582
 20
-15.71535882732066
 30
0.0
 10
21.81923667241491
 20
-15.67795504299848
 30
0.0
 10
21.8574322626158
 20
-15.66228773682151
 30
0.0
 10
21.91077264750038
 20
-15.66202246175492
 30
0.0
  0
SPLINE
  5
9C
330
70
100
AcDbEntity
  8
Livello 1
370
     9
100
AcDbSpline
210
0.0
220
0.0
230
1.0
 70
     8
 71
     3
 72
     8
 73
     4
 74
     0
 42
0.000000001
 43
0.0000000001
 40
0.0
 40
0.0
 40
0.0
 40
0.0
 40
1.0
 40
1.0
 40
1.0
 40
1.0
 10
21.72532126037254
 20
-15.84785970352487
 30
0.0
 10
21.72544987858637
 20
-15.79386416961307
 30
0.0
 10
21.74151911668205
 20
-15.75540732366537
 30
0.0
 10
21.77958206935029
 20
-15.71695047771703
 30
0.0
  0
LINE
  5
9D
330
70
100
AcDbEntity
  8
Livello 1
370
     9
100
AcDbLine
 10
14.5715118956625
 20
-30.10899902590638
 30
0.0
 11
14.53897952619102
 21
-30.09069504634518
 31
0.0
  0
LINE
  5
9E
330
70
100
AcDbEntity
  8
Livello 1
370
     9
100
AcDbLine
 10
17.04053344793064
 20
-24.6446863640756
 30
0.0
 11
17.46370143918906
 21
-24.88228439829089
 31
0.0
  0
LINE
  5
9F
330
70
100
AcDbEntity
  8
Livello 1
370
     9
100
AcDbLine
 10
17.46371550680609
 20
-24.8823085142058
 30
0.0
 11
17.496245866618
 21
-24.90062053240594
 31
0.0
  0
LINE
  5
A0
330
70
100
AcDbEntity
  8
Livello 1
370
     9
100
AcDbLine
 10
17.91943998345124
 20
-25.13823464389719
 30
0.0
 11
17.49626998253324
 21
-24.90064464832085
 31
0.0
  0
SPLINE
  5
A1
330
70
100
AcDbEntity
  8
Livello 1
370
     9
100
AcDbSpline
210
0.0
220
0.0
230
1.0
 70
     8
 71
     3
 72
     8
 73
     4
 74
     0
 42
0.000000001
 43
0.0000000001
 40
0.0
 40
0.0
 40
0.0
 40
0.0
 40
1.0
 40
1.0
 40
1.0
 40
1.0
 10
14.53899359380805
 20
-30.09070308498349
 30
0.0
 10
14.30521592247719
 20
-29.9595285841097
 30
0.0
 10
14.22211046937909
 20
-29.6635861126268
 30
0.0
 10
14.35341961744543
 20
-29.4299430884885
 30
0.0
  0
LINE
  5
A2
330
70
100
AcDbEntity
  8
Livello 1
370
     9
100
AcDbLine
 10
14.3534477526795
 20
-29.42990289529698
 30
0.0
 11
17.0404932547388
 21
-24.64467028679899
 31
0.0
  0
SPLINE
  5
A3
330
70
100
AcDbEntity
  8
Livello 1
370
     9
100
AcDbSpline
210
0.0
220
0.0
230
1.0
 70
     8
 71
     3
 72
     8
 73
     4
 74
     0
 42
0.000000001
 43
0.0000000001
 40
0.0
 40
0.0
 40
0.0
 40
0.0
 40
1.0
 40
1.0
 40
1.0
 40
1.0
 10
15.23235428820042
 20
-29.92345117511858
 30
0.0
 10
15.1011757680078
 20
-30.15710223789518
 30
0.0
 10
14.80523329652491
 20
-30.24020568133339
 30
0.0
 10
14.57145763485363
 20
-30.10903118046023
 30
0.0
  0
LINE
  5
A4
330
70
100
AcDbEntity
  8
Livello 1
370
     9
100
AcDbLine
 10
15.23235428820042
 20
-29.92345117511858
 30
0.0
 11
17.9193997902594
 21
-25.13821856662059
 31
0.0
  0
LINE
  5
A5
330
70
100
AcDbEntity
  8
Livello 1
370
     9
100
AcDbLine
 10
17.33345741070665
 20
-24.80917298234214
 30
0.0
 11
21.23758893540942
 21
-17.85659485187412
 31
0.0
  0
LINE
  5
A6
330
70
100
AcDbEntity
  8
Livello 1
370
     9
100
AcDbLine
 10
21.5630734028913
 20
-18.03937741106418
 30
0.0
 11
17.65893986852864
 21
-24.99195554153221
 31
0.0
  0
SPLINE
  5
A7
330
70
100
AcDbEntity
  8
Livello 1
370
     9
100
AcDbSpline
210
0.0
220
0.0
230
1.0
 70
     8
 71
     3
 72
     8
 73
     4
 74
     0
 42
0.000000001
 43
0.0000000001
 40
0.0
 40
0.0
 40
0.0
 40
0.0
 40
1.0
 40
1.0
 40
1.0
 40
1.0
 10
21.55093103963789
 20
-17.48116632421802
 30
0.0
 10
21.50575389201515
 20
-17.52384345530867
 30
0.0
 10
21.45965632029923
 20
-17.56519421106889
 30
0.0
 10
21.41197915614439
 20
-17.6048407754952
 30
0.0
  0
SPLINE
  5
A8
330
70
100
AcDbEntity
  8
Livello 1
370
     9
100
AcDbSpline
210
0.0
220
0.0
230
1.0
 70
     8
 71
     3
 72
     8
 73
     4
 74
     0
 42
0.000000001
 43
0.0000000001
 40
0.0
 40
0.0
 40
0.0
 40
0.0
 40
1.0
 40
1.0
 40
1.0
 40
1.0
 10
21.25618632527159
 20
-17.7211518340282
 30
0.0
 10
21.26830055329094
 20
-17.77133705335376
 30
0.0
 10
21.26276997009418
 20
-17.81150612927368
 30
0.0
 10
21.23761305132465
 20
-17.85654662004429
 30
0.0
  0
SPLINE
  5
A9
330
70
100
AcDbEntity
  8
Livello 1
370
     9
100
AcDbSpline
210
0.0
220
0.0
230
1.0
 70
     8
 71
     3
 72
     8
 73
     4
 74
     0
 42
0.000000001
 43
0.0000000001
 40
0.0
 40
0.0
 40
0.0
 40
0.0
 40
1.0
 40
1.0
 40
1.0
 40
1.0
 10
21.25655610263646
 20
-17.72092675215376
 30
0.0
 10
21.311210804894
 20
-17.6858943661505
 30
0.0
 10
21.36205117324647
 20
-17.646384458576
 30
0.0
 10
21.41196709818661
 20
-17.60489704596397
 30
0.0
  0
SPLINE
  5
AA
330
70
100
AcDbEntity
  8
Livello 1
370
     9
100
AcDbSpline
210
0.0
220
0.0
230
1.0
 70
     8
 71
     3
 72
     8
 73
     4
 74
     0
 42
0.000000001
 43
0.0000000001
 40
0.0
 40
0.0
 40
0.0
 40
0.0
 40
1.0
 40
1.0
 40
1.0
 40
1.0
 10
21.18252426259517
 20
-15.92376052698627
 30
0.0
 10
21.07597211104017
 20
-15.8639691348124
 30
0.0
 10
20.96929134127103
 20
-15.80404108578608
 30
0.0
 10
20.86274320903486
 20
-15.74412107539807
 30
0.0
  0
SPLINE
  5
AB
330
70
100
AcDbEntity
  8
Livello 1
370
     9
100
AcDbSpline
210
0.0
220
0.0
230
1.0
 70
     8
 71
     3
 72
     8
 73
     4
 74
     0
 42
0.000000001
 43
0.0000000001
 40
0.0
 40
0.0
 40
0.0
 40
0.0
 40
1.0
 40
1.0
 40
1.0
 40
1.0
 10
21.18730725242356
 20
-15.92644543220096
 30
0.0
 10
20.88741379018316
 20
-16.4602512129651
 30
0.0
 10
21.04743494483687
 20
-17.13497432430314
 30
0.0
 10
21.55502672588584
 20
-17.47727562324875
 30
0.0
  0
LINE
  5
AC
330
70
100
AcDbEntity
  8
Livello 1
370
     9
100
AcDbLine
 10
23.09822824912318
 20
-18.08862210970113
 30
0.0
 11
23.50690860438473
 21
-17.35963818938534
 31
0.0
  0
LINE
  5
AD
330
70
100
AcDbEntity
  8
Livello 1
370
     9
100
AcDbLine
 10
61.66049290062492
 20
-25.13823464389719
 30
0.0
 11
62.08365486290525
 21
-24.90064464832085
 31
0.0
  0
SPLINE
  5
AE
330
70
100
AcDbEntity
  8
Livello 1
370
     9
100
AcDbSpline
210
0.0
220
0.0
230
1.0
 70
     8
 71
     3
 72
     8
 73
     4
 74
     0
 42
0.000000001
 43
0.0000000001
 40
0.0
 40
0.0
 40
0.0
 40
0.0
 40
1.0
 40
1.0
 40
1.0
 40
1.0
 10
65.040941299928
 20
-30.09070308498349
 30
0.0
 10
65.27458432406631
 20
-29.9595285841097
 30
0.0
 10
65.35768776750515
 20
-29.6635861126268
 30
0.0
 10
65.22651326663136
 20
-29.4299430884885
 30
0.0
  0
LINE
  5
AF
330
70
100
AcDbEntity
  8
Livello 1
370
     9
100
AcDbLine
 10
65.00838481454161
 20
-30.10899902590638
 30
0.0
 11
65.0409091453748
 21
-30.09069504634518
 31
0.0
  0
SPLINE
  5
B0
330
70
100
AcDbEntity
  8
Livello 1
370
     9
100
AcDbSpline
210
0.0
220
0.0
230
1.0
 70
     8
 71
     3
 72
     8
 73
     4
 74
     0
 42
0.000000001
 43
0.0000000001
 40
0.0
 40
0.0
 40
0.0
 40
0.0
 40
1.0
 40
1.0
 40
1.0
 40
1.0
 10
65.00838481454161
 20
-30.10899902590638
 30
0.0
 10
64.77460513355087
 20
-30.24018156541848
 30
0.0
 10
64.47879128028211
 20
-30.15720674019377
 30
0.0
 10
64.34761677940833
 20
-29.92342705920366
 30
0.0
  0
LINE
  5
B1
330
70
100
AcDbEntity
  8
Livello 1
370
     9
100
AcDbLine
 10
62.11621938692996
 20
-24.8823085142058
 30
0.0
 11
62.53938134920965
 21
-24.64471851862946
 31
0.0
  0
LINE
  5
B2
330
70
100
AcDbEntity
  8
Livello 1
370
     9
100
AcDbLine
 10
62.08366290154356
 20
-24.90058033921378
 30
0.0
 11
62.11618723237674
 21
-24.88227635965194
 31
0.0
  0
LINE
  5
B3
330
70
100
AcDbEntity
  8
Livello 1
370
     9
100
AcDbLine
 10
62.53939742648626
 20
-24.6446863640756
 30
0.0
 11
65.22644091888598
 21
-29.4299270112119
 31
0.0
  0
LINE
  5
B4
330
70
100
AcDbEntity
  8
Livello 1
370
     9
100
AcDbLine
 10
61.66049290062492
 20
-25.13823464389719
 30
0.0
 11
64.34753639302464
 21
-29.92347529103349
 31
0.0
  0
SPLINE
  5
B5
330
70
100
AcDbEntity
  8
Livello 1
370
     9
100
AcDbSpline
210
0.0
220
0.0
230
1.0
 70
     8
 71
     3
 72
     8
 73
     4
 74
     0
 42
0.000000001
 43
0.0000000001
 40
0.0
 40
0.0
 40
0.0
 40
0.0
 40
1.0
 40
1.0
 40
1.0
 40
1.0
 10
58.32374253948605
 20
-17.7211518340282
 30
0.0
 10
58.31149165461457
 20
-17.77133705335376
 30
0.0
 10
58.31702223781069
 20
-17.81150612927368
 30
0.0
 10
58.34244041232736
 20
-17.85654662004429
 30
0.0
  0
SPLINE
  5
B6
330
70
100
AcDbEntity
  8
Livello 1
370
     9
100
AcDbSpline
210
0.0
220
0.0
230
1.0
 70
     8
 71
     3
 72
     8
 73
     4
 74
     0
 42
0.000000001
 43
0.0000000001
 40
0.0
 40
0.0
 40
0.0
 40
0.0
 40
1.0
 40
1.0
 40
1.0
 40
1.0
 10
56.31142215842437
 20
-17.09506248481023
 30
0.0
 10
56.28757955702748
 20
-17.10850308816032
 30
0.0
 10
56.26373695563123
 20
-17.121798996019
 30
0.0
 10
56.23990239287263
 20
-17.13523959936909
 30
0.0
  0
SPLINE
  5
B7
330
70
100
AcDbEntity
  8
Livello 1
370
     9
100
AcDbSpline
210
0.0
220
0.0
230
1.0
 70
     8
 71
     3
 72
     8
 73
     4
 74
     0
 42
0.000000001
 43
0.0000000001
 40
0.0
 40
0.0
 40
0.0
 40
0.0
 40
1.0
 40
1.0
 40
1.0
 40
1.0
 10
56.34267638439526
 20
-17.0775462918086
 30
0.0
 10
56.32976633117837
 20
-17.08005434697932
 30
0.0
 10
56.32186434966334
 20
-17.08927466518647
 30
0.0
 10
56.31145431297759
 20
-17.09507052344918
 30
0.0
  0
SPLINE
  5
B8
330
70
100
AcDbEntity
  8
Livello 1
370
     9
100
AcDbSpline
210
0.0
220
0.0
230
1.0
 70
     8
 71
     3
 72
     8
 73
     4
 74
     0
 42
0.000000001
 43
0.0000000001
 40
0.0
 40
0.0
 40
0.0
 40
0.0
 40
1.0
 40
1.0
 40
1.0
 40
1.0
 10
56.22980586308394
 20
-17.14090683941766
 30
0.0
 10
56.1627636191028
 20
-17.17857589880579
 30
0.0
 10
56.09572941375997
 20
-17.21611633997978
 30
0.0
 10
56.02868716977819
 20
-17.25391401758142
 30
0.0
  0
LINE
  5
B9
330
70
100
AcDbEntity
  8
Livello 1
370
     9
100
AcDbLine
 10
56.47834448411625
 20
-18.08265744003275
 30
0.0
 11
56.01724014874353
 21
-17.26029669644545
 31
0.0
  0
LINE
  5
BA
330
70
100
AcDbEntity
  8
Livello 1
370
     9
100
AcDbLine
 10
56.38496766084474
 20
-17.15296479696855
 30
0.0
 11
56.5751457673322
 21
-17.49210691103569
 31
0.0
  0
LINE
  5
BB
330
70
100
AcDbEntity
  8
Livello 1
370
     9
100
AcDbLine
 10
38.80343660639998
 20
-7.784558793966958
 30
0.0
 11
41.28897153153363
 21
-7.784558793966958
 31
0.0
  0
LINE
  5
BC
330
70
100
AcDbEntity
  8
Livello 1
370
     9
100
AcDbLine
 10
34.7907774347633
 20
-7.784558793966958
 30
0.0
 11
38.80343258708082
 21
-7.784558793966958
 31
0.0
  0
SPLINE
  5
BD
330
70
100
AcDbEntity
  8
Livello 1
370
     9
100
AcDbSpline
210
0.0
220
0.0
230
1.0
 70
     8
 71
     3
 72
     8
 73
     4
 74
     0
 42
0.000000001
 43
0.0000000001
 40
0.0
 40
0.0
 40
0.0
 40
0.0
 40
1.0
 40
1.0
 40
1.0
 40
1.0
 10
36.20314207993818
 20
-9.277904682051442
 30
0.0
 10
36.47524195002482
 20
-8.783753504352562
 30
0.0
 10
37.11085306638761
 20
-8.779139325929516
 30
0.0
 10
37.38703656476474
 20
-9.271714930509274
 30
0.0
  0
SPLINE
  5
BE
330
70
100
AcDbEntity
  8
Livello 1
370
     9
100
AcDbSpline
210
0.0
220
0.0
230
1.0
 70
     8
 71
     3
 72
     8
 73
     4
 74
     0
 42
0.000000001
 43
0.0000000001
 40
0.0
 40
0.0
 40
0.0
 40
0.0
 40
1.0
 40
1.0
 40
1.0
 40
1.0
 10
37.23269470811736
 20
-9.086906634450567
 30
0.0
 10
37.17105442911883
 20
-9.144206048730959
 30
0.0
 10
37.1191609991402
 20
-9.206762732503202
 30
0.0
 10
37.07425314590257
 20
-9.277880566136531
 30
0.0
  0
LINE
  5
BF
330
70
100
AcDbEntity
  8
Livello 1
370
     9
100
AcDbLine
 10
34.36435580462568
 20
-7.784558793966958
 30
0.0
 11
34.79081360863567
 21
-7.784558793966958
 31
0.0
  0
SPLINE
  5
C0
330
70
100
AcDbEntity
  8
Livello 1
370
     9
100
AcDbSpline
210
0.0
220
0.0
230
1.0
 70
     8
 71
     3
 72
     8
 73
     4
 74
     0
 42
0.000000001
 43
0.0000000001
 40
0.0
 40
0.0
 40
0.0
 40
0.0
 40
1.0
 40
1.0
 40
1.0
 40
1.0
 10
46.77475137712387
 20
-9.277904682051442
 30
0.0
 10
46.82479592027783
 20
-9.44807461764379
 30
0.0
 10
46.84047126509374
 20
-9.612569274548631
 30
0.0
 10
46.82348160290486
 20
-9.789186198110799
 30
0.0
  0
LINE
  5
C1
330
70
100
AcDbEntity
  8
Livello 1
370
     9
100
AcDbLine
 10
44.44747312552178
 20
-9.277904682051442
 30
0.0
 11
46.77469912597425
 21
-9.277904682051442
 31
0.0
  0
SPLINE
  5
C2
330
70
100
AcDbEntity
  8
Livello 1
370
     9
100
AcDbSpline
210
0.0
220
0.0
230
1.0
 70
     8
 71
     3
 72
     8
 73
     4
 74
     0
 42
0.000000001
 43
0.0000000001
 40
0.0
 40
0.0
 40
0.0
 40
0.0
 40
1.0
 40
1.0
 40
1.0
 40
1.0
 10
46.79032221964054
 20
-11.67208450146307
 30
0.0
 10
46.80256908519286
 20
-11.5534261605267
 30
0.0
 10
46.79058347538799
 20
-11.44450261065343
 30
0.0
 10
46.75304705353251
 20
-11.33123819606201
 30
0.0
  0
SPLINE
  5
C3
330
70
100
AcDbEntity
  8
Livello 1
370
     9
100
AcDbSpline
210
0.0
220
0.0
230
1.0
 70
     8
 71
     3
 72
     8
 73
     4
 74
     0
 42
0.000000001
 43
0.0000000001
 40
0.0
 40
0.0
 40
0.0
 40
0.0
 40
1.0
 40
1.0
 40
1.0
 40
1.0
 10
47.80389805406485
 20
-18.79799979103958
 30
0.0
 10
47.79322676163293
 20
-15.79499761762291
 30
0.0
 10
47.77834724201553
 20
-12.79198740556794
 30
0.0
 10
47.75938007478848
 20
-9.789113850365422
 30
0.0
  0
SPLINE
  5
C4
330
70
100
AcDbEntity
  8
Livello 1
370
     9
100
AcDbSpline
210
0.0
220
0.0
230
1.0
 70
     8
 71
     3
 72
     8
 73
     4
 74
     0
 42
0.000000001
 43
0.0000000001
 40
0.0
 40
0.0
 40
0.0
 40
0.0
 40
1.0
 40
1.0
 40
1.0
 40
1.0
 10
46.82342935175525
 20
-9.789121889003727
 30
0.0
 10
46.84331292375601
 20
-12.79200348284519
 30
0.0
 10
46.85872299350596
 20
-15.79500565626121
 30
0.0
 10
46.86978817921797
 20
-18.79801586831619
 30
0.0
  0
SPLINE
  5
C5
330
70
100
AcDbEntity
  8
Livello 1
370
     9
100
AcDbSpline
210
0.0
220
0.0
230
1.0
 70
     8
 71
     3
 72
     8
 73
     4
 74
     0
 42
0.000000001
 43
0.0000000001
 40
0.0
 40
0.0
 40
0.0
 40
0.0
 40
1.0
 40
1.0
 40
1.0
 40
1.0
 10
50.97337640874368
 20
-9.789121889003727
 30
0.0
 10
50.99115385749276
 20
-9.611717178881352
 30
0.0
 10
50.97429683283654
 20
-9.447881690322571
 30
0.0
 10
50.92069117288634
 20
-9.277848411583315
 30
0.0
  0
LINE
  5
C6
330
70
100
AcDbEntity
  8
Livello 1
370
     9
100
AcDbLine
 10
50.92069519220549
 20
-9.277904682051442
 30
0.0
 11
51.23204371411854
 21
-9.277904682051442
 31
0.0
  0
LINE
  5
C7
330
70
100
AcDbEntity
  8
Livello 1
370
     9
100
AcDbLine
 10
51.23209998458731
 20
-9.277904682051442
 30
0.0
 11
53.56406476235654
 21
-9.277904682051442
 31
0.0
  0
SPLINE
  5
C8
330
70
100
AcDbEntity
  8
Livello 1
370
     9
100
AcDbSpline
210
0.0
220
0.0
230
1.0
 70
     8
 71
     3
 72
     8
 73
     4
 74
     0
 42
0.000000001
 43
0.0000000001
 40
0.0
 40
0.0
 40
0.0
 40
0.0
 40
1.0
 40
1.0
 40
1.0
 40
1.0
 10
54.12192214911475
 20
-9.789121889003727
 30
0.0
 10
54.09663259281224
 20
-9.499899719196198
 30
0.0
 10
53.85442841881285
 20
-9.277848411583315
 30
0.0
 10
53.56401653052671
 20
-9.277848411583315
 30
0.0
  0
LINE
  5
C9
330
70
100
AcDbEntity
  8
Livello 1
370
     9
100
AcDbLine
 10
54.6819178136785
 20
-9.789121889003727
 30
0.0
 11
55.4700339578221
 21
-18.79801586831619
 31
0.0
  0
LINE
  5
CA
330
70
100
AcDbEntity
  8
Livello 1
370
     9
100
AcDbLine
 10
47.71249471651236
 20
-9.277904682051442
 30
0.0
 11
47.77676363025682
 21
-9.277904682051442
 31
0.0
  0
LINE
  5
CB
330
70
100
AcDbEntity
  8
Livello 1
370
     9
100
AcDbLine
 10
47.77675157229936
 20
-9.277904682051442
 30
0.0
 11
48.50889869681279
 21
-9.277904682051442
 31
0.0
  0
LINE
  5
CC
330
70
100
AcDbEntity
  8
Livello 1
370
     9
100
AcDbLine
 10
53.66998990011934
 20
-9.277904682051442
 30
0.0
 11
54.1239720018983
 21
-9.277904682051442
 31
0.0
  0
LINE
  5
CD
330
70
100
AcDbEntity
  8
Livello 1
370
     9
100
AcDbLine
 10
48.50889869681279
 20
-9.277904682051442
 30
0.0
 11
49.36273874824542
 21
-9.277904682051442
 31
0.0
  0
SPLINE
  5
CE
330
70
100
AcDbEntity
  8
Livello 1
370
     9
100
AcDbSpline
210
0.0
220
0.0
230
1.0
 70
     8
 71
     3
 72
     8
 73
     4
 74
     0
 42
0.000000001
 43
0.0000000001
 40
0.0
 40
0.0
 40
0.0
 40
0.0
 40
1.0
 40
1.0
 40
1.0
 40
1.0
 10
54.12403631100538
 20
-9.277904682051442
 30
0.0
 10
54.41444016065322
 20
-9.277904682051442
 30
0.0
 10
54.6566443346526
 20
-9.499835410089124
 30
0.0
 10
54.6819338909551
 20
-9.789186198110799
 30
0.0
  0
SPLINE
  5
CF
330
70
100
AcDbEntity
  8
Livello 1
370
     9
100
AcDbSpline
210
0.0
220
0.0
230
1.0
 70
     8
 71
     3
 72
     8
 73
     4
 74
     0
 42
0.000000001
 43
0.0000000001
 40
0.0
 40
0.0
 40
0.0
 40
0.0
 40
1.0
 40
1.0
 40
1.0
 40
1.0
 10
49.98212789238378
 20
-9.277904682051442
 30
0.0
 10
50.03757440052099
 20
-9.447809342577835
 30
0.0
 10
50.05509059352263
 20
-9.611250937856516
 30
0.0
 10
50.03664995710834
 20
-9.789186198110799
 30
0.0
  0
LINE
  5
D0
330
70
100
AcDbEntity
  8
Livello 1
370
     9
100
AcDbLine
 10
49.36271865164965
 20
-9.277904682051442
 30
0.0
 11
49.98212387306463
 21
-9.277904682051442
 31
0.0
  0
SPLINE
  5
D1
330
70
100
AcDbEntity
  8
Livello 1
370
     9
100
AcDbSpline
210
0.0
220
0.0
230
1.0
 70
     8
 71
     3
 72
     8
 73
     4
 74
     0
 42
0.000000001
 43
0.0000000001
 40
0.0
 40
0.0
 40
0.0
 40
0.0
 40
1.0
 40
1.0
 40
1.0
 40
1.0
 10
50.03084606020732
 20
-11.35933323715442
 30
0.0
 10
50.02847466188905
 20
-11.34866596404166
 30
0.0
 10
50.03650928093738
 20
-11.33128642789184
 30
0.0
 10
50.01767475124299
 20
-11.33128642789184
 30
0.0
  0
SPLINE
  5
D2
330
70
100
AcDbEntity
  8
Livello 1
370
     9
100
AcDbSpline
210
0.0
220
0.0
230
1.0
 70
     8
 71
     3
 72
     8
 73
     4
 74
     0
 42
0.000000001
 43
0.0000000001
 40
0.0
 40
0.0
 40
0.0
 40
0.0
 40
1.0
 40
1.0
 40
1.0
 40
1.0
 10
47.75935193955379
 20
-9.789121889003727
 30
0.0
 10
47.7756824333966
 20
-9.613035515574109
 30
0.0
 10
47.76053361939409
 20
-9.448138926750864
 30
0.0
 10
47.71246256195914
 20
-9.277848411583315
 30
0.0
  0
SPLINE
  5
D3
330
70
100
AcDbEntity
  8
Livello 1
370
     9
100
AcDbSpline
210
0.0
220
0.0
230
1.0
 70
     8
 71
     3
 72
     8
 73
     4
 74
     0
 42
0.000000001
 43
0.0000000001
 40
0.0
 40
0.0
 40
0.0
 40
0.0
 40
1.0
 40
1.0
 40
1.0
 40
1.0
 10
44.50145660147612
 20
-9.789121889003727
 30
0.0
 10
44.52345031604835
 20
-12.79200348284519
 30
0.0
 10
44.54057261576988
 20
-15.79500565626121
 30
0.0
 10
44.5528194813222
 20
-18.79801586831619
 30
0.0
  0
SPLINE
  5
D4
330
70
100
AcDbEntity
  8
Livello 1
370
     9
100
AcDbSpline
210
0.0
220
0.0
230
1.0
 70
     8
 71
     3
 72
     8
 73
     4
 74
     0
 42
0.000000001
 43
0.0000000001
 40
0.0
 40
0.0
 40
0.0
 40
0.0
 40
1.0
 40
1.0
 40
1.0
 40
1.0
 10
43.56471809188332
 20
-9.789121889003727
 30
0.0
 10
43.5876322305484
 20
-12.79200348284519
 30
0.0
 10
43.60554633614929
 20
-15.79500565626121
 30
0.0
 10
43.61845237004767
 20
-18.79801586831619
 30
0.0
  0
SPLINE
  5
D5
330
70
100
AcDbEntity
  8
Livello 1
370
     9
100
AcDbSpline
210
0.0
220
0.0
230
1.0
 70
     8
 71
     3
 72
     8
 73
     4
 74
     0
 42
0.000000001
 43
0.0000000001
 40
0.0
 40
0.0
 40
0.0
 40
0.0
 40
1.0
 40
1.0
 40
1.0
 40
1.0
 10
41.24006043638885
 20
-9.789121889003727
 30
0.0
 10
41.26600514171892
 20
-12.79200348284519
 30
0.0
 10
41.28615398878562
 20
-15.79500565626121
 30
0.0
 10
41.30051099690942
 20
-18.79801586831619
 30
0.0
  0
SPLINE
  5
D6
330
70
100
AcDbEntity
  8
Livello 1
370
     9
100
AcDbSpline
210
0.0
220
0.0
230
1.0
 70
     8
 71
     3
 72
     8
 73
     4
 74
     0
 42
0.000000001
 43
0.0000000001
 40
0.0
 40
0.0
 40
0.0
 40
0.0
 40
1.0
 40
1.0
 40
1.0
 40
1.0
 10
40.30197545486988
 20
-9.789121889003727
 30
0.0
 10
40.32936711510556
 20
-12.79200348284519
 30
0.0
 10
40.35057304311822
 20
-15.79500565626121
 30
0.0
 10
40.36571783780158
 20
-18.79801586831619
 30
0.0
  0
SPLINE
  5
D7
330
70
100
AcDbEntity
  8
Livello 1
370
     9
100
AcDbSpline
210
0.0
220
0.0
230
1.0
 70
     8
 71
     3
 72
    14
 73
    10
 74
     0
 42
0.000000001
 43
0.0000000001
 40
0.0
 40
0.0
 40
0.0
 40
0.0
 40
1.0
 40
1.0
 40
1.0
 40
2.0
 40
2.0
 40
2.0
 40
3.0
 40
3.0
 40
3.0
 40
3.0
 10
41.24006043638885
 20
-9.789121889003727
 30
0.0
 10
41.23926863051014
 20
-9.701806199060881
 30
0.0
 10
41.23676459465857
 20
-9.614619127332181
 30
0.0
 10
41.23070748064906
 20
-9.527560673816985
 30
0.0
 10
41.22767691398473
 20
-9.483967137952635
 30
0.0
 10
41.22385856076083
 20
-9.440502220301791
 30
0.0
 10
41.21780144675067
 20
-9.397302577717544
 30
0.0
 10
41.21424434927358
 20
-9.372414953332794
 30
0.0
 10
41.22201369325531
 20
-9.277848411583315
 30
0.0
 10
41.17631403413865
 20
-9.277848411583315
 30
0.0
  0
LINE
  5
D8
330
70
100
AcDbEntity
  8
Livello 1
370
     9
100
AcDbLine
 10
24.10982657850932
 20
-18.79799979103958
 30
0.0
 11
24.89794674197208
 21
-9.789113850365422
 31
0.0
  0
SPLINE
  5
D9
330
70
100
AcDbEntity
  8
Livello 1
370
     9
100
AcDbSpline
210
0.0
220
0.0
230
1.0
 70
     8
 71
     3
 72
     8
 73
     4
 74
     0
 42
0.000000001
 43
0.0000000001
 40
0.0
 40
0.0
 40
0.0
 40
0.0
 40
1.0
 40
1.0
 40
1.0
 40
1.0
 10
25.61496514907843
 20
-11.3346546173675
 30
0.0
 10
25.63168953620102
 20
-11.33241987590168
 30
0.0
 10
25.64828530510979
 20
-11.33123819606201
 30
0.0
 10
25.66514232976569
 20
-11.33123819606201
 30
0.0
  0
SPLINE
  5
DA
330
70
100
AcDbEntity
  8
Livello 1
370
     9
100
AcDbSpline
210
0.0
220
0.0
230
1.0
 70
     8
 71
     3
 72
     8
 73
     4
 74
     0
 42
0.000000001
 43
0.0000000001
 40
0.0
 40
0.0
 40
0.0
 40
0.0
 40
1.0
 40
1.0
 40
1.0
 40
1.0
 10
25.29326286094839
 20
-11.67208450146307
 30
0.0
 10
25.30814238056579
 20
-11.50205926136147
 30
0.0
 10
25.3746540744147
 20
-11.41460691456618
 30
0.0
 10
25.53454259153544
 20
-11.35494414060645
 30
0.0
  0
LINE
  5
DB
330
70
100
AcDbEntity
  8
Livello 1
370
     9
100
AcDbLine
 10
24.6698262623919
 20
-18.79799979103958
 30
0.0
 11
25.29331511209769
 21
-11.67210057873967
 31
0.0
  0
SPLINE
  5
DC
330
70
100
AcDbEntity
  8
Livello 1
370
     9
100
AcDbSpline
210
0.0
220
0.0
230
1.0
 70
     8
 71
     3
 72
     8
 73
     4
 74
     0
 42
0.000000001
 43
0.0000000001
 40
0.0
 40
0.0
 40
0.0
 40
0.0
 40
1.0
 40
1.0
 40
1.0
 40
1.0
 10
26.78034664974533
 20
-11.52894850669931
 30
0.0
 10
26.75571626178855
 20
-11.39500871422778
 30
0.0
 10
26.69473515113639
 20
-11.34061124839757
 30
0.0
 10
26.55894647183988
 20
-11.33126231197692
 30
0.0
  0
SPLINE
  5
DD
330
70
100
AcDbEntity
  8
Livello 1
370
     9
100
AcDbSpline
210
0.0
220
0.0
230
1.0
 70
     8
 71
     3
 72
    17
 73
    13
 74
     0
 42
0.000000001
 43
0.0000000001
 40
0.0
 40
0.0
 40
0.0
 40
0.0
 40
1.0
 40
1.0
 40
1.0
 40
2.0
 40
2.0
 40
2.0
 40
3.0
 40
3.0
 40
3.0
 40
4.0
 40
4.0
 40
4.0
 40
4.0
 10
26.26913346211188
 20
-9.277904682051442
 30
0.0
 10
26.29942305147923
 20
-9.276723002211777
 30
0.0
 10
26.32919012935234
 20
-9.279359675596008
 30
0.0
 10
26.35855929462619
 20
-9.285678045352325
 30
0.0
 10
26.38516316830199
 20
-9.291345285401529
 30
0.0
 10
26.41124051116471
 20
-9.299906435261972
 30
0.0
 10
26.43600353665446
 20
-9.31136149493494
 30
0.0
 10
26.48907864647276
 20
-9.335855226039587
 30
0.0
 10
26.53596400474857
 20
-9.373267049000071
 30
0.0
 10
26.57350042660372
 20
-9.417776989638131
 30
0.0
 10
26.65911192521266
 20
-9.51958634455658
 30
0.0
 10
26.69546264790835
 20
-9.658534208731255
 30
0.0
 10
26.70323199189009
 20
-9.789186198110799
 30
0.0
  0
LINE
  5
DE
330
70
100
AcDbEntity
  8
Livello 1
370
     9
100
AcDbLine
 10
26.01586410240079
 20
-9.277904682051442
 30
0.0
 11
26.26912944279272
 21
-9.277904682051442
 31
0.0
  0
SPLINE
  5
DF
330
70
100
AcDbEntity
  8
Livello 1
370
     9
100
AcDbSpline
210
0.0
220
0.0
230
1.0
 70
     8
 71
     3
 72
     8
 73
     4
 74
     0
 42
0.000000001
 43
0.0000000001
 40
0.0
 40
0.0
 40
0.0
 40
0.0
 40
1.0
 40
1.0
 40
1.0
 40
1.0
 10
25.45798661904682
 20
-9.789121889003727
 30
0.0
 10
25.48300688096422
 20
-9.499634444129601
 30
0.0
 10
25.72534771181574
 20
-9.277583136516717
 30
0.0
 10
26.0158882183157
 20
-9.277848411583315
 30
0.0
  0
SPLINE
  5
E0
330
70
100
AcDbEntity
  8
Livello 1
370
     9
100
AcDbSpline
210
0.0
220
0.0
230
1.0
 70
     8
 71
     3
 72
    17
 73
    13
 74
     0
 42
0.000000001
 43
0.0000000001
 40
0.0
 40
0.0
 40
0.0
 40
0.0
 40
1.0
 40
1.0
 40
1.0
 40
2.0
 40
2.0
 40
2.0
 40
3.0
 40
3.0
 40
3.0
 40
4.0
 40
4.0
 40
4.0
 40
4.0
 10
27.77853653033524
 20
-9.789121889003727
 30
0.0
 10
27.77589985695068
 20
-9.718928498783052
 30
0.0
 10
27.76602438971663
 20
-9.64978013154959
 30
0.0
 10
27.74811028411575
 20
-9.582086757860697
 30
0.0
 10
27.73230632108602
 20
-9.523083152246393
 30
0.0
 10
27.71044122472793
 20
-9.465261226472394
 30
0.0
 10
27.67712106869625
 20
-9.414030984158971
 30
0.0
 10
27.65117636336683
 20
-9.373990526453201
 30
0.0
 10
27.61825010061524
 20
-9.338033697037284
 30
0.0
 10
27.57755449388224
 20
-9.313009415800726
 30
0.0
 10
27.54041196530719
 20
-9.290099296454149
 30
0.0
 10
27.49681842944284
 20
-9.276401456677053
 30
0.0
 10
27.45322489357817
 20
-9.277848411583315
 30
0.0
  0
SPLINE
  5
E1
330
70
100
AcDbEntity
  8
Livello 1
370
     9
100
AcDbSpline
210
0.0
220
0.0
230
1.0
 70
     8
 71
     3
 72
    11
 73
     7
 74
     0
 42
0.000000001
 43
0.0000000001
 40
0.0
 40
0.0
 40
0.0
 40
0.0
 40
1.0
 40
1.0
 40
1.0
 40
2.0
 40
2.0
 40
2.0
 40
2.0
 10
30.32753248605738
 20
-11.67208450146307
 30
0.0
 10
30.32582025608517
 20
-11.60755031265201
 30
0.0
 10
30.32002439782246
 20
-11.54459973559966
 30
0.0
 10
30.30514085888591
 20
-11.48151250169551
 30
0.0
 10
30.2952613723327
 20
-11.43936592073678
 30
0.0
 10
30.26944930453626
 20
-11.33123819606201
 30
0.0
 10
30.20438456559329
 20
-11.33123819606201
 30
0.0
  0
LINE
  5
E2
330
70
100
AcDbEntity
  8
Livello 1
370
     9
100
AcDbLine
 10
27.52728486885385
 20
-9.277904682051442
 30
0.0
 11
30.27636253353188
 21
-9.277904682051442
 31
0.0
  0
LINE
  5
E3
330
70
100
AcDbEntity
  8
Livello 1
370
     9
100
AcDbLine
 10
25.45585236056011
 20
-9.277904682051442
 30
0.0
 11
25.90997111919153
 21
-9.277904682051442
 31
0.0
  0
SPLINE
  5
E4
330
70
100
AcDbEntity
  8
Livello 1
370
     9
100
AcDbSpline
210
0.0
220
0.0
230
1.0
 70
     8
 71
     3
 72
     8
 73
     4
 74
     0
 42
0.000000001
 43
0.0000000001
 40
0.0
 40
0.0
 40
0.0
 40
0.0
 40
1.0
 40
1.0
 40
1.0
 40
1.0
 10
31.5247429753384
 20
-18.79799979103958
 30
0.0
 10
31.49365756077318
 20
-15.79486899940941
 30
0.0
 10
31.4498027691617
 20
-12.79198740556794
 30
0.0
 10
31.39316654254652
 20
-9.789113850365422
 30
0.0
  0
SPLINE
  5
E5
330
70
100
AcDbEntity
  8
Livello 1
370
     9
100
AcDbSpline
210
0.0
220
0.0
230
1.0
 70
     8
 71
     3
 72
     8
 73
     4
 74
     0
 42
0.000000001
 43
0.0000000001
 40
0.0
 40
0.0
 40
0.0
 40
0.0
 40
1.0
 40
1.0
 40
1.0
 40
1.0
 10
30.43546326409242
 20
-9.789121889003727
 30
0.0
 10
30.49947092209008
 20
-12.79186682599274
 30
0.0
 10
30.54899295375043
 20
-15.79474038119526
 30
0.0
 10
30.58402533975402
 20
-18.79801586831619
 30
0.0
  0
SPLINE
  5
E6
330
70
100
AcDbEntity
  8
Livello 1
370
     9
100
AcDbSpline
210
0.0
220
0.0
230
1.0
 70
     8
 71
     3
 72
     8
 73
     4
 74
     0
 42
0.000000001
 43
0.0000000001
 40
0.0
 40
0.0
 40
0.0
 40
0.0
 40
1.0
 40
1.0
 40
1.0
 40
1.0
 10
34.78927822870774
 20
-18.79799979103958
 30
0.0
 10
34.76675396400328
 20
-15.79499761762291
 30
0.0
 10
34.73540729369093
 20
-12.79198740556794
 30
0.0
 10
34.69484432449092
 20
-9.789113850365422
 30
0.0
  0
SPLINE
  5
E7
330
70
100
AcDbEntity
  8
Livello 1
370
     9
100
AcDbSpline
210
0.0
220
0.0
230
1.0
 70
     8
 71
     3
 72
     8
 73
     4
 74
     0
 42
0.000000001
 43
0.0000000001
 40
0.0
 40
0.0
 40
0.0
 40
0.0
 40
1.0
 40
1.0
 40
1.0
 40
1.0
 10
33.74942810478066
 20
-9.789121889003727
 30
0.0
 10
33.79354817145809
 20
-12.79200348284519
 30
0.0
 10
33.82778875158264
 20
-15.79487703804771
 30
0.0
 10
33.85215788379229
 20
-18.79801586831619
 30
0.0
  0
LINE
  5
E8
330
70
100
AcDbEntity
  8
Livello 1
370
     9
100
AcDbLine
 10
34.61571598772481
 20
-9.277904682051442
 30
0.0
 11
36.94926437725275
 21
-9.277904682051442
 31
0.0
  0
SPLINE
  5
E9
330
70
100
AcDbEntity
  8
Livello 1
370
     9
100
AcDbSpline
210
0.0
220
0.0
230
1.0
 70
     8
 71
     3
 72
     8
 73
     4
 74
     0
 42
0.000000001
 43
0.0000000001
 40
0.0
 40
0.0
 40
0.0
 40
0.0
 40
1.0
 40
1.0
 40
1.0
 40
1.0
 10
36.9758039418218
 20
-11.67208450146307
 30
0.0
 10
36.99647931970126
 20
-11.54486501066626
 30
0.0
 10
36.97738353426072
 20
-11.44239648740111
 30
0.0
 10
36.91205753957095
 20
-11.33123819606201
 30
0.0
  0
SPLINE
  5
EA
330
70
100
AcDbEntity
  8
Livello 1
370
     9
100
AcDbSpline
210
0.0
220
0.0
230
1.0
 70
     8
 71
     3
 72
    14
 73
    10
 74
     0
 42
0.000000001
 43
0.0000000001
 40
0.0
 40
0.0
 40
0.0
 40
0.0
 40
1.0
 40
1.0
 40
1.0
 40
2.0
 40
2.0
 40
2.0
 40
3.0
 40
3.0
 40
3.0
 40
3.0
 10
34.6947920733413
 20
-9.789121889003727
 30
0.0
 10
34.69360637418216
 20
-9.699434800742606
 30
0.0
 10
34.68952274589167
 20
-9.610270223975733
 30
0.0
 10
34.67951062180549
 20
-9.521105647208219
 30
0.0
 10
34.67450656942214
 20
-9.476587667931857
 30
0.0
 10
34.66818418034635
 20
-9.432471620573258
 30
0.0
 10
34.65791080051337
 20
-9.38861280964231
 30
0.0
 10
34.65185368650386
 20
-9.362792703207887
 30
0.0
 10
34.63802320919346
 20
-9.277848411583315
 30
0.0
 10
34.59482758592804
 20
-9.277848411583315
 30
0.0
  0
SPLINE
  5
EB
330
70
100
AcDbEntity
  8
Livello 1
370
     9
100
AcDbSpline
210
0.0
220
0.0
230
1.0
 70
     8
 71
     3
 72
    11
 73
     7
 74
     0
 42
0.000000001
 43
0.0000000001
 40
0.0
 40
0.0
 40
0.0
 40
0.0
 40
1.0
 40
1.0
 40
1.0
 40
2.0
 40
2.0
 40
2.0
 40
2.0
 10
33.67535607154753
 20
-11.67208450146307
 30
0.0
 10
33.67429899060222
 20
-11.61111142944889
 30
0.0
 10
33.67061327491098
 20
-11.55078948714248
 30
0.0
 10
33.66152559423682
 20
-11.49033892662255
 30
0.0
 10
33.6561236292542
 20
-11.45464737227259
 30
0.0
 10
33.65375625025509
 20
-11.33123819606201
 30
0.0
 10
33.59158944044347
 20
-11.33123819606201
 30
0.0
  0
SPLINE
  5
EC
330
70
100
AcDbEntity
  8
Livello 1
370
     9
100
AcDbSpline
210
0.0
220
0.0
230
1.0
 70
     8
 71
     3
 72
    17
 73
    13
 74
     0
 42
0.000000001
 43
0.0000000001
 40
0.0
 40
0.0
 40
0.0
 40
0.0
 40
1.0
 40
1.0
 40
1.0
 40
2.0
 40
2.0
 40
2.0
 40
3.0
 40
3.0
 40
3.0
 40
4.0
 40
4.0
 40
4.0
 40
4.0
 10
33.64045230375777
 20
-9.277904682051442
 30
0.0
 10
33.67219286735022
 20
-9.277904682051442
 30
0.0
 10
33.67640511385454
 20
-9.300694221822176
 30
0.0
 10
33.68667849368752
 20
-9.322559318180257
 30
0.0
 10
33.69642534270742
 20
-9.343106077846861
 30
0.0
 10
33.70300898753001
 20
-9.364440624073031
 30
0.0
 10
33.70867220825974
 20
-9.386434338645257
 30
0.0
 10
33.71999864971888
 20
-9.430156492723753
 30
0.0
 10
33.72698020714074
 20
-9.47454585378661
 30
0.0
 10
33.73251079033717
 20
-9.519321069490624
 30
0.0
 10
33.74370861358248
 20
-9.609144814604196
 30
0.0
 10
33.7480534976201
 20
-9.698839941503621
 30
0.0
 10
33.74937183431189
 20
-9.789186198110799
 30
0.0
  0
LINE
  5
ED
330
70
100
AcDbEntity
  8
Livello 1
370
     9
100
AcDbLine
 10
31.28230166150744
 20
-9.277904682051442
 30
0.0
 11
33.64048043899215
 21
-9.277904682051442
 31
0.0
  0
SPLINE
  5
EE
330
70
100
AcDbEntity
  8
Livello 1
370
     9
100
AcDbSpline
210
0.0
220
0.0
230
1.0
 70
     8
 71
     3
 72
    11
 73
     7
 74
     0
 42
0.000000001
 43
0.0000000001
 40
0.0
 40
0.0
 40
0.0
 40
0.0
 40
1.0
 40
1.0
 40
1.0
 40
2.0
 40
2.0
 40
2.0
 40
2.0
 10
30.27631028238259
 20
-9.277904682051442
 30
0.0
 10
30.37297892806555
 20
-9.277904682051442
 30
0.0
 10
30.39760931602201
 20
-9.44807461764379
 30
0.0
 10
30.40893575748147
 20
-9.508131284883612
 30
0.0
 10
30.42658458801608
 20
-9.601379489941619
 30
0.0
 10
30.43343350790495
 20
-9.69461965636132
 30
0.0
 10
30.43540699362397
 20
-9.789186198110799
 30
0.0
  0
SPLINE
  5
EF
330
70
100
AcDbEntity
  8
Livello 1
370
     9
100
AcDbSpline
210
0.0
220
0.0
230
1.0
 70
     8
 71
     3
 72
    11
 73
     7
 74
     0
 42
0.000000001
 43
0.0000000001
 40
0.0
 40
0.0
 40
0.0
 40
0.0
 40
1.0
 40
1.0
 40
1.0
 40
2.0
 40
2.0
 40
2.0
 40
2.0
 10
31.39310625275891
 20
-9.789121889003727
 30
0.0
 10
31.3913940227867
 20
-9.696275615864768
 30
0.0
 10
31.38533288945803
 20
-9.604474365713024
 30
0.0
 10
31.37032073230733
 20
-9.512544497347134
 30
0.0
 10
31.36110041410051
 20
-9.455783671837599
 30
0.0
 10
31.34766784938937
 20
-9.277848411583315
 30
0.0
 10
31.25270741435915
 20
-9.277848411583315
 30
0.0
  0
SPLINE
  5
F0
330
70
100
AcDbEntity
  8
Livello 1
370
     9
100
AcDbSpline
210
0.0
220
0.0
230
1.0
 70
     8
 71
     3
 72
     8
 73
     4
 74
     0
 42
0.000000001
 43
0.0000000001
 40
0.0
 40
0.0
 40
0.0
 40
0.0
 40
1.0
 40
1.0
 40
1.0
 40
1.0
 10
37.97284027780546
 20
-9.789121889003727
 30
0.0
 10
38.00444820386493
 20
-12.79200348284519
 30
0.0
 10
38.02907457250224
 20
-15.79500565626121
 30
0.0
 10
38.04659478482302
 20
-18.79801586831619
 30
0.0
  0
SPLINE
  5
F1
330
70
100
AcDbEntity
  8
Livello 1
370
     9
100
AcDbSpline
210
0.0
220
0.0
230
1.0
 70
     8
 71
     3
 72
     8
 73
     4
 74
     0
 42
0.000000001
 43
0.0000000001
 40
0.0
 40
0.0
 40
0.0
 40
0.0
 40
1.0
 40
1.0
 40
1.0
 40
1.0
 10
37.03233164681859
 20
-9.789121889003727
 30
0.0
 10
37.06604569612974
 20
-12.79200348284519
 30
0.0
 10
37.09225567652576
 20
-15.79500565626121
 30
0.0
 10
37.11109020621982
 20
-18.79801586831619
 30
0.0
  0
SPLINE
  5
F2
330
70
100
AcDbEntity
  8
Livello 1
370
     9
100
AcDbSpline
210
0.0
220
0.0
230
1.0
 70
     8
 71
     3
 72
    14
 73
    10
 74
     0
 42
0.000000001
 43
0.0000000001
 40
0.0
 40
0.0
 40
0.0
 40
0.0
 40
1.0
 40
1.0
 40
1.0
 40
2.0
 40
2.0
 40
2.0
 40
3.0
 40
3.0
 40
3.0
 40
3.0
 10
37.89503831636978
 20
-9.277904682051442
 30
0.0
 10
37.93902574551488
 20
-9.277904682051442
 30
0.0
 10
37.94073797548645
 20
-9.36944065713723
 30
0.0
 10
37.94508285952439
 20
-9.394071045093687
 30
0.0
 10
37.95272358529197
 20
-9.437535962744533
 30
0.0
 10
37.95759500014267
 20
-9.481258116823029
 30
0.0
 10
37.96128473515306
 20
-9.525253584605785
 30
0.0
 10
37.96892144160149
 20
-9.613099824680542
 30
0.0
 10
37.97195200826582
 20
-9.700946064755941
 30
0.0
 10
37.97287243235868
 20
-9.789186198110799
 30
0.0
  0
SPLINE
  5
F3
330
70
100
AcDbEntity
  8
Livello 1
370
     9
100
AcDbSpline
210
0.0
220
0.0
230
1.0
 70
     8
 71
     3
 72
     8
 73
     4
 74
     0
 42
0.000000001
 43
0.0000000001
 40
0.0
 40
0.0
 40
0.0
 40
0.0
 40
1.0
 40
1.0
 40
1.0
 40
1.0
 10
40.25624766051914
 20
-11.67208450146307
 30
0.0
 10
40.27310468517472
 20
-11.5492058753844
 30
0.0
 10
40.257168084612
 20
-11.44371482409323
 30
0.0
 10
40.20474812382061
 20
-11.33123819606201
 30
0.0
  0
SPLINE
  5
F4
330
70
100
AcDbEntity
  8
Livello 1
370
     9
100
AcDbSpline
210
0.0
220
0.0
230
1.0
 70
     8
 71
     3
 72
    14
 73
    10
 74
     0
 42
0.000000001
 43
0.0000000001
 40
0.0
 40
0.0
 40
0.0
 40
0.0
 40
1.0
 40
1.0
 40
1.0
 40
2.0
 40
2.0
 40
2.0
 40
3.0
 40
3.0
 40
3.0
 40
3.0
 10
40.23474028356815
 20
-9.277904682051442
 30
0.0
 10
40.28004604940472
 20
-9.277904682051442
 30
0.0
 10
40.27464408442212
 20
-9.37168343724136
 30
0.0
 10
40.27833381943251
 20
-9.396442443411961
 30
0.0
 10
40.28478482672212
 20
-9.439770704210356
 30
0.0
 10
40.28886845501261
 20
-9.483235621861201
 30
0.0
 10
40.29216027742375
 20
-9.526965814578002
 30
0.0
 10
40.29861530403251
 20
-9.614281504520848
 30
0.0
 10
40.3012479580976
 20
-9.701605233101998
 30
0.0
 10
40.30190712644365
 20
-9.789186198110799
 30
0.0
  0
LINE
  5
F5
330
70
100
AcDbEntity
  8
Livello 1
370
     9
100
AcDbLine
 10
37.91135675225514
 20
-9.277904682051442
 30
0.0
 11
40.23476439948306
 21
-9.277904682051442
 31
0.0
  0
SPLINE
  5
F6
330
70
100
AcDbEntity
  8
Livello 1
370
     9
100
AcDbSpline
210
0.0
220
0.0
230
1.0
 70
     8
 71
     3
 72
     8
 73
     4
 74
     0
 42
0.000000001
 43
0.0000000001
 40
0.0
 40
0.0
 40
0.0
 40
0.0
 40
1.0
 40
1.0
 40
1.0
 40
1.0
 10
24.89797889652561
 20
-9.789121889003727
 30
0.0
 10
24.92326443350898
 20
-9.499899719196198
 30
0.0
 10
25.16546860750836
 20
-9.277848411583315
 30
0.0
 10
25.4558804957945
 20
-9.277848411583315
 30
0.0
  0
LINE
  5
F7
330
70
100
AcDbEntity
  8
Livello 1
370
     9
100
AcDbLine
 10
49.98212789238378
 20
-9.277904682051442
 30
0.0
 11
50.92065499901397
 21
-9.277904682051442
 31
0.0
  0
LINE
  5
F8
330
70
100
AcDbEntity
  8
Livello 1
370
     9
100
AcDbLine
 10
46.77475137712387
 20
-9.277904682051442
 30
0.0
 11
47.71249069719321
 21
-9.277904682051442
 31
0.0
  0
LINE
  5
F9
330
70
100
AcDbEntity
  8
Livello 1
370
     9
100
AcDbLine
 10
26.30934273122395
 20
-9.277904682051442
 30
0.0
 11
27.45332939587708
 21
-9.277904682051442
 31
0.0
  0
LINE
  5
FA
330
70
100
AcDbEntity
  8
Livello 1
370
     9
100
AcDbLine
 10
30.27631028238259
 20
-9.277904682051442
 30
0.0
 11
31.25263908593324
 21
-9.277904682051442
 31
0.0
  0
LINE
  5
FB
330
70
100
AcDbEntity
  8
Livello 1
370
     9
100
AcDbLine
 10
36.98473486904743
 20
-9.277904682051442
 30
0.0
 11
37.87716440396105
 21
-9.277904682051442
 31
0.0
  0
LINE
  5
FC
330
70
100
AcDbEntity
  8
Livello 1
370
     9
100
AcDbLine
 10
33.66318557305973
 20
-9.277904682051442
 30
0.0
 11
34.59473514158691
 21
-9.277904682051442
 31
0.0
  0
LINE
  5
FD
330
70
100
AcDbEntity
  8
Livello 1
370
     9
100
AcDbLine
 10
40.23474028356815
 20
-9.277904682051442
 30
0.0
 11
41.17629795686204
 21
-9.277904682051442
 31
0.0
  0
LINE
  5
FE
330
70
100
AcDbEntity
  8
Livello 1
370
     9
100
AcDbLine
 10
43.50823058007804
 20
-9.277904682051442
 30
0.0
 11
44.44741685505365
 21
-9.277904682051442
 31
0.0
  0
SPLINE
  5
FF
330
70
100
AcDbEntity
  8
Livello 1
370
     9
100
AcDbSpline
210
0.0
220
0.0
230
1.0
 70
     8
 71
     3
 72
     8
 73
     4
 74
     0
 42
0.000000001
 43
0.0000000001
 40
0.0
 40
0.0
 40
0.0
 40
0.0
 40
1.0
 40
1.0
 40
1.0
 40
1.0
 10
43.50823058007804
 20
-9.277904682051442
 30
0.0
 10
43.56644237981299
 20
-9.447809342577835
 30
0.0
 10
43.58448510362803
 20
-9.610591769510458
 30
0.0
 10
43.56473014984078
 20
-9.789186198110799
 30
0.0
  0
LINE
  5
100
330
70
100
AcDbEntity
  8
Livello 1
370
     9
100
AcDbLine
 10
41.17633815005356
 20
-9.277904682051442
 30
0.0
 11
43.50817430960928
 21
-9.277904682051442
 31
0.0
  0
SPLINE
  5
101
330
70
100
AcDbEntity
  8
Livello 1
370
     9
100
AcDbSpline
210
0.0
220
0.0
230
1.0
 70
     8
 71
     3
 72
     8
 73
     4
 74
     0
 42
0.000000001
 43
0.0000000001
 40
0.0
 40
0.0
 40
0.0
 40
0.0
 40
1.0
 40
1.0
 40
1.0
 40
1.0
 10
43.52630143912715
 20
-11.67208450146307
 30
0.0
 10
43.54052179039848
 20
-11.55171393055449
 30
0.0
 10
43.5268279699399
 20
-11.44423733558747
 30
0.0
 10
43.4831017965429
 20
-11.33123819606201
 30
0.0
  0
SPLINE
  5
102
330
70
100
AcDbEntity
  8
Livello 1
370
     9
100
AcDbSpline
210
0.0
220
0.0
230
1.0
 70
     8
 71
     3
 72
     8
 73
     4
 74
     0
 42
0.000000001
 43
0.0000000001
 40
0.0
 40
0.0
 40
0.0
 40
0.0
 40
1.0
 40
1.0
 40
1.0
 40
1.0
 10
44.44747312552178
 20
-9.277904682051442
 30
0.0
 10
44.50305227119165
 20
-9.447937960791341
 30
0.0
 10
44.52030318912732
 20
-9.611250937856516
 30
0.0
 10
44.50146865943358
 20
-9.789186198110799
 30
0.0
  0
LINE
  5
103
330
70
100
AcDbEntity
  8
Livello 1
370
     9
100
AcDbLine
 10
25.29326286094839
 20
-11.67208450146307
 30
0.0
 11
25.45802279291951
 21
-9.789097773088814
 31
0.0
  0
LINE
  5
104
330
70
100
AcDbEntity
  8
Livello 1
370
     9
100
AcDbLine
 10
54.91011064100373
 20
-18.79799979103958
 30
0.0
 11
54.28661777197912
 21
-11.67210057873967
 31
0.0
  0
LINE
  5
105
330
70
100
AcDbEntity
  8
Livello 1
370
     9
100
AcDbLine
 10
54.12192214911475
 20
-9.789121889003727
 30
0.0
 11
54.28668208108619
 21
-11.67211665601628
 31
0.0
  0
SPLINE
  5
106
330
70
100
AcDbEntity
  8
Livello 1
370
     9
100
AcDbSpline
210
0.0
220
0.0
230
1.0
 70
     8
 71
     3
 72
     8
 73
     4
 74
     0
 42
0.000000001
 43
0.0000000001
 40
0.0
 40
0.0
 40
0.0
 40
0.0
 40
1.0
 40
1.0
 40
1.0
 40
1.0
 10
54.04545058232928
 20
-11.35489590877599
 30
0.0
 10
54.20533909945002
 20
-11.41469533958816
 30
0.0
 10
54.27171413644616
 20
-11.50201102953101
 30
0.0
 10
54.28660169470187
 20
-11.67204430827091
 30
0.0
  0
SPLINE
  5
107
330
70
100
AcDbEntity
  8
Livello 1
370
     9
100
AcDbSpline
210
0.0
220
0.0
230
1.0
 70
     8
 71
     3
 72
     8
 73
     4
 74
     0
 42
0.000000001
 43
0.0000000001
 40
0.0
 40
0.0
 40
0.0
 40
0.0
 40
1.0
 40
1.0
 40
1.0
 40
1.0
 10
53.91475036111927
 20
-11.33125427333862
 30
0.0
 10
53.93160738577485
 20
-11.33125427333862
 30
0.0
 10
53.94819913536447
 20
-11.33244399181659
 30
0.0
 10
53.96492754180653
 20
-11.33467873328306
 30
0.0
  0
SPLINE
  5
108
330
70
100
AcDbEntity
  8
Livello 1
370
     9
100
AcDbSpline
210
0.0
220
0.0
230
1.0
 70
     8
 71
     3
 72
     8
 73
     4
 74
     0
 42
0.000000001
 43
0.0000000001
 40
0.0
 40
0.0
 40
0.0
 40
0.0
 40
1.0
 40
1.0
 40
1.0
 40
1.0
 10
30.48743306113558
 20
-18.79799979103958
 30
0.0
 10
30.44357425020495
 20
-16.42243745808621
 30
0.0
 10
30.39023386532038
 20
-14.04726901841294
 30
0.0
 10
30.32754052469569
 20
-11.67210057873967
 30
0.0
  0
SPLINE
  5
109
330
70
100
AcDbEntity
  8
Livello 1
370
     9
100
AcDbSpline
210
0.0
220
0.0
230
1.0
 70
     8
 71
     3
 72
     8
 73
     4
 74
     0
 42
0.000000001
 43
0.0000000001
 40
0.0
 40
0.0
 40
0.0
 40
0.0
 40
1.0
 40
1.0
 40
1.0
 40
1.0
 10
26.70324404984786
 20
-9.789121889003727
 30
0.0
 10
26.73906422241133
 20
-10.41669838631947
 30
0.0
 10
26.77317618432173
 20
-11.04427488363458
 30
0.0
 10
26.80570855379322
 20
-11.67211665601628
 30
0.0
  0
SPLINE
  5
10A
330
70
100
AcDbEntity
  8
Livello 1
370
     9
100
AcDbSpline
210
0.0
220
0.0
230
1.0
 70
     8
 71
     3
 72
     8
 73
     4
 74
     0
 42
0.000000001
 43
0.0000000001
 40
0.0
 40
0.0
 40
0.0
 40
0.0
 40
1.0
 40
1.0
 40
1.0
 40
1.0
 10
27.85782563986838
 20
-11.67208450146307
 30
0.0
 10
27.83253608356587
 20
-11.04437938593381
 30
0.0
 10
27.80619346563687
 20
-10.41681092725637
 30
0.0
 10
27.77853653033524
 20
-9.789097773088814
 30
0.0
  0
SPLINE
  5
10B
330
70
100
AcDbEntity
  8
Livello 1
370
     9
100
AcDbSpline
210
0.0
220
0.0
230
1.0
 70
     8
 71
     3
 72
     8
 73
     4
 74
     0
 42
0.000000001
 43
0.0000000001
 40
0.0
 40
0.0
 40
0.0
 40
0.0
 40
1.0
 40
1.0
 40
1.0
 40
1.0
 10
33.78526435462106
 20
-18.79799979103958
 30
0.0
 10
33.75483810840157
 20
-16.42257411493866
 30
0.0
 10
33.71835474817289
 20
-14.04726901841294
 30
0.0
 10
33.6752877431213
 20
-11.67210057873967
 30
0.0
  0
SPLINE
  5
10C
330
70
100
AcDbEntity
  8
Livello 1
370
     9
100
AcDbSpline
210
0.0
220
0.0
230
1.0
 70
     8
 71
     3
 72
     8
 73
     4
 74
     0
 42
0.000000001
 43
0.0000000001
 40
0.0
 40
0.0
 40
0.0
 40
0.0
 40
1.0
 40
1.0
 40
1.0
 40
1.0
 10
37.05972732637343
 20
-18.79799979103958
 30
0.0
 10
37.03654389332259
 20
-16.42270273315216
 30
0.0
 10
37.00849306474085
 20
-14.04740567526539
 30
0.0
 10
36.97582805773671
 20
-11.67210057873967
 30
0.0
  0
SPLINE
  5
10D
330
70
100
AcDbEntity
  8
Livello 1
370
     9
100
AcDbSpline
210
0.0
220
0.0
230
1.0
 70
     8
 71
     3
 72
     8
 73
     4
 74
     0
 42
0.000000001
 43
0.0000000001
 40
0.0
 40
0.0
 40
0.0
 40
0.0
 40
1.0
 40
1.0
 40
1.0
 40
1.0
 10
40.32419425131654
 20
-18.79799979103958
 30
0.0
 10
40.30535972162215
 20
-16.42270273315216
 30
0.0
 10
40.28270683870387
 20
-14.04740567526539
 30
0.0
 10
40.25623158324189
 20
-11.67210057873967
 30
0.0
  0
SPLINE
  5
10E
330
70
100
AcDbEntity
  8
Livello 1
370
     9
100
AcDbSpline
210
0.0
220
0.0
230
1.0
 70
     8
 71
     3
 72
     8
 73
     4
 74
     0
 42
0.000000001
 43
0.0000000001
 40
0.0
 40
0.0
 40
0.0
 40
0.0
 40
1.0
 40
1.0
 40
1.0
 40
1.0
 10
43.58339586812886
 20
-18.79799979103958
 30
0.0
 10
43.56758788578029
 20
-16.42270273315216
 30
0.0
 10
43.5484921003391
 20
-14.04740567526539
 30
0.0
 10
43.52623311070092
 20
-11.67210057873967
 30
0.0
  0
SPLINE
  5
10F
330
70
100
AcDbEntity
  8
Livello 1
370
     9
100
AcDbSpline
210
0.0
220
0.0
230
1.0
 70
     8
 71
     3
 72
     8
 73
     4
 74
     0
 42
0.000000001
 43
0.0000000001
 40
0.0
 40
0.0
 40
0.0
 40
0.0
 40
1.0
 40
1.0
 40
1.0
 40
1.0
 10
46.83956289895833
 20
-18.79799979103958
 30
0.0
 10
46.8258650591806
 20
-16.42270273315216
 30
0.0
 10
46.80953054601864
 20
-14.04740567526539
 30
0.0
 10
46.79030212304478
 20
-11.67210057873967
 30
0.0
  0
SPLINE
  5
110
330
70
100
AcDbEntity
  8
Livello 1
370
     9
100
AcDbSpline
210
0.0
220
0.0
230
1.0
 70
     8
 71
     3
 72
     8
 73
     4
 74
     0
 42
0.000000001
 43
0.0000000001
 40
0.0
 40
0.0
 40
0.0
 40
0.0
 40
1.0
 40
1.0
 40
1.0
 40
1.0
 10
50.03659770595872
 20
-9.789121889003727
 30
0.0
 10
50.04146912080941
 20
-10.41683504317192
 30
0.0
 10
50.04594664238001
 20
-11.04440350184872
 30
0.0
 10
50.05042416395061
 20
-11.67211665601628
 30
0.0
  0
SPLINE
  5
111
330
70
100
AcDbEntity
  8
Livello 1
370
     9
100
AcDbSpline
210
0.0
220
0.0
230
1.0
 70
     8
 71
     3
 72
     8
 73
     4
 74
     0
 42
0.000000001
 43
0.0000000001
 40
0.0
 40
0.0
 40
0.0
 40
0.0
 40
1.0
 40
1.0
 40
1.0
 40
1.0
 10
50.98677279958245
 20
-11.67208450146307
 30
0.0
 10
50.98242389622601
 20
-11.04437938593381
 30
0.0
 10
50.97794637465542
 20
-10.41681092725637
 30
0.0
 10
50.97333621555216
 20
-9.789097773088814
 30
0.0
  0
LINE
  5
112
330
70
100
AcDbEntity
  8
Livello 1
370
     9
100
AcDbLine
 10
24.09929194292921
 20
-19.7313339372837
 30
0.0
 11
23.54981483666864
 21
-19.7313339372837
 31
0.0
  0
LINE
  5
113
330
70
100
AcDbEntity
  8
Livello 1
370
     9
100
AcDbLine
 10
24.10982657850932
 20
-18.79799979103958
 30
0.0
 11
23.54981483666864
 21
-18.79799979103958
 31
0.0
  0
LINE
  5
114
330
70
100
AcDbEntity
  8
Livello 1
370
     9
100
AcDbLine
 10
23.5498188559878
 20
-19.7313339372837
 30
0.0
 11
23.5498188559878
 21
-18.7979435205708
 31
0.0
  0
LINE
  5
115
330
70
100
AcDbEntity
  8
Livello 1
370
     9
100
AcDbLine
 10
23.53980673190194
 20
-19.7313339372837
 30
0.0
 11
22.78816590934839
 21
-19.7313339372837
 31
0.0
  0
LINE
  5
116
330
70
100
AcDbEntity
  8
Livello 1
370
     9
100
AcDbLine
 10
23.5498188559878
 20
-18.79799979103958
 30
0.0
 11
22.78816590934839
 21
-18.79799979103958
 31
0.0
  0
LINE
  5
117
330
70
100
AcDbEntity
  8
Livello 1
370
     9
100
AcDbLine
 10
22.78820610254022
 20
-18.79799979103958
 30
0.0
 11
21.97663723096068
 21
-18.79799979103958
 31
0.0
  0
LINE
  5
118
330
70
100
AcDbEntity
  8
Livello 1
370
     9
100
AcDbLine
 10
22.78586283945634
 20
-19.7313339372837
 30
0.0
 11
21.97653272866209
 21
-19.7313339372837
 31
0.0
  0
SPLINE
  5
119
330
70
100
AcDbEntity
  8
Livello 1
370
     9
100
AcDbSpline
210
0.0
220
0.0
230
1.0
 70
    24
 71
     3
 72
    17
 73
    13
 74
     0
 42
0.000000001
 43
0.0000000001
 40
0.0
 40
0.0
 40
0.0
 40
0.0
 40
1.0
 40
1.0
 40
1.0
 40
2.0
 40
2.0
 40
2.0
 40
3.0
 40
3.0
 40
3.0
 40
4.0
 40
4.0
 40
4.0
 40
4.0
 10
57.60335996222287
 20
-19.7313339372837
 30
0.0
 10
57.65511271602989
 20
-19.7313339372837
 30
0.0
 10
57.55159916977754
 20
-19.7313339372837
 30
0.0
 10
57.52577906334247
 20
-19.7313339372837
 30
0.0
 10
57.49088333419102
 20
-19.7313339372837
 30
0.0
 10
57.4561081846154
 20
-19.7313339372837
 30
0.0
 10
57.42134107367745
 20
-19.7313339372837
 30
0.0
 10
57.35167019495039
 20
-19.7313339372837
 30
0.0
 10
57.28186265937086
 20
-19.7313339372837
 30
0.0
 10
57.2121917806438
 20
-19.7313339372837
 30
0.0
 10
57.07285002318966
 20
-19.7313339372837
 30
0.0
 10
56.93337160888308
 20
-19.7313339372837
 30
0.0
 10
56.7940298514283
 20
-19.7313339372837
 30
0.0
  0
SPLINE
  5
11A
330
70
100
AcDbEntity
  8
Livello 1
370
     9
100
AcDbSpline
210
0.0
220
0.0
230
1.0
 70
    24
 71
     3
 72
    17
 73
    13
 74
     0
 42
0.000000001
 43
0.0000000001
 40
0.0
 40
0.0
 40
0.0
 40
0.0
 40
1.0
 40
1.0
 40
1.0
 40
2.0
 40
2.0
 40
2.0
 40
3.0
 40
3.0
 40
3.0
 40
4.0
 40
4.0
 40
4.0
 40
4.0
 10
57.60335996222287
 20
-18.79799979103958
 30
0.0
 10
57.65524937288235
 20
-18.79799979103958
 30
0.0
 10
57.55146251292508
 20
-18.79799979103958
 30
0.0
 10
57.52552182691482
 20
-18.79799979103958
 30
0.0
 10
57.49061805912506
 20
-18.79799979103958
 30
0.0
 10
57.4557142913353
 20
-18.79799979103958
 30
0.0
 10
57.42068190533139
 20
-18.79799979103958
 30
0.0
 10
57.35087436975188
 20
-18.79799979103958
 30
0.0
 10
57.28093821595885
 20
-18.79799979103958
 30
0.0
 10
57.21101010080413
 20
-18.79799979103958
 30
0.0
 10
57.07126641143095
 20
-18.79799979103958
 30
0.0
 10
56.93139410384426
 20
-18.79799979103958
 30
0.0
 10
56.79165845311002
 20
-18.79799979103958
 30
0.0
  0
LINE
  5
11B
330
70
100
AcDbEntity
  8
Livello 1
370
     9
100
AcDbLine
 10
56.79172276221709
 20
-19.7313339372837
 30
0.0
 11
56.03006981557737
 21
-19.7313339372837
 31
0.0
  0
LINE
  5
11C
330
70
100
AcDbEntity
  8
Livello 1
370
     9
100
AcDbLine
 10
56.79172276221709
 20
-18.79799979103958
 30
0.0
 11
56.03006981557737
 21
-18.79799979103958
 31
0.0
  0
LINE
  5
11D
330
70
100
AcDbEntity
  8
Livello 1
370
     9
100
AcDbLine
 10
56.03011804740784
 20
-19.7313339372837
 30
0.0
 11
56.03011804740784
 21
-18.7979435205708
 31
0.0
  0
LINE
  5
11E
330
70
100
AcDbEntity
  8
Livello 1
370
     9
100
AcDbLine
 10
56.02876755616186
 20
-19.7313339372837
 30
0.0
 11
55.48060476727457
 21
-19.7313339372837
 31
0.0
  0
LINE
  5
11F
330
70
100
AcDbEntity
  8
Livello 1
370
     9
100
AcDbLine
 10
56.03011804740784
 20
-18.79799979103958
 30
0.0
 11
55.47010630556748
 21
-18.79799979103958
 31
0.0
  0
LINE
  5
120
330
70
100
AcDbEntity
  8
Livello 1
370
     9
100
AcDbLine
 10
55.47010630556748
 20
-18.79799979103958
 30
0.0
 11
24.10981452055154
 21
-18.79799979103958
 31
0.0
  0
LINE
  5
121
330
70
100
AcDbEntity
  8
Livello 1
370
     9
100
AcDbLine
 10
55.47010630556748
 20
-19.7313339372837
 30
0.0
 11
24.10981452055154
 21
-19.7313339372837
 31
0.0
  0
LINE
  5
122
330
70
100
AcDbEntity
  8
Livello 1
370
     9
100
AcDbLine
 10
26.55899068435119
 20
-11.33125427333862
 30
0.0
 11
25.66523879342598
 21
-11.33125427333862
 31
0.0
  0
LINE
  5
123
330
70
100
AcDbEntity
  8
Livello 1
370
     9
100
AcDbLine
 10
30.20436044967838
 20
-11.33125427333862
 30
0.0
 11
27.84407152962252
 21
-11.33125427333862
 31
0.0
  0
LINE
  5
124
330
70
100
AcDbEntity
  8
Livello 1
370
     9
100
AcDbLine
 10
33.59161757567785
 20
-11.33125427333862
 30
0.0
 11
31.42111688814882
 21
-11.33125427333862
 31
0.0
  0
LINE
  5
125
330
70
100
AcDbEntity
  8
Livello 1
370
     9
100
AcDbLine
 10
36.91211381003907
 20
-11.33125427333862
 30
0.0
 11
34.71474397376828
 21
-11.33125427333862
 31
0.0
  0
LINE
  5
126
330
70
100
AcDbEntity
  8
Livello 1
370
     9
100
AcDbLine
 10
40.20476420109722
 20
-11.33125427333862
 30
0.0
 11
37.98843121691855
 21
-11.33125427333862
 31
0.0
  0
LINE
  5
127
330
70
100
AcDbEntity
  8
Livello 1
370
     9
100
AcDbLine
 10
43.48307366130819
 20
-11.33125427333862
 30
0.0
 11
41.25291019981911
 21
-11.33125427333862
 31
0.0
  0
LINE
  5
128
330
70
100
AcDbEntity
  8
Livello 1
370
     9
100
AcDbLine
 10
53.91475036111927
 20
-11.33125427333862
 30
0.0
 11
50.98444159445634
 21
-11.33125427333862
 31
0.0
  0
LINE
  5
129
330
70
100
AcDbEntity
  8
Livello 1
370
     9
100
AcDbLine
 10
50.01773906035006
 20
-11.33125427333862
 30
0.0
 11
47.76874106916659
 21
-11.33125427333862
 31
0.0
  0
LINE
  5
12A
330
70
100
AcDbEntity
  8
Livello 1
370
     9
100
AcDbLine
 10
46.75305911148996
 20
-11.33125427333862
 30
0.0
 11
44.51236101442078
 21
-11.33125427333862
 31
0.0
  0
LINE
  5
12B
330
70
100
AcDbEntity
  8
Livello 1
370
     9
100
AcDbLine
 10
56.36746754511908
 20
-18.79799979103958
 30
0.0
 11
56.84845143317342
 21
-15.8188321803815
 31
0.0
  0
LINE
  5
12C
330
70
100
AcDbEntity
  8
Livello 1
370
     9
100
AcDbLine
 10
57.89679437853504
 20
-27.57142597530398
 30
0.0
 11
57.85582947741661
 21
-15.84796420582346
 31
0.0
  0
LINE
  5
12D
330
70
100
AcDbEntity
  8
Livello 1
370
     9
100
AcDbLine
 10
57.67000027428561
 20
-15.66196619128679
 30
0.0
 11
57.66946972415369
 21
-15.66196619128679
 31
0.0
  0
SPLINE
  5
12E
330
70
100
AcDbEntity
  8
Livello 1
370
     9
100
AcDbSpline
210
0.0
220
0.0
230
1.0
 70
     8
 71
     3
 72
     8
 73
     4
 74
     0
 42
0.000000001
 43
0.0000000001
 40
0.0
 40
0.0
 40
0.0
 40
0.0
 40
1.0
 40
1.0
 40
1.0
 40
1.0
 10
56.9117476716754
 20
-15.70654847967022
 30
0.0
 10
56.94835563079907
 20
-15.67533444689085
 30
0.0
 10
56.98470635349509
 20
-15.66190188217971
 30
0.0
 10
57.03277741093003
 20
-15.66190188217971
 30
0.0
  0
SPLINE
  5
12F
330
70
100
AcDbEntity
  8
Livello 1
370
     9
100
AcDbSpline
210
0.0
220
0.0
230
1.0
 70
     8
 71
     3
 72
     8
 73
     4
 74
     0
 42
0.000000001
 43
0.0000000001
 40
0.0
 40
0.0
 40
0.0
 40
0.0
 40
1.0
 40
1.0
 40
1.0
 40
1.0
 10
56.84849966500388
 20
-15.81888041221132
 30
0.0
 10
56.85191608630937
 20
-15.79768252283761
 30
0.0
 10
56.85850776977058
 20
-15.77845409986376
 30
0.0
 10
56.86878114960389
 20
-15.75948291331756
 30
0.0
  0
SPLINE
  5
130
330
70
100
AcDbEntity
  8
Livello 1
370
     9
100
AcDbSpline
210
0.0
220
0.0
230
1.0
 70
    24
 71
     3
 72
    20
 73
    16
 74
     0
 42
0.000000001
 43
0.0000000001
 40
0.0
 40
0.0
 40
0.0
 40
0.0
 40
1.0
 40
1.0
 40
1.0
 40
2.0
 40
2.0
 40
2.0
 40
3.0
 40
3.0
 40
3.0
 40
4.0
 40
4.0
 40
4.0
 40
5.0
 40
5.0
 40
5.0
 40
5.0
 10
57.56150277224565
 20
-19.91557952865664
 30
0.0
 10
57.56360889549797
 20
-19.91557952865664
 30
0.0
 10
57.5720333885066
 20
-19.91557952865664
 30
0.0
 10
57.56782114200197
 20
-19.91557952865664
 30
0.0
 10
57.5370010025027
 20
-19.91557952865664
 30
0.0
 10
57.50631751985588
 20
-19.91557952865664
 30
0.0
 10
57.47549738035662
 20
-19.91557952865664
 30
0.0
 10
57.43690387755647
 20
-19.91557952865664
 30
0.0
 10
57.39818175654217
 20
-19.91557952865664
 30
0.0
 10
57.35959629238032
 20
-19.91557952865664
 30
0.0
 10
57.28241732541833
 20
-19.91557952865664
 30
0.0
 10
57.20510170160388
 20
-19.91557952865664
 30
0.0
 10
57.12779411642839
 20
-19.91557952865664
 30
0.0
 10
56.97317090743844
 20
-19.91557952865664
 30
0.0
 10
56.81854769844786
 20
-19.91557952865664
 30
0.0
 10
56.66393252809623
 20
-19.91557952865664
 30
0.0
  0
SPLINE
  5
131
330
70
100
AcDbEntity
  8
Livello 1
370
     9
100
AcDbSpline
210
0.0
220
0.0
230
1.0
 70
     8
 71
     3
 72
     8
 73
     4
 74
     0
 42
0.000000001
 43
0.0000000001
 40
0.0
 40
0.0
 40
0.0
 40
0.0
 40
1.0
 40
1.0
 40
1.0
 40
1.0
 10
56.66393252809623
 20
-19.91557952865664
 30
0.0
 10
56.66775088132076
 20
-19.8534167381645
 30
0.0
 10
56.65839390626117
 20
-19.79770897428048
 30
0.0
 10
56.63468796171672
 20
-19.74015232357244
 30
0.0
  0
LINE
  5
132
330
70
100
AcDbEntity
  8
Livello 1
370
     9
100
AcDbLine
 10
56.21678326892888
 20
-27.57142597530398
 30
0.0
 11
56.08310071288499
 21
-19.91475958754322
 31
0.0
  0
LINE
  5
133
330
70
100
AcDbEntity
  8
Livello 1
370
     9
100
AcDbLine
 10
23.36315363446676
 20
-27.57142597530398
 30
0.0
 11
23.49683217119148
 21
-19.91475958754322
 31
0.0
  0
SPLINE
  5
134
330
70
100
AcDbEntity
  8
Livello 1
370
     9
100
AcDbSpline
210
0.0
220
0.0
230
1.0
 70
     8
 71
     3
 72
     8
 73
     4
 74
     0
 42
0.000000001
 43
0.0000000001
 40
0.0
 40
0.0
 40
0.0
 40
0.0
 40
1.0
 40
1.0
 40
1.0
 40
1.0
 10
22.94524090304061
 20
-19.7401844781263
 30
0.0
 10
22.92139830164403
 20
-19.79774112883434
 30
0.0
 10
22.91218200275604
 20
-19.85345693135602
 30
0.0
 10
22.91600035598058
 20
-19.91561972184816
 30
0.0
  0
LINE
  5
135
330
70
100
AcDbEntity
  8
Livello 1
370
     9
100
AcDbLine
 10
22.91600035598058
 20
-19.91557952865664
 30
0.0
 11
22.01843011183115
 21
-19.91557952865664
 31
0.0
  0
LINE
  5
136
330
70
100
AcDbEntity
  8
Livello 1
370
     9
100
AcDbLine
 10
21.68313448622229
 20
-27.57142597530398
 30
0.0
 11
21.72409134870241
 21
-15.84796420582346
 31
0.0
  0
LINE
  5
137
330
70
100
AcDbEntity
  8
Livello 1
370
     9
100
AcDbLine
 10
62.10852641001276
 20
-28.50476816018705
 30
0.0
 11
62.19018289854535
 21
-27.57137774347352
 31
0.0
  0
LINE
  5
138
330
70
100
AcDbEntity
  8
Livello 1
370
     9
100
AcDbLine
 10
17.47140647406372
 20
-28.50476816018705
 30
0.0
 11
62.10848621682059
 21
-28.50476816018705
 31
0.0
  0
LINE
  5
139
330
70
100
AcDbEntity
  8
Livello 1
370
     9
100
AcDbLine
 10
17.47140647406372
 20
-28.50476816018705
 30
0.0
 11
17.38974797587188
 21
-27.57137774347352
 31
0.0
  0
LINE
  5
13A
330
70
100
AcDbEntity
  8
Livello 1
370
     9
100
AcDbLine
 10
17.38976204348891
 20
-27.57142597530398
 30
0.0
 11
62.19015878262979
 21
-27.57142597530398
 31
0.0
  0
LINE
  5
13B
330
70
100
AcDbEntity
  8
Livello 1
370
     9
100
AcDbLine
 10
23.21242916508439
 20
-18.79799979103958
 30
0.0
 11
22.73144125771154
 21
-15.8188321803815
 31
0.0
  0
SPLINE
  5
13C
330
70
100
AcDbEntity
  8
Livello 1
370
     9
100
AcDbSpline
210
0.0
220
0.0
230
1.0
 70
     8
 71
     3
 72
     8
 73
     4
 74
     0
 42
0.000000001
 43
0.0000000001
 40
0.0
 40
0.0
 40
0.0
 40
0.0
 40
1.0
 40
1.0
 40
1.0
 40
1.0
 10
22.71634871417716
 20
-15.76990098864097
 30
0.0
 10
22.72372416487911
 20
-15.78571299030869
 30
0.0
 10
22.72859557972948
 20
-15.8017741897664
 30
0.0
 10
22.73136087132786
 20
-15.81889648948793
 30
0.0
  0
SPLINE
  5
13D
330
70
100
AcDbEntity
  8
Livello 1
370
     9
100
AcDbSpline
210
0.0
220
0.0
230
1.0
 70
     8
 71
     3
 72
     8
 73
     4
 74
     0
 42
0.000000001
 43
0.0000000001
 40
0.0
 40
0.0
 40
0.0
 40
0.0
 40
1.0
 40
1.0
 40
1.0
 40
1.0
 10
22.61161731421212
 20
-15.67346144415127
 30
0.0
 10
22.63268658537234
 20
-15.6812348074528
 30
0.0
 10
22.65099458425332
 20
-15.69190208056556
 30
0.0
 10
22.66824952150815
 20
-15.70652436375531
 30
0.0
  0
LINE
  5
13E
330
70
100
AcDbEntity
  8
Livello 1
370
     9
100
AcDbLine
 10
57.29588204468333
 20
-15.66196619128679
 30
0.0
 11
57.65108535820818
 21
-15.66196619128679
 31
0.0
  0
LINE
  5
13F
330
70
100
AcDbEntity
  8
Livello 1
370
     9
100
AcDbLine
 10
57.03278544956834
 20
-15.66196619128679
 30
0.0
 11
57.29593027651315
 21
-15.66196619128679
 31
0.0
  0
LINE
  5
140
330
70
100
AcDbEntity
  8
Livello 1
370
     9
100
AcDbLine
 10
22.28405485871262
 20
-15.66196619128679
 30
0.0
 11
22.54706704812478
 21
-15.66196619128679
 31
0.0
  0
SPLINE
  5
141
330
70
100
AcDbEntity
  8
Livello 1
370
     9
100
AcDbSpline
210
0.0
220
0.0
230
1.0
 70
    24
 71
     3
 72
    17
 73
    13
 74
     0
 42
0.000000001
 43
0.0000000001
 40
0.0
 40
0.0
 40
0.0
 40
0.0
 40
1.0
 40
1.0
 40
1.0
 40
2.0
 40
2.0
 40
2.0
 40
3.0
 40
3.0
 40
3.0
 40
4.0
 40
4.0
 40
4.0
 40
4.0
 10
21.91072441567023
 20
-15.66196619128679
 30
0.0
 10
21.87963900110469
 20
-15.66196619128679
 30
0.0
 10
21.9418058109163
 20
-15.66196619128679
 30
0.0
 10
21.95734449887976
 20
-15.66196619128679
 30
0.0
 10
21.97288720616269
 20
-15.66196619128679
 30
0.0
 10
21.9884299134453
 20
-15.66196619128679
 30
0.0
 10
22.00396860140877
 20
-15.66196619128679
 30
0.0
 10
22.03504999665483
 20
-15.66196619128679
 30
0.0
 10
22.06626804875336
 20
-15.66196619128679
 30
0.0
 10
22.09734944399943
 20
-15.66196619128679
 30
0.0
 10
22.15951223449189
 20
-15.66196619128679
 30
0.0
 10
22.2216790443035
 20
-15.66196619128679
 30
0.0
 10
22.28397447232894
 20
-15.66196619128679
 30
0.0
  0
LINE
  5
142
330
70
100
AcDbEntity
  8
Livello 1
370
     9
100
AcDbLine
 10
21.5630734028913
 20
-18.03937741106418
 30
0.0
 11
21.62247090178539
 21
-17.93362108470769
 31
0.0
  0
SPLINE
  5
143
330
70
100
AcDbEntity
  8
Livello 1
370
     9
100
AcDbSpline
210
0.0
220
0.0
230
1.0
 70
     8
 71
     3
 72
     8
 73
     4
 74
     0
 42
0.000000001
 43
0.0000000001
 40
0.0
 40
0.0
 40
0.0
 40
0.0
 40
1.0
 40
1.0
 40
1.0
 40
1.0
 10
21.7334201885273
 20
-15.84767481484195
 30
0.0
 10
21.91701465019248
 20
-15.84490952324422
 30
0.0
 10
22.10048049364352
 20
-15.8474175784143
 30
0.0
 10
22.28407897462786
 20
-15.84807674676036
 30
0.0
  0
LINE
  5
144
330
70
100
AcDbEntity
  8
Livello 1
370
     9
100
AcDbLine
 10
22.28405485871262
 20
-15.84800439901562
 30
0.0
 11
22.28405485871262
 21
-15.66480383063054
 31
0.0
  0
LINE
  5
145
330
70
100
AcDbEntity
  8
Livello 1
370
     9
100
AcDbLine
 10
22.54710724131662
 20
-15.8479240126313
 30
0.0
 11
22.54710724131662
 21
-15.66195815264848
 31
0.0
  0
LINE
  5
146
330
70
100
AcDbEntity
  8
Livello 1
370
     9
100
AcDbLine
 10
22.28405485871262
 20
-15.84800439901562
 30
0.0
 11
22.54706704812478
 21
-15.84800439901562
 31
0.0
  0
SPLINE
  5
147
330
70
100
AcDbEntity
  8
Livello 1
370
     9
100
AcDbSpline
210
0.0
220
0.0
230
1.0
 70
     8
 71
     3
 72
    14
 73
    10
 74
     0
 42
0.000000001
 43
0.0000000001
 40
0.0
 40
0.0
 40
0.0
 40
0.0
 40
1.0
 40
1.0
 40
1.0
 40
2.0
 40
2.0
 40
2.0
 40
3.0
 40
3.0
 40
3.0
 40
3.0
 10
22.54714743450846
 20
-15.84800439901562
 30
0.0
 10
22.57783091715559
 20
-15.84300436595078
 30
0.0
 10
22.60851841912157
 20
-15.83813295110073
 30
0.0
 10
22.63920592108785
 20
-15.83325349761173
 30
0.0
 10
22.65461599083749
 20
-15.83075348107931
 30
0.0
 10
22.67002606058712
 20
-15.82838208276103
 30
0.0
 10
22.68530349280378
 20
-15.82588206622925
 30
0.0
 10
22.70071356255341
 20
-15.82351066791098
 30
0.0
 10
22.726529649669
 20
-15.78821300684112
 30
0.0
 10
22.7314010645197
 20
-15.81890452812688
 30
0.0
  0
LINE
  5
148
330
70
100
AcDbEntity
  8
Livello 1
370
     9
100
AcDbLine
 10
22.54710724131662
 20
-15.84800439901562
 30
0.0
 11
23.02348097026706
 21
-18.7979354819325
 31
0.0
  0
LINE
  5
149
330
70
100
AcDbEntity
  8
Livello 1
370
     9
100
AcDbLine
 10
22.28405485871262
 20
-15.84803655356884
 30
0.0
 11
22.27378147887964
 21
-18.79796763648572
 31
0.0
  0
SPLINE
  5
14A
330
70
100
AcDbEntity
  8
Livello 1
370
     9
100
AcDbSpline
210
0.0
220
0.0
230
1.0
 70
     8
 71
     3
 72
     8
 73
     4
 74
     0
 42
0.000000001
 43
0.0000000001
 40
0.0
 40
0.0
 40
0.0
 40
0.0
 40
1.0
 40
1.0
 40
1.0
 40
1.0
 10
22.82017174800711
 20
-27.57142597530398
 30
0.0
 10
22.8529653732254
 20
-25.0195119938544
 30
0.0
 10
22.88496719256465
 20
-22.46759801240482
 30
0.0
 10
22.91605260712987
 20
-19.91554737410342
 30
0.0
  0
SPLINE
  5
14B
330
70
100
AcDbEntity
  8
Livello 1
370
     9
100
AcDbSpline
210
0.0
220
0.0
230
1.0
 70
     8
 71
     3
 72
    20
 73
    16
 74
     0
 42
0.000000001
 43
0.0000000001
 40
0.0
 40
0.0
 40
0.0
 40
0.0
 40
1.0
 40
1.0
 40
1.0
 40
2.0
 40
2.0
 40
2.0
 40
3.0
 40
3.0
 40
3.0
 40
4.0
 40
4.0
 40
4.0
 40
5.0
 40
5.0
 40
5.0
 40
5.0
 10
22.91600035598058
 20
-19.91557952865664
 30
0.0
 10
23.01280163919653
 20
-19.91518563537654
 30
0.0
 10
23.10960292241247
 20
-19.91479174209644
 30
0.0
 10
23.20640822494757
 20
-19.91452646703048
 30
0.0
 10
23.25487719498176
 20
-19.91439784881633
 30
0.0
 10
23.30320950816383
 20
-19.91426923060283
 30
0.0
 10
23.35154584066473
 20
-19.91426923060283
 30
0.0
 10
23.37578233534141
 20
-19.91426923060283
 30
0.0
 10
23.40001481069893
 20
-19.91426923060283
 30
0.0
 10
23.42424728605613
 20
-19.91426923060283
 30
0.0
 10
23.44229000987116
 20
-19.91426923060283
 30
0.0
 10
23.46033675300503
 20
-19.91426923060283
 30
0.0
 10
23.47837947682006
 20
-19.91439784881633
 30
0.0
 10
23.48456922836255
 20
-19.91439784881633
 30
0.0
 10
23.49734262472795
 20
-19.90254085722496
 30
0.0
 10
23.49681609391487
 20
-19.91479174209644
 30
0.0
  0
SPLINE
  5
14C
330
70
100
AcDbEntity
  8
Livello 1
370
     9
100
AcDbSpline
210
0.0
220
0.0
230
1.0
 70
     8
 71
     3
 72
     8
 73
     4
 74
     0
 42
0.000000001
 43
0.0000000001
 40
0.0
 40
0.0
 40
0.0
 40
0.0
 40
1.0
 40
1.0
 40
1.0
 40
1.0
 10
23.49680805527657
 20
-19.91475958754322
 30
0.0
 10
23.74559587409823
 20
-19.91160040266474
 30
0.0
 10
23.99452034977234
 20
-19.91450235111557
 30
0.0
 10
24.24331218791314
 20
-19.91475958754322
 30
0.0
  0
SPLINE
  5
14D
330
70
100
AcDbEntity
  8
Livello 1
370
     9
100
AcDbSpline
210
0.0
220
0.0
230
1.0
 70
    24
 71
     3
 72
     8
 73
     4
 74
     0
 42
0.000000001
 43
0.0000000001
 40
0.0
 40
0.0
 40
0.0
 40
0.0
 40
1.0
 40
1.0
 40
1.0
 40
1.0
 10
24.24336443906276
 20
-19.91475958754322
 30
0.0
 10
24.24336443906276
 20
-19.8536498586766
 30
0.0
 10
24.24336443906276
 20
-19.79254012981062
 30
0.0
 10
24.24336443906276
 20
-19.73130178273049
 30
0.0
  0
LINE
  5
14E
330
70
100
AcDbEntity
  8
Livello 1
370
     9
100
AcDbLine
 10
24.10971001825295
 20
-27.57142597530398
 30
0.0
 11
24.24338855497767
 21
-19.91475958754322
 31
0.0
  0
LINE
  5
14F
330
70
100
AcDbEntity
  8
Livello 1
370
     9
100
AcDbLine
 10
55.33656844501436
 20
-19.91475958754322
 30
0.0
 11
24.24337649702022
 21
-19.91475958754322
 31
0.0
  0
LINE
  5
150
330
70
100
AcDbEntity
  8
Livello 1
370
     9
100
AcDbLine
 10
55.47022688514332
 20
-27.57142597530398
 30
0.0
 11
55.3365443290988
 21
-19.91475958754322
 31
0.0
  0
LINE
  5
151
330
70
100
AcDbEntity
  8
Livello 1
370
     9
100
AcDbLine
 10
55.33656844501436
 20
-19.91475958754322
 30
0.0
 11
55.33656844501436
 21
-19.73130178273049
 31
0.0
  0
SPLINE
  5
152
330
70
100
AcDbEntity
  8
Livello 1
370
     9
100
AcDbSpline
210
0.0
220
0.0
230
1.0
 70
     8
 71
     3
 72
     8
 73
     4
 74
     0
 42
0.000000001
 43
0.0000000001
 40
0.0
 40
0.0
 40
0.0
 40
0.0
 40
1.0
 40
1.0
 40
1.0
 40
1.0
 10
55.33656844501436
 20
-19.91475958754322
 30
0.0
 10
55.58535626383601
 20
-19.91450235111557
 30
0.0
 10
55.83428073951012
 20
-19.91160040266474
 30
0.0
 10
56.08306855833178
 20
-19.91475958754322
 30
0.0
  0
SPLINE
  5
153
330
70
100
AcDbEntity
  8
Livello 1
370
     9
100
AcDbSpline
210
0.0
220
0.0
230
1.0
 70
     8
 71
     3
 72
    20
 73
    16
 74
     0
 42
0.000000001
 43
0.0000000001
 40
0.0
 40
0.0
 40
0.0
 40
0.0
 40
1.0
 40
1.0
 40
1.0
 40
2.0
 40
2.0
 40
2.0
 40
3.0
 40
3.0
 40
3.0
 40
4.0
 40
4.0
 40
4.0
 40
5.0
 40
5.0
 40
5.0
 40
5.0
 10
56.08312482879991
 20
-19.91475958754322
 30
0.0
 10
56.08285955373395
 20
-19.90251674131005
 30
0.0
 10
56.09536767503308
 20
-19.91436569426312
 30
0.0
 10
56.10155742657589
 20
-19.91436569426312
 30
0.0
 10
56.11960416970943
 20
-19.91423707604897
 30
0.0
 10
56.13764287420532
 20
-19.91423707604897
 30
0.0
 10
56.1556896173395
 20
-19.91423707604897
 30
0.0
 10
56.1799261120165
 20
-19.91423707604897
 30
0.0
 10
56.20415456805455
 20
-19.91423707604897
 30
0.0
 10
56.2282624445174
 20
-19.91423707604897
 30
0.0
 10
56.2767273952318
 20
-19.91436569426312
 30
0.0
 10
56.32506372773335
 20
-19.91436569426312
 30
0.0
 10
56.37340006023424
 20
-19.91450235111557
 30
0.0
 10
56.47032996166434
 20
-19.91475958754322
 30
0.0
 10
56.56713928351858
 20
-19.91516151946163
 30
0.0
 10
56.66394056673452
 20
-19.91555541274173
 30
0.0
  0
SPLINE
  5
154
330
70
100
AcDbEntity
  8
Livello 1
370
     9
100
AcDbSpline
210
0.0
220
0.0
230
1.0
 70
     8
 71
     3
 72
     8
 73
     4
 74
     0
 42
0.000000001
 43
0.0000000001
 40
0.0
 40
0.0
 40
0.0
 40
0.0
 40
1.0
 40
1.0
 40
1.0
 40
1.0
 10
56.66393252809623
 20
-19.91557952865664
 30
0.0
 10
56.69500990402314
 20
-22.46750154874453
 30
0.0
 10
56.72701172336207
 20
-25.01955218704592
 30
0.0
 10
56.75980936790015
 20
-27.5714661684955
 30
0.0
  0
SPLINE
  5
155
330
70
100
AcDbEntity
  8
Livello 1
370
     9
100
AcDbSpline
210
0.0
220
0.0
230
1.0
 70
     8
 71
     3
 72
    14
 73
    10
 74
     0
 42
0.000000001
 43
0.0000000001
 40
0.0
 40
0.0
 40
0.0
 40
0.0
 40
1.0
 40
1.0
 40
1.0
 40
2.0
 40
2.0
 40
2.0
 40
3.0
 40
3.0
 40
3.0
 40
3.0
 10
56.84849966500388
 20
-15.81888041221132
 30
0.0
 10
56.85349969806808
 20
-15.78819692956451
 30
0.0
 10
56.8791831476507
 20
-15.82349459063437
 30
0.0
 10
56.89459321740002
 20
-15.82586598895264
 30
0.0
 10
56.91000328714997
 20
-15.82836600548442
 30
0.0
 10
56.92527670004682
 20
-15.8307374038027
 30
0.0
 10
56.94068676979679
 20
-15.83323742033512
 30
0.0
 10
56.97137829108254
 20
-15.83811687382348
 30
0.0
 10
57.00206177372937
 20
-15.84298828867417
 30
0.0
 10
57.03275329501448
 20
-15.84798832173837
 30
0.0
  0
LINE
  5
156
330
70
100
AcDbEntity
  8
Livello 1
370
     9
100
AcDbLine
 10
57.03278544956834
 20
-15.84800439901562
 30
0.0
 11
57.03278544956834
 21
-15.66190992081802
 31
0.0
  0
LINE
  5
157
330
70
100
AcDbEntity
  8
Livello 1
370
     9
100
AcDbLine
 10
57.03278544956834
 20
-15.84800439901562
 30
0.0
 11
57.29593027651315
 21
-15.84800439901562
 31
0.0
  0
SPLINE
  5
158
330
70
100
AcDbEntity
  8
Livello 1
370
     9
100
AcDbSpline
210
0.0
220
0.0
230
1.0
 70
     8
 71
     3
 72
     8
 73
     4
 74
     0
 42
0.000000001
 43
0.0000000001
 40
0.0
 40
0.0
 40
0.0
 40
0.0
 40
1.0
 40
1.0
 40
1.0
 40
1.0
 10
57.29588204468333
 20
-15.84800439901562
 30
0.0
 10
57.29588204468333
 20
-15.78597826537529
 30
0.0
 10
57.29548011276492
 20
-15.72394409309666
 30
0.0
 10
57.29588204468333
 20
-15.66190992081802
 30
0.0
  0
SPLINE
  5
159
330
70
100
AcDbEntity
  8
Livello 1
370
     9
100
AcDbSpline
210
0.0
220
0.0
230
1.0
 70
     8
 71
     3
 72
     8
 73
     4
 74
     0
 42
0.000000001
 43
0.0000000001
 40
0.0
 40
0.0
 40
0.0
 40
0.0
 40
1.0
 40
1.0
 40
1.0
 40
1.0
 10
57.29588204468333
 20
-15.84800439901562
 30
0.0
 10
57.47933984949606
 20
-15.84735326930723
 30
0.0
 10
57.66294234979955
 20
-15.84484521413714
 30
0.0
 10
57.84653681146409
 20
-15.84761050573552
 30
0.0
  0
LINE
  5
15A
330
70
100
AcDbEntity
  8
Livello 1
370
     9
100
AcDbLine
 10
57.29588204468333
 20
-15.84834202182632
 30
0.0
 11
57.30614738587768
 21
-18.79801586831619
 31
0.0
  0
LINE
  5
15B
330
70
100
AcDbEntity
  8
Livello 1
370
     9
100
AcDbLine
 10
57.03278544956834
 20
-15.84800439901562
 30
0.0
 11
56.55640770129874
 21
-18.7979354819325
 31
0.0
  0
LINE
  5
15C
330
70
100
AcDbEntity
  8
Livello 1
370
     9
100
AcDbLine
 10
55.47010630556748
 20
-18.79799979103958
 30
0.0
 11
55.47010630556748
 21
-19.73139824639078
 31
0.0
  0
LINE
  5
15D
330
70
100
AcDbEntity
  8
Livello 1
370
     9
100
AcDbLine
 10
56.79172276221709
 20
-18.79799979103958
 30
0.0
 11
56.79172276221709
 21
-19.73139824639078
 31
0.0
  0
LINE
  5
15E
330
70
100
AcDbEntity
  8
Livello 1
370
     9
100
AcDbLine
 10
22.78820610254022
 20
-19.7313339372837
 30
0.0
 11
22.78820610254022
 21
-18.7979435205708
 31
0.0
  0
LINE
  5
15F
330
70
100
AcDbEntity
  8
Livello 1
370
     9
100
AcDbLine
 10
24.10982657850932
 20
-19.7313339372837
 30
0.0
 11
24.10982657850932
 21
-18.7979435205708
 31
0.0
  0
LINE
  5
160
330
70
100
AcDbEntity
  8
Livello 1
370
     9
100
AcDbLine
 10
53.91475036111927
 20
-11.67208450146307
 30
0.0
 11
50.98681299277462
 21
-11.67208450146307
 31
0.0
  0
LINE
  5
161
330
70
100
AcDbEntity
  8
Livello 1
370
     9
100
AcDbLine
 10
50.97337640874368
 20
-9.789121889003727
 30
0.0
 11
50.03655751276721
 21
-9.789121889003727
 31
0.0
  0
LINE
  5
162
330
70
100
AcDbEntity
  8
Livello 1
370
     9
100
AcDbLine
 10
50.05048043441873
 20
-11.67208450146307
 30
0.0
 11
47.77079494126929
 21
-11.67208450146307
 31
0.0
  0
LINE
  5
163
330
70
100
AcDbEntity
  8
Livello 1
370
     9
100
AcDbLine
 10
46.79032221964054
 20
-11.67208450146307
 30
0.0
 11
44.51458771724829
 21
-11.67208450146307
 31
0.0
  0
LINE
  5
164
330
70
100
AcDbEntity
  8
Livello 1
370
     9
100
AcDbLine
 10
43.52630143912715
 20
-11.67208450146307
 30
0.0
 11
41.25557098911825
 21
-11.67208450146307
 31
0.0
  0
LINE
  5
165
330
70
100
AcDbEntity
  8
Livello 1
370
     9
100
AcDbLine
 10
40.25624766051914
 20
-11.67208450146307
 30
0.0
 11
37.99171098137222
 21
-11.67208450146307
 31
0.0
  0
LINE
  5
166
330
70
100
AcDbEntity
  8
Livello 1
370
     9
100
AcDbLine
 10
36.9758039418218
 20
-11.67208450146307
 30
0.0
 11
34.71903660665628
 21
-11.67208450146307
 31
0.0
  0
LINE
  5
167
330
70
100
AcDbEntity
  8
Livello 1
370
     9
100
AcDbLine
 10
33.67535607154753
 20
-11.67208450146307
 30
0.0
 11
31.42701724871044
 21
-11.67208450146307
 31
0.0
  0
LINE
  5
168
330
70
100
AcDbEntity
  8
Livello 1
370
     9
100
AcDbLine
 10
30.32753248605738
 20
-11.67208450146307
 30
0.0
 11
27.85779750463432
 21
-11.67208450146307
 31
0.0
  0
LINE
  5
169
330
70
100
AcDbEntity
  8
Livello 1
370
     9
100
AcDbLine
 10
27.77853653033524
 20
-9.789121889003727
 30
0.0
 11
26.70329630099716
 21
-9.789121889003727
 31
0.0
  0
LINE
  5
16A
330
70
100
AcDbEntity
  8
Livello 1
370
     9
100
AcDbLine
 10
26.80566032196307
 20
-11.67208450146307
 30
0.0
 11
25.66522271614905
 21
-11.67208450146307
 31
0.0
  0
LINE
  5
16B
330
70
100
AcDbEntity
  8
Livello 1
370
     9
100
AcDbLine
 10
25.66518654227668
 20
-11.67208450146307
 30
0.0
 11
25.04169367325175
 21
-18.79799175240127
 31
0.0
  0
LINE
  5
16C
330
70
100
AcDbEntity
  8
Livello 1
370
     9
100
AcDbLine
 10
53.91475036111927
 20
-11.67208450146307
 30
0.0
 11
53.91475036111927
 21
-11.33123819606201
 31
0.0
  0
SPLINE
  5
16D
330
70
100
AcDbEntity
  8
Livello 1
370
     9
100
AcDbSpline
210
0.0
220
0.0
230
1.0
 70
     8
 71
     3
 72
     8
 73
     4
 74
     0
 42
0.000000001
 43
0.0000000001
 40
0.0
 40
0.0
 40
0.0
 40
0.0
 40
1.0
 40
1.0
 40
1.0
 40
1.0
 10
53.91475036111927
 20
-11.67208450146307
 30
0.0
 10
54.04039427879631
 20
-11.6503560619568
 30
0.0
 10
54.16090150655669
 20
-11.6503560619568
 30
0.0
 10
54.28668208108619
 20
-11.67208450146307
 30
0.0
  0
LINE
  5
16E
330
70
100
AcDbEntity
  8
Livello 1
370
     9
100
AcDbLine
 10
54.53818695967576
 20
-18.79799979103958
 30
0.0
 11
53.9146940906505
 21
-11.67210057873967
 31
0.0
  0
LINE
  5
16F
330
70
100
AcDbEntity
  8
Livello 1
370
     9
100
AcDbLine
 10
37.97284027780546
 20
-9.789121889003727
 30
0.0
 11
37.03233164681859
 21
-9.789121889003727
 31
0.0
  0
LINE
  5
170
330
70
100
AcDbEntity
  8
Livello 1
370
     9
100
AcDbLine
 10
30.43546326409242
 20
-9.789121889003727
 30
0.0
 11
31.39309017548231
 21
-9.789121889003727
 31
0.0
  0
LINE
  5
171
330
70
100
AcDbEntity
  8
Livello 1
370
     9
100
AcDbLine
 10
33.74942810478066
 20
-9.789121889003727
 30
0.0
 11
34.69480413129907
 21
-9.789121889003727
 31
0.0
  0
LINE
  5
172
330
70
100
AcDbEntity
  8
Livello 1
370
     9
100
AcDbLine
 10
40.30197545486988
 20
-9.789121889003727
 30
0.0
 11
41.24010866821932
 21
-9.789121889003727
 31
0.0
  0
LINE
  5
173
330
70
100
AcDbEntity
  8
Livello 1
370
     9
100
AcDbLine
 10
46.82342935175525
 20
-9.789121889003727
 30
0.0
 11
47.75932380431972
 21
-9.789121889003727
 31
0.0
  0
LINE
  5
174
330
70
100
AcDbEntity
  8
Livello 1
370
     9
100
AcDbLine
 10
25.66518654227668
 20
-11.33125427333862
 30
0.0
 11
25.66518654227668
 21
-11.67210861737798
 31
0.0
  0
SPLINE
  5
175
330
70
100
AcDbEntity
  8
Livello 1
370
     9
100
AcDbSpline
210
0.0
220
0.0
230
1.0
 70
     8
 71
     3
 72
     8
 73
     4
 74
     0
 42
0.000000001
 43
0.0000000001
 40
0.0
 40
0.0
 40
0.0
 40
0.0
 40
1.0
 40
1.0
 40
1.0
 40
1.0
 10
25.66518654227668
 20
-11.67208450146307
 30
0.0
 10
25.53953860528049
 20
-11.6503560619568
 30
0.0
 10
25.41889472066765
 20
-11.6503560619568
 30
0.0
 10
25.29325080299094
 20
-11.67208450146307
 30
0.0
  0
LINE
  5
176
330
70
100
AcDbEntity
  8
Livello 1
370
     9
100
AcDbLine
 10
44.50145660147612
 20
-9.789121889003727
 30
0.0
 11
43.56476632371315
 21
-9.789121889003727
 31
0.0
  0
LINE
  5
177
330
70
100
AcDbEntity
  8
Livello 1
370
     9
100
AcDbLine
 10
49.36271865164965
 20
-11.33125427333862
 30
0.0
 11
49.36271865164965
 21
-9.277848411583315
 31
0.0
  0
LINE
  5
178
330
70
100
AcDbEntity
  8
Livello 1
370
     9
100
AcDbLine
 10
48.50889869681279
 20
-9.277904682051442
 30
0.0
 11
48.50889869681279
 21
-11.33131858244505
 31
0.0
  0
LINE
  5
179
330
70
100
AcDbEntity
  8
Livello 1
370
     9
100
AcDbLine
 10
47.77675157229936
 20
-9.789121889003727
 30
0.0
 11
47.77675157229936
 21
-9.277848411583315
 31
0.0
  0
LINE
  5
17A
330
70
100
AcDbEntity
  8
Livello 1
370
     9
100
AcDbLine
 10
51.23209998458731
 20
-9.277904682051442
 30
0.0
 11
51.23209998458731
 21
-11.33131858244505
 31
0.0
  0
LINE
  5
17B
330
70
100
AcDbEntity
  8
Livello 1
370
     9
100
AcDbLine
 10
34.7907774347633
 20
-9.277904682051442
 30
0.0
 11
34.7907774347633
 21
-7.784502523498189
 31
0.0
  0
LINE
  5
17C
330
70
100
AcDbEntity
  8
Livello 1
370
     9
100
AcDbLine
 10
38.80343660639998
 20
-7.784558793966958
 30
0.0
 11
38.80343660639998
 21
-9.277968991158516
 31
0.0
  0
SPLINE
  5
17D
330
70
100
AcDbEntity
  8
Livello 1
370
     9
100
AcDbSpline
210
0.0
220
0.0
230
1.0
 70
     8
 71
     3
 72
     8
 73
     4
 74
     0
 42
0.000000001
 43
0.0000000001
 40
0.0
 40
0.0
 40
0.0
 40
0.0
 40
1.0
 40
1.0
 40
1.0
 40
1.0
 10
56.45627038316035
 20
-17.24405864694377
 30
0.0
 10
56.49735586385397
 20
-17.29437248448284
 30
0.0
 10
56.54187384313098
 20
-17.34060269373206
 30
0.0
 10
56.59047545069783
 20
-17.38367371810281
 30
0.0
  0
SPLINE
  5
17E
330
70
100
AcDbEntity
  8
Livello 1
370
     9
100
AcDbSpline
210
0.0
220
0.0
230
1.0
 70
     8
 71
     3
 72
    11
 73
     7
 74
     0
 42
0.000000001
 43
0.0000000001
 40
0.0
 40
0.0
 40
0.0
 40
0.0
 40
1.0
 40
1.0
 40
1.0
 40
2.0
 40
2.0
 40
2.0
 40
2.0
 10
58.09829088784365
 20
-17.42191352081438
 30
0.0
 10
58.88258867876271
 20
-16.79829203357561
 30
0.0
 10
58.57650948429961
 20
-15.5420940159569
 30
0.0
 10
57.59332774154061
 20
-15.34927119744691
 30
0.0
 10
56.61001738056874
 20
-15.15632779936108
 30
0.0
 10
55.85205416893941
 20
-16.20390707407805
 30
0.0
 10
56.34266030711866
 20
-17.07750609861708
 30
0.0
  0
SPLINE
  5
17F
330
70
100
AcDbEntity
  8
Livello 1
370
     9
100
AcDbSpline
210
0.0
220
0.0
230
1.0
 70
     8
 71
     3
 72
    11
 73
     7
 74
     0
 42
0.000000001
 43
0.0000000001
 40
0.0
 40
0.0
 40
0.0
 40
0.0
 40
1.0
 40
1.0
 40
1.0
 40
2.0
 40
2.0
 40
2.0
 40
2.0
 10
56.01727230329738
 20
-17.26026454189159
 30
0.0
 10
55.36387569954657
 20
-16.09692083605079
 30
0.0
 10
56.39012846667631
 20
-14.70716888060235
 30
0.0
 10
57.69439754172932
 20
-14.98927685545569
 30
0.0
 10
58.99840938035533
 20
-15.2713928689467
 30
0.0
 10
59.35849214736917
 20
-16.96103426731672
 30
0.0
 10
58.28272940653716
 20
-17.75034012993893
 30
0.0
  0
SPLINE
  5
180
330
70
100
AcDbEntity
  8
Livello 1
370
     9
100
AcDbSpline
210
0.0
220
0.0
230
1.0
 70
     8
 71
     3
 72
     8
 73
     4
 74
     0
 42
0.000000001
 43
0.0000000001
 40
0.0
 40
0.0
 40
0.0
 40
0.0
 40
1.0
 40
1.0
 40
1.0
 40
1.0
 10
57.97296047706304
 20
-17.92801815376556
 30
0.0
 10
57.93686699079531
 20
-17.94342822351552
 30
0.0
 10
57.90038764988514
 20
-17.95739133835857
 30
0.0
 10
57.86324914062955
 20
-17.96977084144419
 30
0.0
  0
LINE
  5
181
330
70
100
AcDbEntity
  8
Livello 1
370
     9
100
AcDbLine
 10
57.86122340376092
 20
-17.38097273561151
 30
0.0
 11
62.08368701745847
 21
-24.90054818466056
 31
0.0
  0
LINE
  5
182
330
70
100
AcDbEntity
  8
Livello 1
370
     9
100
AcDbLine
 10
62.11621938692996
 20
-24.8823085142058
 30
0.0
 11
64.85818285665349
 21
-29.7651462697559
 31
0.0
  0
SPLINE
  5
183
330
70
100
AcDbEntity
  8
Livello 1
370
     9
100
AcDbSpline
210
0.0
220
0.0
230
1.0
 70
     8
 71
     3
 72
    11
 73
     7
 74
     0
 42
0.000000001
 43
0.0000000001
 40
0.0
 40
0.0
 40
0.0
 40
0.0
 40
1.0
 40
1.0
 40
1.0
 40
2.0
 40
2.0
 40
2.0
 40
2.0
 10
64.86159927795899
 20
-29.76324915110141
 30
0.0
 10
64.93627018975089
 20
-29.72111060878163
 30
0.0
 10
65.00778995530263
 20
-29.67540291102666
 30
0.0
 10
65.07574860405748
 20
-29.62311960708707
 30
0.0
 10
65.1155237866973
 20
-29.59242808580195
 30
0.0
 10
65.26922255227522
 20
-29.50603683927112
 30
0.0
 10
65.22655345982288
 20
-29.42991093393528
 30
0.0
  0
LINE
  5
184
330
70
100
AcDbEntity
  8
Livello 1
370
     9
100
AcDbLine
 10
64.82560225535154
 20
-29.78345024931774
 30
0.0
 11
65.00840089181821
 21
-30.10903118046023
 31
0.0
  0
LINE
  5
185
330
70
100
AcDbEntity
  8
Livello 1
370
     9
100
AcDbLine
 10
64.85815874073793
 20
-29.76519450158637
 30
0.0
 11
65.04095737720462
 21
-30.09063877587641
 31
0.0
  0
SPLINE
  5
186
330
70
100
AcDbEntity
  8
Livello 1
370
     9
100
AcDbSpline
210
0.0
220
0.0
230
1.0
 70
     8
 71
     3
 72
    11
 73
     7
 74
     0
 42
0.000000001
 43
0.0000000001
 40
0.0
 40
0.0
 40
0.0
 40
0.0
 40
1.0
 40
1.0
 40
1.0
 40
2.0
 40
2.0
 40
2.0
 40
2.0
 10
64.34757658621681
 20
-29.92345117511858
 30
0.0
 10
64.39076819016275
 20
-30.00037290565292
 30
0.0
 10
64.54565667421928
 20
-29.91278390200517
 30
0.0
 10
64.59281132688052
 20
-29.89460854065748
 30
0.0
 10
64.6734147537863
 20
-29.86339450787811
 30
0.0
 10
64.75032844568298
 20
-29.82573348712828
 30
0.0
 10
64.82565852582031
 20
-29.78345024931774
 30
0.0
  0
LINE
  5
187
330
70
100
AcDbEntity
  8
Livello 1
370
     9
100
AcDbLine
 10
62.08366290154356
 20
-24.90058033921378
 30
0.0
 11
64.81745911468611
 21
-29.76893246842723
 31
0.0
  0
LINE
  5
188
330
70
100
AcDbEntity
  8
Livello 1
370
     9
100
AcDbLine
 10
64.85815874073793
 20
-29.76519450158637
 30
0.0
 11
64.82562637126645
 21
-29.78350651978651
 31
0.0
  0
SPLINE
  5
189
330
70
100
AcDbEntity
  8
Livello 1
370
     9
100
AcDbSpline
210
0.0
220
0.0
230
1.0
 70
     8
 71
     3
 72
    11
 73
     7
 74
     0
 42
0.000000001
 43
0.0000000001
 40
0.0
 40
0.0
 40
0.0
 40
0.0
 40
1.0
 40
1.0
 40
1.0
 40
2.0
 40
2.0
 40
2.0
 40
2.0
 10
20.8619433645172
 20
-15.74368698892581
 30
0.0
 10
21.35412507581653
 20
-14.86587571788278
 30
0.0
 10
22.53986442814797
 20
-14.68359959290971
 30
0.0
 10
23.27306461428723
 20
-15.37294498743814
 30
0.0
 10
24.00626881974564
 20
-16.06228234332698
 30
0.0
 10
23.89734928919152
 20
-17.25684812058546
 30
0.0
 10
23.05166845570125
 20
-17.80237423608852
 30
0.0
  0
SPLINE
  5
18A
330
70
100
AcDbEntity
  8
Livello 1
370
     9
100
AcDbSpline
210
0.0
220
0.0
230
1.0
 70
     8
 71
     3
 72
     8
 73
     4
 74
     0
 42
0.000000001
 43
0.0000000001
 40
0.0
 40
0.0
 40
0.0
 40
0.0
 40
1.0
 40
1.0
 40
1.0
 40
1.0
 10
21.71665560821286
 20
-17.96818722968547
 30
0.0
 10
21.67977433538493
 20
-17.9558077266005
 30
0.0
 10
21.64342361268891
 20
-17.94198126860925
 30
0.0
 10
21.60747080259246
 20
-17.9268364739259
 30
0.0
  0
SPLINE
  5
18B
330
70
100
AcDbEntity
  8
Livello 1
370
     9
100
AcDbSpline
210
0.0
220
0.0
230
1.0
 70
     8
 71
     3
 72
     8
 73
     4
 74
     0
 42
0.000000001
 43
0.0000000001
 40
0.0
 40
0.0
 40
0.0
 40
0.0
 40
1.0
 40
1.0
 40
1.0
 40
1.0
 10
21.56250667888638
 20
-17.48190587894776
 30
0.0
 10
21.61228996629354
 20
-17.5147035234852
 30
0.0
 10
21.6639181212059
 20
-17.54315226466684
 30
0.0
 10
21.71805031196951
 20
-17.56804792768925
 30
0.0
  0
SPLINE
  5
18C
330
70
100
AcDbEntity
  8
Livello 1
370
     9
100
AcDbSpline
210
0.0
220
0.0
230
1.0
 70
     8
 71
     3
 72
    11
 73
     7
 74
     0
 42
0.000000001
 43
0.0000000001
 40
0.0
 40
0.0
 40
0.0
 40
0.0
 40
1.0
 40
1.0
 40
1.0
 40
2.0
 40
2.0
 40
2.0
 40
2.0
 10
22.98693732025046
 20
-17.38593257548355
 30
0.0
 10
23.53285330971447
 20
-16.90771397902822
 30
0.0
 10
23.51928810747004
 20
-16.0538739275956
 30
0.0
 10
22.9583559415365
 20
-15.59330014235541
 30
0.0
 10
22.39755641313625
 20
-15.13272635711523
 30
0.0
 10
21.55741018216157
 20
-15.285372061067
 30
0.0
 10
21.19442948601669
 20
-15.91387300179476
 30
0.0
  0
SPLINE
  5
18D
330
70
100
AcDbEntity
  8
Livello 1
370
     9
100
AcDbSpline
210
0.0
220
0.0
230
1.0
 70
     8
 71
     3
 72
     8
 73
     4
 74
     0
 42
0.000000001
 43
0.0000000001
 40
0.0
 40
0.0
 40
0.0
 40
0.0
 40
1.0
 40
1.0
 40
1.0
 40
1.0
 10
20.86171828264308
 20
-15.74361464118107
 30
0.0
 10
20.48925601254425
 20
-16.40688269284614
 30
0.0
 10
20.65362205123527
 20
-17.24241876471693
 30
0.0
 10
21.24945396563941
 20
-17.71524343482795
 30
0.0
  0
LINE
  5
18E
330
70
100
AcDbEntity
  8
Livello 1
370
     9
100
AcDbLine
 10
21.23755276153705
 20
-17.85659485187412
 30
0.0
 11
21.55825423919022
 21
-18.03663623538136
 31
0.0
  0
SPLINE
  5
18F
330
70
100
AcDbEntity
  8
Livello 1
370
     9
100
AcDbSpline
210
0.0
220
0.0
230
1.0
 70
     8
 71
     3
 72
     8
 73
     4
 74
     0
 42
0.000000001
 43
0.0000000001
 40
0.0
 40
0.0
 40
0.0
 40
0.0
 40
1.0
 40
1.0
 40
1.0
 40
1.0
 10
21.55399778017491
 20
-17.48635928460345
 30
0.0
 10
21.66897442473887
 20
-17.68391686111168
 30
0.0
 10
21.67016012389801
 20
-17.83735839026196
 30
0.0
 10
21.55821002667923
 20
-18.03662819674305
 30
0.0
  0
LINE
  5
190
330
70
100
AcDbEntity
  8
Livello 1
370
     9
100
AcDbLine
 10
21.63694848948438
 20
-17.52652836052336
 30
0.0
 11
21.71873359623079
 21
-17.38099685152642
 31
0.0
  0
LINE
  5
191
330
70
100
AcDbEntity
  8
Livello 1
370
     9
100
AcDbLine
 10
14.5715118956625
 20
-30.10899902590638
 30
0.0
 11
14.7543165611079
 21
-29.78342613340283
 31
0.0
  0
LINE
  5
192
330
70
100
AcDbEntity
  8
Livello 1
370
     9
100
AcDbLine
 10
14.53899359380805
 20
-30.09070308498349
 30
0.0
 11
14.72179825925377
 21
-29.76526684933175
 31
0.0
  0
LINE
  5
193
330
70
100
AcDbEntity
  8
Livello 1
370
     9
100
AcDbLine
 10
17.49627199219281
 20
-24.90058033921378
 30
0.0
 11
14.76246975007186
 21
-29.76893246842723
 31
0.0
  0
SPLINE
  5
194
330
70
100
AcDbEntity
  8
Livello 1
370
     9
100
AcDbSpline
210
0.0
220
0.0
230
1.0
 70
     8
 71
     3
 72
    11
 73
     7
 74
     0
 42
0.000000001
 43
0.0000000001
 40
0.0
 40
0.0
 40
0.0
 40
0.0
 40
1.0
 40
1.0
 40
1.0
 40
2.0
 40
2.0
 40
2.0
 40
2.0
 10
14.75433062872494
 20
-29.78345024931774
 30
0.0
 10
14.82966472818173
 20
-29.82573348712828
 30
0.0
 10
14.90644980186395
 20
-29.86340254651642
 30
0.0
 10
14.98705322877038
 20
-29.89461657929578
 30
0.0
 10
15.03433448998554
 20
-29.91279194064347
 30
0.0
 10
15.1890883268492
 20
-30.00037290565292
 30
0.0
 10
15.23241859730718
 20
-29.92345921375688
 30
0.0
  0
LINE
  5
195
330
70
100
AcDbEntity
  8
Livello 1
370
     9
100
AcDbLine
 10
17.46371550680609
 20
-24.8823085142058
 30
0.0
 11
14.72174801776373
 21
-29.7651462697559
 31
0.0
  0
LINE
  5
196
330
70
100
AcDbEntity
  8
Livello 1
370
     9
100
AcDbLine
 10
14.75433062872494
 20
-29.78345024931774
 30
0.0
 11
14.72179825925377
 21
-29.7651462697559
 31
0.0
  0
SPLINE
  5
197
330
70
100
AcDbEntity
  8
Livello 1
370
     9
100
AcDbSpline
210
0.0
220
0.0
230
1.0
 70
     8
 71
     3
 72
    11
 73
     7
 74
     0
 42
0.000000001
 43
0.0000000001
 40
0.0
 40
0.0
 40
0.0
 40
0.0
 40
1.0
 40
1.0
 40
1.0
 40
2.0
 40
2.0
 40
2.0
 40
2.0
 10
14.71830949020227
 20
-29.76324915110141
 30
0.0
 10
14.64363254943195
 20
-29.72123922699513
 30
0.0
 10
14.57211680319969
 20
-29.67540291102666
 30
0.0
 10
14.50415614478494
 20
-29.62311960708707
 30
0.0
 10
14.4643809621448
 20
-29.59242808580195
 30
0.0
 10
14.31068219656688
 20
-29.50603683927112
 30
0.0
 10
14.35348593621176
 20
-29.42991093393528
 30
0.0
  0
LINE
  5
1E2
330
70
100
AcDbEntity
  8
0
100
AcDbLine
 10
17.47140647406371
 20
-46.0378706597682
 30
0.0
 11
62.10852641001276
 21
-46.0378706597682
 31
0.0
  0
LINE
  5
1E3
330
70
100
AcDbEntity
  8
0
100
AcDbLine
 10
77.59592171046732
 20
-7.784558793966958
 30
0.0
 11
77.5959217104673
 21
-28.50476816018705
 31
0.0
  0
MTEXT
  5
1ED
330
70
100
AcDbEntity
  8
Livello 2
100
AcDbMText
 10
33.24114634526611
 20
-50.4882201115448
 30
0.0
 40
6.4
 41
2124.285538349534
 46
0.0
 71
     1
 72
     5
  1
120
 73
     1
 44
1.0
101
Embedded Object
 70
     1
 10
1.0
 20
0.0
 30
0.0
 11
33.24114634526611
 21
-50.4882201115448
 31
0.0
 40
2124.285538349534
 41
0.0
 42
13.86666666666666
 43
6.400000000000001
 71
     2
 72
     1
 44
2124.285538349534
 45
32.0
 73
     0
 74
     0
 46
0.0
  0
MTEXT
  5
1F4
330
70
100
AcDbEntity
  8
Livello 2
100
AcDbMText
 10
80.22263173379224
 20
-15.01593310429119
 30
0.0
 40
6.4
 41
2124.285538349534
 46
0.0
 71
     1
 72
     5
  1
56
 73
     1
 44
1.0
101
Embedded Object
 70
     1
 10
1.0
 20
0.0
 30
0.0
 11
80.22263173379224
 21
-15.01593310429119
 31
0.0
 40
2124.285538349534
 41
0.0
 42
10.66666666666667
 43
6.4
 71
     2
 72
     1
 44
2124.285538349534
 45
32.0
 73
     0
 74
     0
 46
0.0
  0
ENDSEC
  0
SECTION
  2
OBJECTS
  0
DICTIONARY
  5
C
330
0
100
AcDbDictionary
281
     1
  3
ACAD_CIP_PREVIOUS_PRODUCT_INFO
350
1D8
  3
ACAD_COLOR
350
63
  3
ACAD_DETAILVIEWSTYLE
350
6A
  3
ACAD_GROUP
350
D
  3
ACAD_LAYOUT
350
62
  3
ACAD_MATERIAL
350
10
  3
ACAD_MLEADERSTYLE
350
66
  3
ACAD_MLINESTYLE
350
5F
  3
ACAD_PLOTSETTINGS
350
61
  3
ACAD_PLOTSTYLENAME
350
E
  3
ACAD_SCALELIST
350
42
  3
ACAD_SECTIONVIEWSTYLE
350
68
  3
ACAD_TABLESTYLE
350
64
  3
ACAD_VISUALSTYLE
350
29
  3
ACDB_RECOMPOSE_DATA
350
1F7
  3
AcDbVariableDictionary
350
1CE
  0
XRECORD
  5
1D8
102
{ACAD_REACTORS
330
C
102
}
330
C
100
AcDbXrecord
280
     1
300
ACD
300
2022
300

  0
DICTIONARY
  5
63
102
{ACAD_REACTORS
330
C
102
}
330
C
100
AcDbDictionary
281
     1
  0
DICTIONARY
  5
6A
102
{ACAD_REACTORS
330
C
102
}
330
C
100
AcDbDictionary
281
     1
  3
Imperial24
350
6B
  0
DICTIONARY
  5
D
102
{ACAD_REACTORS
330
C
102
}
330
C
100
AcDbDictionary
281
     1
  0
DICTIONARY
  5
62
102
{ACAD_REACTORS
330
C
102
}
330
C
100
AcDbDictionary
281
     1
  3
Layout1
350
6F
  3
Layout2
350
77
  3
Model
350
73
  0
DICTIONARY
  5
10
102
{ACAD_REACTORS
330
C
102
}
330
C
100
AcDbDictionary
281
     1
  3
ByBlock
350
19
  3
ByLayer
350
11
  3
Global
350
21
  0
DICTIONARY
  5
66
102
{ACAD_REACTORS
330
C
102
}
330
C
100
AcDbDictionary
281
     1
  3
Standard
350
67
  0
DICTIONARY
  5
5F
102
{ACAD_REACTORS
330
C
102
}
330
C
100
AcDbDictionary
281
     1
  3
Standard
350
60
  0
DICTIONARY
  5
61
102
{ACAD_REACTORS
330
C
102
}
330
C
100
AcDbDictionary
281
     1
  0
ACDBDICTIONARYWDFLT
  5
E
102
{ACAD_REACTORS
330
C
102
}
330
C
100
AcDbDictionary
281
     1
  3
Normal
350
F
100
AcDbDictionaryWithDefault
340
F
  0
DICTIONARY
  5
42
102
{ACAD_REACTORS
330
C
102
}
330
C
100
AcDbDictionary
281
     1
  3
A0
350
43
  3
A1
350
44
  3
A2
350
45
  3
A3
350
46
  3
A4
350
47
  3
A5
350
48
  3
A6
350
49
  3
A7
350
4A
  3
A8
350
4B
  3
A9
350
4C
  3
B0
350
4D
  3
B1
350
4E
  3
B2
350
4F
  3
B3
350
50
  3
B4
350
51
  3
B5
350
52
  3
B6
350
53
  0
DICTIONARY
  5
68
102
{ACAD_REACTORS
330
C
102
}
330
C
100
AcDbDictionary
281
     1
  3
Imperial24
350
69
  0
DICTIONARY
  5
64
102
{ACAD_REACTORS
330
C
102
}
330
C
100
AcDbDictionary
281
     1
  3
Standard
350
65
  0
DICTIONARY
  5
29
102
{ACAD_REACTORS
330
C
102
}
330
C
100
AcDbDictionary
281
     1
  3
2dWireframe
350
2F
  3
Basic
350
2E
  3
Brighten
350
35
  3
ColorChange
350
39
  3
Conceptual
350
32
  3
Dim
350
34
  3
EdgeColorOff
350
41
  3
Facepattern
350
38
  3
Flat
350
2A
  3
FlatWithEdges
350
2B
  3
Gouraud
350
2C
  3
GouraudWithEdges
350
2D
  3
Hidden
350
31
  3
JitterOff
350
3F
  3
Linepattern
350
37
  3
OverhangOff
350
40
  3
Realistic
350
33
  3
Shaded
350
3E
  3
Shaded with edges
350
3D
  3
Shades of Gray
350
3A
  3
Sketchy
350
3B
  3
Thicken
350
36
  3
Wireframe
350
30
  3
X-Ray
350
3C
  0
XRECORD
  5
1F7
102
{ACAD_REACTORS
330
C
102
}
330
C
100
AcDbXrecord
280
     1
 90
        1
330
65
  0
DICTIONARY
  5
1CE
102
{ACAD_REACTORS
330
C
102
}
330
C
100
AcDbDictionary
281
     1
  3
CANNOSCALE
350
1D3
  3
CMLEADERSTYLE
350
1D0
  3
CTABLESTYLE
350
1CF
  3
CVIEWDETAILSTYLE
350
1D1
  3
CVIEWSECTIONSTYLE
350
1D2
  0
ACDBDETAILVIEWSTYLE
  5
6B
102
{ACAD_REACTORS
330
6A
102
}
330
6A
100
AcDbModelDocViewStyle
 70
     0
  3
Imperial24
290
     0
300
Imperial24
 90
        0
100
AcDbDetailViewStyle
 70
     0
 71
     0
 90
        3
 71
     1
340
55
 62
   256
 40
0.24
340
0
 62
   256
 40
0.24
300

 40
0.36
280
     3
 71
     2
340
5D
 90
       25
 62
   256
 71
     3
340
55
 62
   256
 40
0.24
 90
        1
 40
0.75
 90
        1
300
%<\AcVar ViewType \f "%tc1">% %<\AcVar ViewDetailId>%\PSCALE %<\AcVar ViewScale \f "%sn">%
 71
     4
340
5D
 90
       25
 62
   256
340
5D
 90
       25
 62
   256
280
     0
  0
LAYOUT
  5
6F
102
{ACAD_REACTORS
330
62
102
}
330
62
100
AcDbPlotSettings
  1

  2

  4

  6

 40
0.0
 41
0.0
 42
0.0
 43
0.0
 44
0.0
 45
0.0
 46
0.0
 47
0.0
 48
0.0
 49
0.0
140
0.0
141
0.0
142
1.0
143
1.0
 70
   688
 72
     0
 73
     0
 74
     5
  7

 75
    16
147
1.0
 76
     0
 77
     2
 78
   300
148
0.0
149
0.0
100
AcDbLayout
  1
Layout1
 70
     1
 71
     1
 10
0.0
 20
0.0
 11
12.0
 21
9.0
 12
0.0
 22
0.0
 32
0.0
 14
1.000000000000000E+20
 24
1.000000000000000E+20
 34
1.000000000000000E+20
 15
-1.000000000000000E+20
 25
-1.000000000000000E+20
 35
-1.000000000000000E+20
146
0.0
 13
0.0
 23
0.0
 33
0.0
 16
1.0
 26
0.0
 36
0.0
 17
0.0
 27
1.0
 37
0.0
 76
     0
330
6C
  0
LAYOUT
  5
77
102
{ACAD_REACTORS
330
62
102
}
330
62
100
AcDbPlotSettings
  1

  2

  4

  6

 40
0.0
 41
0.0
 42
0.0
 43
0.0
 44
0.0
 45
0.0
 46
0.0
 47
0.0
 48
0.0
 49
0.0
140
0.0
141
0.0
142
1.0
143
1.0
 70
   688
 72
     0
 73
     0
 74
     5
  7

 75
    16
147
1.0
 76
     0
 77
     2
 78
   300
148
0.0
149
0.0
100
AcDbLayout
  1
Layout2
 70
     1
 71
     2
 10
0.0
 20
0.0
 11
12.0
 21
9.0
 12
0.0
 22
0.0
 32
0.0
 14
0.0
 24
0.0
 34
0.0
 15
0.0
 25
0.0
 35
0.0
146
0.0
 13
0.0
 23
0.0
 33
0.0
 16
1.0
 26
0.0
 36
0.0
 17
0.0
 27
1.0
 37
0.0
 76
     0
330
74
  0
LAYOUT
  5
73
102
{ACAD_REACTORS
330
62
102
}
330
62
100
AcDbPlotSettings
  1

  2

  4

  6

 40
0.0
 41
0.0
 42
0.0
 43
0.0
 44
0.0
 45
0.0
 46
0.0
 47
0.0
 48
0.0
 49
0.0
140
0.0
141
0.0
142
1.0
143
1.0
 70
  1712
 72
     0
 73
     0
 74
     0
  7

 75
     0
147
1.0
 76
     0
 77
     2
 78
   300
148
0.0
149
0.0
100
AcDbLayout
  1
Model
 70
     1
 71
     0
 10
0.0
 20
0.0
 11
12.0
 21
9.0
 12
0.0
 22
0.0
 32
0.0
 14
0.0
 24
0.0
 34
0.0
 15
0.0
 25
0.0
 35
0.0
146
0.0
 13
0.0
 23
0.0
 33
0.0
 16
1.0
 26
0.0
 36
0.0
 17
0.0
 27
1.0
 37
0.0
 76
     0
330
70
331
57
  0
MATERIAL
  5
19
102
{ACAD_XDICTIONARY
360
1A
102
}
102
{ACAD_REACTORS
330
10
102
}
330
10
100
AcDbMaterial
  1
ByBlock
 72
     0
 43
0.0208333333333333
 43
0.0
 43
0.0
 43
0.0
 43
0.0
 43
0.0208333333333333
 43
0.0
 43
0.0
 43
0.0
 43
0.0
 43
1.0
 43
0.0
 43
0.0
 43
0.0
 43
0.0
 43
1.0
 77
     0
 47
0.0208333333333333
 47
0.0
 47
0.0
 47
0.0
 47
0.0
 47
0.0208333333333333
 47
0.0
 47
0.0
 47
0.0
 47
0.0
 47
1.0
 47
0.0
 47
0.0
 47
0.0
 47
0.0
 47
1.0
171
     0
 49
0.0208333333333333
 49
0.0
 49
0.0
 49
0.0
 49
0.0
 49
0.0208333333333333
 49
0.0
 49
0.0
 49
0.0
 49
0.0
 49
1.0
 49
0.0
 49
0.0
 49
0.0
 49
0.0
 49
1.0
175
     0
142
0.0208333333333333
142
0.0
142
0.0
142
0.0
142
0.0
142
0.0208333333333333
142
0.0
142
0.0
142
0.0
142
0.0
142
1.0
142
0.0
142
0.0
142
0.0
142
0.0
142
1.0
179
     0
144
0.0208333333333333
144
0.0
144
0.0
144
0.0
144
0.0
144
0.0208333333333333
144
0.0
144
0.0
144
0.0
144
0.0
144
1.0
144
0.0
144
0.0
144
0.0
144
0.0
144
1.0
147
0.0208333333333333
147
0.0
147
0.0
147
0.0
147
0.0
147
0.0208333333333333
147
0.0
147
0.0
147
0.0
147
0.0
147
1.0
147
0.0
147
0.0
147
0.0
147
0.0
147
1.0
  0
MATERIAL
  5
11
102
{ACAD_XDICTIONARY
360
12
102
}
102
{ACAD_REACTORS
330
10
102
}
330
10
100
AcDbMaterial
  1
ByLayer
 72
     0
 43
0.0208333333333333
 43
0.0
 43
0.0
 43
0.0
 43
0.0
 43
0.0208333333333333
 43
0.0
 43
0.0
 43
0.0
 43
0.0
 43
1.0
 43
0.0
 43
0.0
 43
0.0
 43
0.0
 43
1.0
 77
     0
 47
0.0208333333333333
 47
0.0
 47
0.0
 47
0.0
 47
0.0
 47
0.0208333333333333
 47
0.0
 47
0.0
 47
0.0
 47
0.0
 47
1.0
 47
0.0
 47
0.0
 47
0.0
 47
0.0
 47
1.0
171
     0
 49
0.0208333333333333
 49
0.0
 49
0.0
 49
0.0
 49
0.0
 49
0.0208333333333333
 49
0.0
 49
0.0
 49
0.0
 49
0.0
 49
1.0
 49
0.0
 49
0.0
 49
0.0
 49
0.0
 49
1.0
175
     0
142
0.0208333333333333
142
0.0
142
0.0
142
0.0
142
0.0
142
0.0208333333333333
142
0.0
142
0.0
142
0.0
142
0.0
142
1.0
142
0.0
142
0.0
142
0.0
142
0.0
142
1.0
179
     0
144
0.0208333333333333
144
0.0
144
0.0
144
0.0
144
0.0
144
0.0208333333333333
144
0.0
144
0.0
144
0.0
144
0.0
144
1.0
144
0.0
144
0.0
144
0.0
144
0.0
144
1.0
147
0.0208333333333333
147
0.0
147
0.0
147
0.0
147
0.0
147
0.0208333333333333
147
0.0
147
0.0
147
0.0
147
0.0
147
1.0
147
0.0
147
0.0
147
0.0
147
0.0
147
1.0
  0
MATERIAL
  5
21
102
{ACAD_XDICTIONARY
360
22
102
}
102
{ACAD_REACTORS
330
10
102
}
330
10
100
AcDbMaterial
  1
Global
 72
     0
 43
0.0208333333333333
 43
0.0
 43
0.0
 43
0.0
 43
0.0
 43
0.0208333333333333
 43
0.0
 43
0.0
 43
0.0
 43
0.0
 43
1.0
 43
0.0
 43
0.0
 43
0.0
 43
0.0
 43
1.0
 77
     0
 47
0.0208333333333333
 47
0.0
 47
0.0
 47
0.0
 47
0.0
 47
0.0208333333333333
 47
0.0
 47
0.0
 47
0.0
 47
0.0
 47
1.0
 47
0.0
 47
0.0
 47
0.0
 47
0.0
 47
1.0
171
     0
 49
0.0208333333333333
 49
0.0
 49
0.0
 49
0.0
 49
0.0
 49
0.0208333333333333
 49
0.0
 49
0.0
 49
0.0
 49
0.0
 49
1.0
 49
0.0
 49
0.0
 49
0.0
 49
0.0
 49
1.0
175
     0
142
0.0208333333333333
142
0.0
142
0.0
142
0.0
142
0.0
142
0.0208333333333333
142
0.0
142
0.0
142
0.0
142
0.0
142
1.0
142
0.0
142
0.0
142
0.0
142
0.0
142
1.0
179
     0
144
0.0208333333333333
144
0.0
144
0.0
144
0.0
144
0.0
144
0.0208333333333333
144
0.0
144
0.0
144
0.0
144
0.0
144
1.0
144
0.0
144
0.0
144
0.0
144
0.0
144
1.0
147
0.0208333333333333
147
0.0
147
0.0
147
0.0
147
0.0
147
0.0208333333333333
147
0.0
147
0.0
147
0.0
147
0.0
147
1.0
147
0.0
147
0.0
147
0.0
147
0.0
147
1.0
  0
MLEADERSTYLE
  5
67
102
{ACAD_REACTORS
330
66
102
}
330
66
100
AcDbMLeaderStyle
179
     2
170
     2
171
     1
172
     0
 90
        2
 40
0.0
 41
0.0
173
     1
 91
-1056964608
340
5B
 92
       -2
290
     1
 42
0.09
291
     1
 43
0.36
  3
Standard
 44
0.18
300

342
55
174
     1
178
     6
175
     1
176
     0
 93
-1056964608
 45
0.18
292
     0
297
     0
 46
0.18
 94
-1056964608
 47
1.0
 49
1.0
140
1.0
293
     1
141
0.0
294
     1
177
     0
142
1.0
295
     0
296
     0
143
0.125
271
     0
272
     9
273
     9
298
     1
  0
MLINESTYLE
  5
60
102
{ACAD_REACTORS
330
5F
102
}
330
5F
100
AcDbMlineStyle
  2
STANDARD
 70
     0
  3

 62
   256
 51
90.0
 52
90.0
 71
     2
 49
0.5
 62
   256
  6
BYLAYER
 49
-0.5
 62
   256
  6
BYLAYER
  0
ACDBPLACEHOLDER
  5
F
102
{ACAD_REACTORS
330
E
102
}
330
E
  0
SCALE
  5
43
102
{ACAD_REACTORS
330
42
102
}
330
42
100
AcDbScale
 70
     0
300
1:1
140
1.0
141
1.0
290
     1
  0
SCALE
  5
44
102
{ACAD_REACTORS
330
42
102
}
330
42
100
AcDbScale
 70
     0
300
1/128" = 1'-0"
140
0.0078125
141
12.0
290
     0
  0
SCALE
  5
45
102
{ACAD_REACTORS
330
42
102
}
330
42
100
AcDbScale
 70
     0
300
1/64" = 1'-0"
140
0.015625
141
12.0
290
     0
  0
SCALE
  5
46
102
{ACAD_REACTORS
330
42
102
}
330
42
100
AcDbScale
 70
     0
300
1/32" = 1'-0"
140
0.03125
141
12.0
290
     0
  0
SCALE
  5
47
102
{ACAD_REACTORS
330
42
102
}
330
42
100
AcDbScale
 70
     0
300
1/16" = 1'-0"
140
0.0625
141
12.0
290
     0
  0
SCALE
  5
48
102
{ACAD_REACTORS
330
42
102
}
330
42
100
AcDbScale
 70
     0
300
3/32" = 1'-0"
140
0.09375
141
12.0
290
     0
  0
SCALE
  5
49
102
{ACAD_REACTORS
330
42
102
}
330
42
100
AcDbScale
 70
     0
300
1/8" = 1'-0"
140
0.125
141
12.0
290
     0
  0
SCALE
  5
4A
102
{ACAD_REACTORS
330
42
102
}
330
42
100
AcDbScale
 70
     0
300
3/16" = 1'-0"
140
0.1875
141
12.0
290
     0
  0
SCALE
  5
4B
102
{ACAD_REACTORS
330
42
102
}
330
42
100
AcDbScale
 70
     0
300
1/4" = 1'-0"
140
0.25
141
12.0
290
     0
  0
SCALE
  5
4C
102
{ACAD_REACTORS
330
42
102
}
330
42
100
AcDbScale
 70
     0
300
3/8" = 1'-0"
140
0.375
141
12.0
290
     0
  0
SCALE
  5
4D
102
{ACAD_REACTORS
330
42
102
}
330
42
100
AcDbScale
 70
     0
300
1/2" = 1'-0"
140
0.5
141
12.0
290
     0
  0
SCALE
  5
4E
102
{ACAD_REACTORS
330
42
102
}
330
42
100
AcDbScale
 70
     0
300
3/4" = 1'-0"
140
0.75
141
12.0
290
     0
  0
SCALE
  5
4F
102
{ACAD_REACTORS
330
42
102
}
330
42
100
AcDbScale
 70
     0
300
1" = 1'-0"
140
1.0
141
12.0
290
     0
  0
SCALE
  5
50
102
{ACAD_REACTORS
330
42
102
}
330
42
100
AcDbScale
 70
     0
300
1-1/2" = 1'-0"
140
1.5
141
12.0
290
     0
  0
SCALE
  5
51
102
{ACAD_REACTORS
330
42
102
}
330
42
100
AcDbScale
 70
     0
300
3" = 1'-0"
140
3.0
141
12.0
290
     0
  0
SCALE
  5
52
102
{ACAD_REACTORS
330
42
102
}
330
42
100
AcDbScale
 70
     0
300
6" = 1'-0"
140
6.0
141
12.0
290
     0
  0
SCALE
  5
53
102
{ACAD_REACTORS
330
42
102
}
330
42
100
AcDbScale
 70
     0
300
1'-0" = 1'-0"
140
12.0
141
12.0
290
     0
  0
ACDBSECTIONVIEWSTYLE
  5
69
102
{ACAD_REACTORS
330
68
102
}
330
68
100
AcDbModelDocViewStyle
 70
     0
  3
Imperial24
290
     0
300
Imperial24
 90
        0
100
AcDbSectionViewStyle
 70
     0
 71
     0
 90
       78
 71
     1
340
55
 62
   256
 40
0.24
340
0
340
0
 62
   256
 40
0.24
300
I, O, Q, S, X, Z
 40
0.48
 90
        3
 40
0.18
 90
        1
 71
     2
340
5D
 90
       25
 62
   256
340
5D
 90
       50
 62
   256
 40
0.24
 40
0.0
 40
0.24
 71
     3
340
55
 62
   256
 40
0.24
 90
        1
 40
0.75
 90
        1
300
%<\AcVar ViewType \f "%tc1">% %<\AcVar ViewSectionStartId>%-%<\AcVar ViewSectionEndId>%\PSCALE %<\AcVar ViewScale \f "%sn">%
 71
     4
 62
   256
 62
   257
300
ANSI31
 40
1.0
 90
        0
290
     0
290
     0
 90
        6
 40
0.0
 40
1.570796326794896
 40
0.2617993877991494
 40
1.308996938995747
 40
-0.2617993877991494
 40
1.832595714594046
  0
TABLESTYLE
  5
65
102
{ACAD_XDICTIONARY
360
1F5
102
}
102
{ACAD_REACTORS
330
64
102
}
330
64
100
AcDbTableStyle
280
     0
  3
Standard
 70
     0
 71
     0
 40
0.06
 41
0.06
280
     0
281
     0
  7
Standard
140
0.18
170
     2
 62
     0
 63
     7
283
     0
 90
      512
 91
        0
  1

274
    -2
284
     1
 64
     0
275
    -2
285
     1
 65
     0
276
    -2
286
     1
 66
     0
277
    -2
287
     1
 67
     0
278
    -2
288
     1
 68
     0
279
    -2
289
     1
 69
     0
  7
Standard
140
0.25
170
     5
 62
     0
 63
     7
283
     0
 90
      512
 91
        0
  1

274
    -2
284
     1
 64
     0
275
    -2
285
     1
 65
     0
276
    -2
286
     1
 66
     0
277
    -2
287
     1
 67
     0
278
    -2
288
     1
 68
     0
279
    -2
289
     1
 69
     0
  7
Standard
140
0.18
170
     5
 62
     0
 63
     7
283
     0
 90
      512
 91
        0
  1

274
    -2
284
     1
 64
     0
275
    -2
285
     1
 65
     0
276
    -2
286
     1
 66
     0
277
    -2
287
     1
 67
     0
278
    -2
288
     1
 68
     0
279
    -2
289
     1
 69
     0
  0
VISUALSTYLE
  5
2F
102
{ACAD_REACTORS
330
29
102
}
330
29
100
AcDbVisualStyle
  2
2dWireframe
 70
     4
177
     3
291
     0
 70
    58
 90
        0
176
     1
 90
        2
176
     1
 90
        0
176
     1
 90
        0
176
     1
 40
0.6
176
     1
 40
30.0
176
     1
 62
     7
420
 16777215
176
     1
 90
        1
176
     1
 90
        4
176
     1
 62
     7
176
     1
 62
   257
176
     1
 90
        1
176
     1
 90
        1
176
     1
 40
1.0
176
     1
 90
        0
176
     1
 62
   257
176
     1
 40
1.0
176
     1
 90
        1
176
     1
 90
        6
176
     1
 90
        2
176
     1
 62
     7
176
     1
 90
        5
176
     1
 90
        0
176
     1
 90
        0
176
     1
290
     0
176
     1
 90
        1
176
     1
 40
0.0
176
     1
 90
        0
176
     1
290
     1
176
     1
290
     1
176
     1
290
     0
176
     1
290
     0
176
     1
290
     0
176
     1
290
     0
176
     1
290
     0
176
     1
290
     0
176
     1
290
     0
176
     1
 90
       50
176
     1
 40
0.0
176
     1
 40
1.0
176
     1
 90
        0
176
     1
 62
    18
420
        0
176
     1
 90
       50
176
     1
 90
        3
176
     1
 62
     5
420
      255
176
     1
290
     0
176
     1
 90
       50
176
     1
 90
       50
176
     1
 90
       50
176
     1
290
     0
176
     1
 90
       50
176
     1
 62
   256
176
     0
 40
1.0
176
     0
 90
        2
176
     1
  1
strokes_ogs.tif
176
     1
290
     0
176
     1
 40
1.0
176
     1
 40
1.0
176
     1
  0
VISUALSTYLE
  5
2E
102
{ACAD_REACTORS
330
29
102
}
330
29
100
AcDbVisualStyle
  2
Basic
 70
     7
177
     3
291
     1
 70
    58
 90
        1
176
     1
 90
        0
176
     1
 90
        1
176
     1
 90
        0
176
     1
 40
0.6
176
     1
 40
30.0
176
     1
 62
     7
420
 16777215
176
     1
 90
        0
176
     1
 90
        4
176
     1
 62
     7
176
     1
 62
   257
176
     1
 90
        1
176
     1
 90
        1
176
     1
 40
1.0
176
     1
 90
        8
176
     1
 62
     7
176
     1
 40
1.0
176
     1
 90
        1
176
     1
 90
        6
176
     1
 90
        2
176
     1
 62
     7
176
     1
 90
        5
176
     1
 90
        0
176
     1
 90
        0
176
     1
290
     0
176
     1
 90
        1
176
     1
 40
0.0
176
     1
 90
        0
176
     1
290
     0
176
     1
290
     1
176
     1
290
     1
176
     1
290
     0
176
     1
290
     0
176
     1
290
     0
176
     1
290
     0
176
     1
290
     0
176
     1
290
     0
176
     1
 90
       50
176
     1
 40
0.0
176
     1
 40
1.0
176
     1
 90
        0
176
     1
 62
    18
420
        0
176
     1
 90
       50
176
     1
 90
        3
176
     1
 62
     5
420
      255
176
     1
290
     0
176
     1
 90
       50
176
     1
 90
       50
176
     1
 90
       50
176
     1
290
     0
176
     1
 90
       50
176
     1
 62
   256
176
     0
 40
1.0
176
     0
 90
        2
176
     1
  1
strokes_ogs.tif
176
     1
290
     0
176
     1
 40
1.0
176
     1
 40
1.0
176
     1
  0
VISUALSTYLE
  5
35
102
{ACAD_REACTORS
330
29
102
}
330
29
100
AcDbVisualStyle
  2
Brighten
 70
    12
177
     3
291
     1
 70
    58
 90
        2
176
     1
 90
        2
176
     1
 90
        0
176
     1
 90
        0
176
     1
 40
0.6
176
     1
 40
30.0
176
     1
 62
     7
420
 16777215
176
     1
 90
        1
176
     1
 90
        4
176
     1
 62
     7
176
     1
 62
   257
176
     1
 90
        1
176
     1
 90
        1
176
     1
 40
1.0
176
     1
 90
        8
176
     1
 62
     7
176
     1
 40
1.0
176
     1
 90
        1
176
     1
 90
        6
176
     1
 90
        2
176
     1
 62
     7
176
     1
 90
        5
176
     1
 90
        0
176
     1
 90
        0
176
     1
290
     0
176
     1
 90
        1
176
     1
 40
50.0
176
     1
 90
        0
176
     1
290
     0
176
     1
290
     1
176
     1
290
     1
176
     1
290
     0
176
     1
290
     0
176
     1
290
     0
176
     1
290
     0
176
     1
290
     0
176
     1
290
     0
176
     1
 90
       50
176
     1
 40
0.0
176
     1
 40
1.0
176
     1
 90
        0
176
     1
 62
    18
420
        0
176
     1
 90
       50
176
     1
 90
        3
176
     1
 62
     5
420
      255
176
     1
290
     0
176
     1
 90
       50
176
     1
 90
       50
176
     1
 90
       50
176
     1
290
     0
176
     1
 90
       50
176
     1
 62
   256
176
     0
 40
1.0
176
     0
 90
        2
176
     1
  1
strokes_ogs.tif
176
     1
290
     0
176
     1
 40
1.0
176
     1
 40
1.0
176
     1
  0
VISUALSTYLE
  5
39
102
{ACAD_REACTORS
330
29
102
}
330
29
100
AcDbVisualStyle
  2
ColorChange
 70
    16
177
     3
291
     1
 70
    58
 90
        2
176
     1
 90
        2
176
     1
 90
        3
176
     1
 90
        0
176
     1
 40
0.6
176
     1
 40
30.0
176
     1
 62
     8
420
  8421504
176
     1
 90
        1
176
     1
 90
        4
176
     1
 62
     7
176
     1
 62
   257
176
     1
 90
        1
176
     1
 90
        1
176
     1
 40
1.0
176
     1
 90
        8
176
     1
 62
     8
420
  8421504
176
     1
 40
1.0
176
     1
 90
        1
176
     1
 90
        6
176
     1
 90
        2
176
     1
 62
     7
176
     1
 90
        5
176
     1
 90
        0
176
     1
 90
        0
176
     1
290
     0
176
     1
 90
        1
176
     1
 40
0.0
176
     1
 90
        0
176
     1
290
     0
176
     1
290
     1
176
     1
290
     1
176
     1
290
     0
176
     1
290
     0
176
     1
290
     0
176
     1
290
     0
176
     1
290
     0
176
     1
290
     0
176
     1
 90
       50
176
     1
 40
0.0
176
     1
 40
1.0
176
     1
 90
        0
176
     1
 62
    18
420
        0
176
     1
 90
       50
176
     1
 90
        3
176
     1
 62
     5
420
      255
176
     1
290
     0
176
     1
 90
       50
176
     1
 90
       50
176
     1
 90
       50
176
     1
290
     0
176
     1
 90
       50
176
     1
 62
   256
176
     0
 40
1.0
176
     0
 90
        2
176
     1
  1
strokes_ogs.tif
176
     1
290
     0
176
     1
 40
1.0
176
     1
 40
1.0
176
     1
  0
VISUALSTYLE
  5
32
102
{ACAD_REACTORS
330
29
102
}
330
29
100
AcDbVisualStyle
  2
Conceptual
 70
     9
177
     3
291
     0
 70
    58
 90
        3
176
     1
 90
        2
176
     1
 90
        0
176
     1
 90
        0
176
     1
 40
0.6
176
     1
 40
30.0
176
     1
 62
     7
420
 16777215
176
     1
 90
        2
176
     1
 90
        2
176
     1
 62
     7
176
     1
 62
   257
176
     1
 90
        1
176
     1
 90
        1
176
     1
 40
179.0
176
     1
 90
        8
176
     1
 62
     7
176
     1
 40
1.0
176
     1
 90
        1
176
     1
 90
        6
176
     1
 90
        2
176
     1
 62
     7
176
     1
 90
        3
176
     1
 90
        0
176
     1
 90
        0
176
     1
290
     0
176
     1
 90
        1
176
     1
 40
0.0
176
     1
 90
        0
176
     1
290
     0
176
     1
290
     1
176
     1
290
     1
176
     1
290
     0
176
     1
290
     0
176
     1
290
     0
176
     1
290
     0
176
     1
290
     0
176
     1
290
     0
176
     1
 90
       50
176
     1
 40
0.0
176
     1
 40
1.0
176
     1
 90
        0
176
     1
 62
    18
420
        0
176
     1
 90
       50
176
     1
 90
        3
176
     1
 62
     5
420
      255
176
     1
290
     0
176
     1
 90
       50
176
     1
 90
       50
176
     1
 90
       50
176
     1
290
     0
176
     1
 90
       50
176
     1
 62
   256
176
     0
 40
1.0
176
     0
 90
        2
176
     1
  1
strokes_ogs.tif
176
     1
290
     0
176
     1
 40
1.0
176
     1
 40
1.0
176
     1
  0
VISUALSTYLE
  5
34
102
{ACAD_REACTORS
330
29
102
}
330
29
100
AcDbVisualStyle
  2
Dim
 70
    11
177
     3
291
     1
 70
    58
 90
        2
176
     1
 90
        2
176
     1
 90
        0
176
     1
 90
        0
176
     1
 40
0.6
176
     1
 40
30.0
176
     1
 62
     7
420
 16777215
176
     1
 90
        1
176
     1
 90
        4
176
     1
 62
     7
176
     1
 62
   257
176
     1
 90
        1
176
     1
 90
        1
176
     1
 40
1.0
176
     1
 90
        8
176
     1
 62
     7
176
     1
 40
1.0
176
     1
 90
        1
176
     1
 90
        6
176
     1
 90
        2
176
     1
 62
     7
176
     1
 90
        5
176
     1
 90
        0
176
     1
 90
        0
176
     1
290
     0
176
     1
 90
        1
176
     1
 40
-50.0
176
     1
 90
        0
176
     1
290
     0
176
     1
290
     1
176
     1
290
     1
176
     1
290
     0
176
     1
290
     0
176
     1
290
     0
176
     1
290
     0
176
     1
290
     0
176
     1
290
     0
176
     1
 90
       50
176
     1
 40
0.0
176
     1
 40
1.0
176
     1
 90
        0
176
     1
 62
    18
420
        0
176
     1
 90
       50
176
     1
 90
        3
176
     1
 62
     5
420
      255
176
     1
290
     0
176
     1
 90
       50
176
     1
 90
       50
176
     1
 90
       50
176
     1
290
     0
176
     1
 90
       50
176
     1
 62
   256
176
     0
 40
1.0
176
     0
 90
        2
176
     1
  1
strokes_ogs.tif
176
     1
290
     0
176
     1
 40
1.0
176
     1
 40
1.0
176
     1
  0
VISUALSTYLE
  5
41
102
{ACAD_REACTORS
330
29
102
}
330
29
100
AcDbVisualStyle
  2
EdgeColorOff
 70
    22
177
     3
291
     1
 70
    58
 90
        2
176
     0
 90
        2
176
     0
 90
        0
176
     0
 90
        0
176
     0
 40
0.6
176
     0
 40
30.0
176
     0
 62
     7
420
 16777215
176
     0
 90
        1
176
     0
 90
        4
176
     0
 62
     7
176
     0
 62
   257
176
     0
 90
        1
176
     0
 90
        1
176
     0
 40
1.0
176
     0
 90
        8
176
     2
 62
     7
176
     0
 40
1.0
176
     0
 90
        1
176
     0
 90
        6
176
     0
 90
        2
176
     0
 62
     7
176
     0
 90
        5
176
     0
 90
        0
176
     0
 90
        0
176
     0
290
     0
176
     0
 90
        1
176
     0
 40
0.0
176
     0
 90
        0
176
     0
290
     0
176
     0
290
     1
176
     0
290
     1
176
     0
290
     0
176
     0
290
     0
176
     0
290
     0
176
     0
290
     0
176
     0
290
     0
176
     0
290
     0
176
     0
 90
       50
176
     0
 40
0.0
176
     0
 40
1.0
176
     0
 90
        0
176
     0
 62
    18
420
        0
176
     0
 90
       50
176
     0
 90
        3
176
     0
 62
     5
420
      255
176
     0
290
     0
176
     0
 90
       50
176
     0
 90
       50
176
     0
 90
       50
176
     0
290
     0
176
     0
 90
       50
176
     0
 62
   256
176
     0
 40
1.0
176
     0
 90
        2
176
     0
  1
strokes_ogs.tif
176
     0
290
     0
176
     0
 40
1.0
176
     0
 40
1.0
176
     0
  0
VISUALSTYLE
  5
38
102
{ACAD_REACTORS
330
29
102
}
330
29
100
AcDbVisualStyle
  2
Facepattern
 70
    15
177
     3
291
     1
 70
    58
 90
        2
176
     1
 90
        2
176
     1
 90
        0
176
     1
 90
        0
176
     1
 40
0.6
176
     1
 40
30.0
176
     1
 62
     7
420
 16777215
176
     1
 90
        1
176
     1
 90
        4
176
     1
 62
     7
176
     1
 62
   257
176
     1
 90
        1
176
     1
 90
        1
176
     1
 40
1.0
176
     1
 90
        8
176
     1
 62
     7
176
     1
 40
1.0
176
     1
 90
        1
176
     1
 90
        6
176
     1
 90
        2
176
     1
 62
     7
176
     1
 90
        5
176
     1
 90
        0
176
     1
 90
        0
176
     1
290
     0
176
     1
 90
        1
176
     1
 40
0.0
176
     1
 90
        0
176
     1
290
     0
176
     1
290
     1
176
     1
290
     1
176
     1
290
     0
176
     1
290
     0
176
     1
290
     0
176
     1
290
     0
176
     1
290
     0
176
     1
290
     0
176
     1
 90
       50
176
     1
 40
0.0
176
     1
 40
1.0
176
     1
 90
        0
176
     1
 62
    18
420
        0
176
     1
 90
       50
176
     1
 90
        3
176
     1
 62
     5
420
      255
176
     1
290
     0
176
     1
 90
       50
176
     1
 90
       50
176
     1
 90
       50
176
     1
290
     0
176
     1
 90
       50
176
     1
 62
   256
176
     0
 40
1.0
176
     0
 90
        2
176
     1
  1
strokes_ogs.tif
176
     1
290
     0
176
     1
 40
1.0
176
     1
 40
1.0
176
     1
  0
VISUALSTYLE
  5
2A
102
{ACAD_REACTORS
330
29
102
}
330
29
100
AcDbVisualStyle
  2
Flat
 70
     0
177
     3
291
     1
 70
    58
 90
        2
176
     1
 90
        1
176
     1
 90
        1
176
     1
 90
        2
176
     1
 40
0.6
176
     1
 40
30.0
176
     1
 62
     7
420
 16777215
176
     1
 90
        0
176
     1
 90
        0
176
     1
 62
     7
176
     1
 62
   257
176
     1
 90
        1
176
     1
 90
        1
176
     1
 40
1.0
176
     1
 90
        8
176
     1
 62
     7
176
     1
 40
1.0
176
     1
 90
        1
176
     1
 90
        6
176
     1
 90
        2
176
     1
 62
     7
176
     1
 90
        5
176
     1
 90
        0
176
     1
 90
        0
176
     1
290
     0
176
     1
 90
       13
176
     1
 40
0.0
176
     1
 90
        0
176
     1
290
     0
176
     1
290
     1
176
     1
290
     1
176
     1
290
     0
176
     1
290
     0
176
     1
290
     0
176
     1
290
     0
176
     1
290
     0
176
     1
290
     0
176
     1
 90
       50
176
     1
 40
0.0
176
     1
 40
1.0
176
     1
 90
        0
176
     1
 62
    18
420
        0
176
     1
 90
       50
176
     1
 90
        3
176
     1
 62
     5
420
      255
176
     1
290
     0
176
     1
 90
       50
176
     1
 90
       50
176
     1
 90
       50
176
     1
290
     0
176
     1
 90
       50
176
     1
 62
   256
176
     0
 40
1.0
176
     0
 90
        2
176
     1
  1
strokes_ogs.tif
176
     1
290
     0
176
     1
 40
1.0
176
     1
 40
1.0
176
     1
  0
VISUALSTYLE
  5
2B
102
{ACAD_REACTORS
330
29
102
}
330
29
100
AcDbVisualStyle
  2
FlatWithEdges
 70
     1
177
     3
291
     1
 70
    58
 90
        2
176
     1
 90
        1
176
     1
 90
        1
176
     1
 90
        2
176
     1
 40
0.6
176
     1
 40
30.0
176
     1
 62
     7
420
 16777215
176
     1
 90
        1
176
     1
 90
        0
176
     1
 62
     7
176
     1
 62
   257
176
     1
 90
        1
176
     1
 90
        1
176
     1
 40
1.0
176
     1
 90
        0
176
     1
 62
   257
176
     1
 40
1.0
176
     1
 90
        1
176
     1
 90
        6
176
     1
 90
        2
176
     1
 62
     7
176
     1
 90
        5
176
     1
 90
        0
176
     1
 90
        0
176
     1
290
     0
176
     1
 90
       13
176
     1
 40
0.0
176
     1
 90
        0
176
     1
290
     0
176
     1
290
     1
176
     1
290
     1
176
     1
290
     0
176
     1
290
     0
176
     1
290
     0
176
     1
290
     0
176
     1
290
     0
176
     1
290
     0
176
     1
 90
       50
176
     1
 40
0.0
176
     1
 40
1.0
176
     1
 90
        0
176
     1
 62
    18
420
        0
176
     1
 90
       50
176
     1
 90
        3
176
     1
 62
     5
420
      255
176
     1
290
     0
176
     1
 90
       50
176
     1
 90
       50
176
     1
 90
       50
176
     1
290
     0
176
     1
 90
       50
176
     1
 62
   256
176
     0
 40
1.0
176
     0
 90
        2
176
     1
  1
strokes_ogs.tif
176
     1
290
     0
176
     1
 40
1.0
176
     1
 40
1.0
176
     1
  0
VISUALSTYLE
  5
2C
102
{ACAD_REACTORS
330
29
102
}
330
29
100
AcDbVisualStyle
  2
Gouraud
 70
     2
177
     3
291
     1
 70
    58
 90
        2
176
     1
 90
        2
176
     1
 90
        1
176
     1
 90
        2
176
     1
 40
0.6
176
     1
 40
30.0
176
     1
 62
     7
420
 16777215
176
     1
 90
        0
176
     1
 90
        0
176
     1
 62
     7
176
     1
 62
   257
176
     1
 90
        1
176
     1
 90
        1
176
     1
 40
1.0
176
     1
 90
        0
176
     1
 62
     7
176
     1
 40
1.0
176
     1
 90
        1
176
     1
 90
        6
176
     1
 90
        2
176
     1
 62
     7
176
     1
 90
        5
176
     1
 90
        0
176
     1
 90
        0
176
     1
290
     0
176
     1
 90
       13
176
     1
 40
0.0
176
     1
 90
        0
176
     1
290
     0
176
     1
290
     1
176
     1
290
     1
176
     1
290
     0
176
     1
290
     0
176
     1
290
     0
176
     1
290
     0
176
     1
290
     0
176
     1
290
     0
176
     1
 90
       50
176
     1
 40
0.0
176
     1
 40
1.0
176
     1
 90
        0
176
     1
 62
    18
420
        0
176
     1
 90
       50
176
     1
 90
        3
176
     1
 62
     5
420
      255
176
     1
290
     0
176
     1
 90
       50
176
     1
 90
       50
176
     1
 90
       50
176
     1
290
     0
176
     1
 90
       50
176
     1
 62
   256
176
     0
 40
1.0
176
     0
 90
        2
176
     1
  1
strokes_ogs.tif
176
     1
290
     0
176
     1
 40
1.0
176
     1
 40
1.0
176
     1
  0
VISUALSTYLE
  5
2D
102
{ACAD_REACTORS
330
29
102
}
330
29
100
AcDbVisualStyle
  2
GouraudWithEdges
 70
     3
177
     3
291
     1
 70
    58
 90
        2
176
     1
 90
        2
176
     1
 90
        1
176
     1
 90
        2
176
     1
 40
0.6
176
     1
 40
30.0
176
     1
 62
     7
420
 16777215
176
     1
 90
        1
176
     1
 90
        0
176
     1
 62
     7
176
     1
 62
   257
176
     1
 90
        1
176
     1
 90
        1
176
     1
 40
1.0
176
     1
 90
        0
176
     1
 62
   257
176
     1
 40
1.0
176
     1
 90
        1
176
     1
 90
        6
176
     1
 90
        2
176
     1
 62
     7
176
     1
 90
        5
176
     1
 90
        0
176
     1
 90
        0
176
     1
290
     0
176
     1
 90
       13
176
     1
 40
0.0
176
     1
 90
        0
176
     1
290
     0
176
     1
290
     1
176
     1
290
     1
176
     1
290
     0
176
     1
290
     0
176
     1
290
     0
176
     1
290
     0
176
     1
290
     0
176
     1
290
     0
176
     1
 90
       50
176
     1
 40
0.0
176
     1
 40
1.0
176
     1
 90
        0
176
     1
 62
    18
420
        0
176
     1
 90
       50
176
     1
 90
        3
176
     1
 62
     5
420
      255
176
     1
290
     0
176
     1
 90
       50
176
     1
 90
       50
176
     1
 90
       50
176
     1
290
     0
176
     1
 90
       50
176
     1
 62
   256
176
     0
 40
1.0
176
     0
 90
        2
176
     1
  1
strokes_ogs.tif
176
     1
290
     0
176
     1
 40
1.0
176
     1
 40
1.0
176
     1
  0
VISUALSTYLE
  5
31
102
{ACAD_REACTORS
330
29
102
}
330
29
100
AcDbVisualStyle
  2
Hidden
 70
     6
177
     3
291
     0
 70
    58
 90
        1
176
     1
 90
        2
176
     1
 90
        2
176
     1
 90
        0
176
     1
 40
0.6
176
     1
 40
30.0
176
     1
 62
     7
420
 16777215
176
     1
 90
        2
176
     1
 90
        2
176
     1
 62
     7
176
     1
 62
   257
176
     1
 90
        2
176
     1
 90
        1
176
     1
 40
40.0
176
     1
 90
        0
176
     1
 62
   257
176
     1
 40
1.0
176
     1
 90
        1
176
     1
 90
        6
176
     1
 90
        2
176
     1
 62
     7
176
     1
 90
        3
176
     1
 90
        0
176
     1
 90
        0
176
     1
290
     0
176
     1
 90
        1
176
     1
 40
0.0
176
     1
 90
        0
176
     1
290
     0
176
     1
290
     1
176
     1
290
     1
176
     1
290
     0
176
     1
290
     0
176
     1
290
     0
176
     1
290
     0
176
     1
290
     0
176
     1
290
     0
176
     1
 90
       50
176
     1
 40
0.0
176
     1
 40
1.0
176
     1
 90
        0
176
     1
 62
    18
420
        0
176
     1
 90
       50
176
     1
 90
        3
176
     1
 62
     5
420
      255
176
     1
290
     0
176
     1
 90
       50
176
     1
 90
       50
176
     1
 90
       50
176
     1
290
     0
176
     1
 90
       50
176
     1
 62
   256
176
     0
 40
1.0
176
     0
 90
        2
176
     1
  1
strokes_ogs.tif
176
     1
290
     0
176
     1
 40
1.0
176
     1
 40
1.0
176
     1
  0
VISUALSTYLE
  5
3F
102
{ACAD_REACTORS
330
29
102
}
330
29
100
AcDbVisualStyle
  2
JitterOff
 70
    20
177
     3
291
     1
 70
    58
 90
        2
176
     0
 90
        2
176
     0
 90
        0
176
     0
 90
        0
176
     0
 40
0.6
176
     0
 40
30.0
176
     0
 62
     7
420
 16777215
176
     0
 90
        1
176
     0
 90
        4
176
     0
 62
     7
176
     0
 62
   257
176
     0
 90
        1
176
     0
 90
        1
176
     0
 40
1.0
176
     0
 90
       10
176
     2
 62
     7
176
     0
 40
1.0
176
     0
 90
        1
176
     0
 90
        6
176
     0
 90
        2
176
     0
 62
     7
176
     0
 90
        5
176
     0
 90
        0
176
     0
 90
        0
176
     0
290
     0
176
     0
 90
        1
176
     0
 40
0.0
176
     0
 90
        0
176
     0
290
     0
176
     0
290
     1
176
     0
290
     1
176
     0
290
     0
176
     0
290
     0
176
     0
290
     0
176
     0
290
     0
176
     0
290
     0
176
     0
290
     0
176
     0
 90
       50
176
     0
 40
0.0
176
     0
 40
1.0
176
     0
 90
        0
176
     0
 62
    18
420
        0
176
     0
 90
       50
176
     0
 90
        3
176
     0
 62
     5
420
      255
176
     0
290
     0
176
     0
 90
       50
176
     0
 90
       50
176
     0
 90
       50
176
     0
290
     0
176
     0
 90
       50
176
     0
 62
   256
176
     0
 40
1.0
176
     0
 90
        2
176
     0
  1
strokes_ogs.tif
176
     0
290
     0
176
     0
 40
1.0
176
     0
 40
1.0
176
     0
  0
VISUALSTYLE
  5
37
102
{ACAD_REACTORS
330
29
102
}
330
29
100
AcDbVisualStyle
  2
Linepattern
 70
    14
177
     3
291
     1
 70
    58
 90
        2
176
     1
 90
        2
176
     1
 90
        0
176
     1
 90
        0
176
     1
 40
0.6
176
     1
 40
30.0
176
     1
 62
     7
420
 16777215
176
     1
 90
        1
176
     1
 90
        4
176
     1
 62
     7
176
     1
 62
   257
176
     1
 90
        7
176
     1
 90
        7
176
     1
 40
1.0
176
     1
 90
        8
176
     1
 62
     7
176
     1
 40
1.0
176
     1
 90
        1
176
     1
 90
        6
176
     1
 90
        2
176
     1
 62
     7
176
     1
 90
        5
176
     1
 90
        0
176
     1
 90
        0
176
     1
290
     0
176
     1
 90
        1
176
     1
 40
0.0
176
     1
 90
        0
176
     1
290
     0
176
     1
290
     1
176
     1
290
     1
176
     1
290
     0
176
     1
290
     0
176
     1
290
     0
176
     1
290
     0
176
     1
290
     0
176
     1
290
     0
176
     1
 90
       50
176
     1
 40
0.0
176
     1
 40
1.0
176
     1
 90
        0
176
     1
 62
    18
420
        0
176
     1
 90
       50
176
     1
 90
        3
176
     1
 62
     5
420
      255
176
     1
290
     0
176
     1
 90
       50
176
     1
 90
       50
176
     1
 90
       50
176
     1
290
     0
176
     1
 90
       50
176
     1
 62
   256
176
     0
 40
1.0
176
     0
 90
        2
176
     1
  1
strokes_ogs.tif
176
     1
290
     0
176
     1
 40
1.0
176
     1
 40
1.0
176
     1
  0
VISUALSTYLE
  5
40
102
{ACAD_REACTORS
330
29
102
}
330
29
100
AcDbVisualStyle
  2
OverhangOff
 70
    21
177
     3
291
     1
 70
    58
 90
        2
176
     0
 90
        2
176
     0
 90
        0
176
     0
 90
        0
176
     0
 40
0.6
176
     0
 40
30.0
176
     0
 62
     7
420
 16777215
176
     0
 90
        1
176
     0
 90
        4
176
     0
 62
     7
176
     0
 62
   257
176
     0
 90
        1
176
     0
 90
        1
176
     0
 40
1.0
176
     0
 90
        9
176
     2
 62
     7
176
     0
 40
1.0
176
     0
 90
        1
176
     0
 90
        6
176
     0
 90
        2
176
     0
 62
     7
176
     0
 90
        5
176
     0
 90
        0
176
     0
 90
        0
176
     0
290
     0
176
     0
 90
        1
176
     0
 40
0.0
176
     0
 90
        0
176
     0
290
     0
176
     0
290
     1
176
     0
290
     1
176
     0
290
     0
176
     0
290
     0
176
     0
290
     0
176
     0
290
     0
176
     0
290
     0
176
     0
290
     0
176
     0
 90
       50
176
     0
 40
0.0
176
     0
 40
1.0
176
     0
 90
        0
176
     0
 62
    18
420
        0
176
     0
 90
       50
176
     0
 90
        3
176
     0
 62
     5
420
      255
176
     0
290
     0
176
     0
 90
       50
176
     0
 90
       50
176
     0
 90
       50
176
     0
290
     0
176
     0
 90
       50
176
     0
 62
   256
176
     0
 40
1.0
176
     0
 90
        2
176
     0
  1
strokes_ogs.tif
176
     0
290
     0
176
     0
 40
1.0
176
     0
 40
1.0
176
     0
  0
VISUALSTYLE
  5
33
102
{ACAD_REACTORS
330
29
102
}
330
29
100
AcDbVisualStyle
  2
Realistic
 70
     8
177
     3
291
     0
 70
    58
 90
        2
176
     1
 90
        3
176
     1
 90
        0
176
     1
 90
        2
176
     1
 40
0.6
176
     1
 40
30.0
176
     1
 62
     7
420
 16777215
176
     1
 90
        0
176
     1
 90
        0
176
     1
 62
     7
176
     1
 62
   257
176
     1
 90
        1
176
     1
 90
        1
176
     1
 40
1.0
176
     1
 90
        8
176
     1
 62
   257
176
     1
 40
1.0
176
     1
 90
        1
176
     1
 90
        6
176
     1
 90
        2
176
     1
 62
     7
176
     1
 90
        3
176
     1
 90
        0
176
     1
 90
        0
176
     1
290
     0
176
     1
 90
       13
176
     1
 40
0.0
176
     1
 90
        0
176
     1
290
     0
176
     1
290
     1
176
     1
290
     1
176
     1
290
     0
176
     1
290
     0
176
     1
290
     0
176
     1
290
     0
176
     1
290
     0
176
     1
290
     0
176
     1
 90
       50
176
     1
 40
0.0
176
     1
 40
1.0
176
     1
 90
        0
176
     1
 62
    18
420
        0
176
     1
 90
       50
176
     1
 90
        3
176
     1
 62
     5
420
      255
176
     1
290
     0
176
     1
 90
       50
176
     1
 90
       50
176
     1
 90
       50
176
     1
290
     0
176
     1
 90
       50
176
     1
 62
   256
176
     0
 40
1.0
176
     0
 90
        2
176
     1
  1
strokes_ogs.tif
176
     1
290
     0
176
     1
 40
1.0
176
     1
 40
1.0
176
     1
  0
VISUALSTYLE
  5
3E
102
{ACAD_REACTORS
330
29
102
}
330
29
100
AcDbVisualStyle
  2
Shaded
 70
    27
177
     3
291
     0
 70
    58
 90
        2
176
     1
 90
        2
176
     1
 90
        1
176
     1
 90
        2
176
     1
 40
0.6
176
     1
 40
30.0
176
     1
 62
     7
420
 16777215
176
     1
 90
        0
176
     1
 90
        4
176
     1
 62
     7
176
     1
 62
   257
176
     1
 90
        1
176
     1
 90
        1
176
     1
 40
1.0
176
     1
 90
        8
176
     1
 62
   257
176
     1
 40
1.0
176
     1
 90
        1
176
     1
 90
        6
176
     1
 90
        2
176
     1
 62
     8
420
  7895160
176
     1
 90
        3
176
     1
 90
        0
176
     1
 90
        0
176
     1
290
     0
176
     1
 90
        5
176
     1
 40
0.0
176
     1
 90
        0
176
     1
290
     0
176
     1
290
     1
176
     1
290
     1
176
     1
290
     0
176
     1
290
     0
176
     1
290
     0
176
     1
290
     0
176
     1
290
     0
176
     1
290
     0
176
     1
 90
       50
176
     1
 40
0.0
176
     1
 40
1.0
176
     1
 90
        0
176
     1
 62
    18
420
        0
176
     1
 90
       50
176
     1
 90
        3
176
     1
 62
     5
420
      255
176
     1
290
     0
176
     1
 90
       50
176
     1
 90
       50
176
     1
 90
       50
176
     1
290
     0
176
     1
 90
       50
176
     1
 62
   256
176
     0
 40
1.0
176
     0
 90
        2
176
     1
  1
strokes_ogs.tif
176
     1
290
     0
176
     1
 40
1.0
176
     1
 40
1.0
176
     1
  0
VISUALSTYLE
  5
3D
102
{ACAD_REACTORS
330
29
102
}
330
29
100
AcDbVisualStyle
  2
Shaded with edges
 70
    26
177
     3
291
     0
 70
    58
 90
        2
176
     1
 90
        2
176
     1
 90
        1
176
     1
 90
        2
176
     1
 40
0.6
176
     1
 40
30.0
176
     1
 62
     7
420
 16777215
176
     1
 90
        1
176
     1
 90
        2
176
     1
 62
     7
176
     1
 62
   257
176
     1
 90
        2
176
     1
 90
        1
176
     1
 40
1.0
176
     1
 90
        8
176
     1
 62
   257
176
     1
 40
1.0
176
     1
 90
        1
176
     1
 90
        6
176
     1
 90
        2
176
     1
 62
     7
176
     1
 90
        3
176
     1
 90
        0
176
     1
 90
        0
176
     1
290
     0
176
     1
 90
        5
176
     1
 40
0.0
176
     1
 90
        0
176
     1
290
     0
176
     1
290
     1
176
     1
290
     1
176
     1
290
     0
176
     1
290
     0
176
     1
290
     0
176
     1
290
     0
176
     1
290
     0
176
     1
290
     0
176
     1
 90
       50
176
     1
 40
0.0
176
     1
 40
1.0
176
     1
 90
        0
176
     1
 62
    18
420
        0
176
     1
 90
       50
176
     1
 90
        3
176
     1
 62
     5
420
      255
176
     1
290
     0
176
     1
 90
       50
176
     1
 90
       50
176
     1
 90
       50
176
     1
290
     0
176
     1
 90
       50
176
     1
 62
   256
176
     0
 40
1.0
176
     0
 90
        2
176
     1
  1
strokes_ogs.tif
176
     1
290
     0
176
     1
 40
1.0
176
     1
 40
1.0
176
     1
  0
VISUALSTYLE
  5
3A
102
{ACAD_REACTORS
330
29
102
}
330
29
100
AcDbVisualStyle
  2
Shades of Gray
 70
    23
177
     3
291
     0
 70
    58
 90
        2
176
     1
 90
        2
176
     1
 90
        3
176
     1
 90
        0
176
     1
 40
0.6
176
     1
 40
30.0
176
     1
 62
     7
420
 16777215
176
     1
 90
        2
176
     1
 90
        2
176
     1
 62
     7
176
     1
 62
     7
176
     1
 90
        1
176
     1
 90
        1
176
     1
 40
40.0
176
     1
 90
        8
176
     1
 62
     7
176
     1
 40
1.0
176
     1
 90
        1
176
     1
 90
        6
176
     1
 90
        2
176
     1
 62
     7
176
     1
 90
        3
176
     1
 90
        0
176
     1
 90
        0
176
     1
290
     0
176
     1
 90
        1
176
     1
 40
0.0
176
     1
 90
        0
176
     1
290
     0
176
     1
290
     1
176
     1
290
     1
176
     1
290
     0
176
     1
290
     0
176
     1
290
     0
176
     1
290
     0
176
     1
290
     0
176
     1
290
     0
176
     1
 90
       50
176
     1
 40
0.0
176
     1
 40
1.0
176
     1
 90
        0
176
     1
 62
    18
420
        0
176
     1
 90
       50
176
     1
 90
        3
176
     1
 62
     5
420
      255
176
     1
290
     0
176
     1
 90
       50
176
     1
 90
       50
176
     1
 90
       50
176
     1
290
     0
176
     1
 90
       50
176
     1
 62
   256
176
     0
 40
1.0
176
     0
 90
        2
176
     1
  1
strokes_ogs.tif
176
     1
290
     0
176
     1
 40
1.0
176
     1
 40
1.0
176
     1
  0
VISUALSTYLE
  5
3B
102
{ACAD_REACTORS
330
29
102
}
330
29
100
AcDbVisualStyle
  2
Sketchy
 70
    24
177
     3
291
     0
 70
    58
 90
        1
176
     1
 90
        2
176
     1
 90
        2
176
     1
 90
        0
176
     1
 40
0.6
176
     1
 40
30.0
176
     1
 62
     7
420
 16777215
176
     1
 90
        2
176
     1
 90
        2
176
     1
 62
     7
176
     1
 62
     7
176
     1
 90
        1
176
     1
 90
        1
176
     1
 40
40.0
176
     1
 90
       11
176
     1
 62
     7
176
     1
 40
1.0
176
     1
 90
        1
176
     1
 90
        6
176
     1
 90
        2
176
     1
 62
     7
176
     1
 90
        6
176
     1
 90
        0
176
     1
 90
        0
176
     1
290
     0
176
     1
 90
        1
176
     1
 40
0.0
176
     1
 90
        0
176
     1
290
     0
176
     1
290
     1
176
     1
290
     1
176
     1
290
     0
176
     1
290
     0
176
     1
290
     0
176
     1
290
     0
176
     1
290
     0
176
     1
290
     0
176
     1
 90
       50
176
     1
 40
0.0
176
     1
 40
1.0
176
     1
 90
        0
176
     1
 62
    18
420
        0
176
     1
 90
       50
176
     1
 90
        3
176
     1
 62
     5
420
      255
176
     1
290
     0
176
     1
 90
       50
176
     1
 90
       50
176
     1
 90
       50
176
     1
290
     0
176
     1
 90
       50
176
     1
 62
   256
176
     0
 40
1.0
176
     0
 90
        2
176
     1
  1
strokes_ogs.tif
176
     1
290
     0
176
     1
 40
1.0
176
     1
 40
1.0
176
     1
  0
VISUALSTYLE
  5
36
102
{ACAD_REACTORS
330
29
102
}
330
29
100
AcDbVisualStyle
  2
Thicken
 70
    13
177
     3
291
     1
 70
    58
 90
        2
176
     1
 90
        2
176
     1
 90
        0
176
     1
 90
        0
176
     1
 40
0.6
176
     1
 40
30.0
176
     1
 62
     7
420
 16777215
176
     1
 90
        1
176
     1
 90
        4
176
     1
 62
     7
176
     1
 62
   257
176
     1
 90
        1
176
     1
 90
        1
176
     1
 40
1.0
176
     1
 90
       12
176
     1
 62
     7
176
     1
 40
1.0
176
     1
 90
        1
176
     1
 90
        6
176
     1
 90
        2
176
     1
 62
     7
176
     1
 90
        5
176
     1
 90
        0
176
     1
 90
        0
176
     1
290
     0
176
     1
 90
        1
176
     1
 40
0.0
176
     1
 90
        0
176
     1
290
     0
176
     1
290
     1
176
     1
290
     1
176
     1
290
     0
176
     1
290
     0
176
     1
290
     0
176
     1
290
     0
176
     1
290
     0
176
     1
290
     0
176
     1
 90
       50
176
     1
 40
0.0
176
     1
 40
1.0
176
     1
 90
        0
176
     1
 62
    18
420
        0
176
     1
 90
       50
176
     1
 90
        3
176
     1
 62
     5
420
      255
176
     1
290
     0
176
     1
 90
       50
176
     1
 90
       50
176
     1
 90
       50
176
     1
290
     0
176
     1
 90
       50
176
     1
 62
   256
176
     0
 40
1.0
176
     0
 90
        2
176
     1
  1
strokes_ogs.tif
176
     1
290
     0
176
     1
 40
1.0
176
     1
 40
1.0
176
     1
  0
VISUALSTYLE
  5
30
102
{ACAD_REACTORS
330
29
102
}
330
29
100
AcDbVisualStyle
  2
Wireframe
 70
     5
177
     3
291
     0
 70
    58
 90
        0
176
     1
 90
        2
176
     1
 90
        0
176
     1
 90
        0
176
     1
 40
0.6
176
     1
 40
30.0
176
     1
 62
     7
420
 16777215
176
     1
 90
        1
176
     1
 90
        4
176
     1
 62
     7
176
     1
 62
   257
176
     1
 90
        1
176
     1
 90
        1
176
     1
 40
1.0
176
     1
 90
        0
176
     1
 62
   257
176
     1
 40
1.0
176
     1
 90
        1
176
     1
 90
        6
176
     1
 90
        2
176
     1
 62
     7
176
     1
 90
        3
176
     1
 90
        0
176
     1
 90
        0
176
     1
290
     0
176
     1
 90
        1
176
     1
 40
0.0
176
     1
 90
        0
176
     1
290
     0
176
     1
290
     1
176
     1
290
     1
176
     1
290
     0
176
     1
290
     0
176
     1
290
     0
176
     1
290
     0
176
     1
290
     0
176
     1
290
     0
176
     1
 90
       50
176
     1
 40
0.0
176
     1
 40
1.0
176
     1
 90
        0
176
     1
 62
    18
420
        0
176
     1
 90
       50
176
     1
 90
        3
176
     1
 62
     5
420
      255
176
     1
290
     0
176
     1
 90
       50
176
     1
 90
       50
176
     1
 90
       50
176
     1
290
     0
176
     1
 90
       50
176
     1
 62
   256
176
     0
 40
1.0
176
     0
 90
        2
176
     1
  1
strokes_ogs.tif
176
     1
290
     0
176
     1
 40
1.0
176
     1
 40
1.0
176
     1
  0
VISUALSTYLE
  5
3C
102
{ACAD_REACTORS
330
29
102
}
330
29
100
AcDbVisualStyle
  2
X-Ray
 70
    25
177
     3
291
     0
 70
    58
 90
        2
176
     1
 90
        2
176
     1
 90
        1
176
     1
 90
        1
176
     1
 40
0.5
176
     1
 40
30.0
176
     1
 62
     7
420
 16777215
176
     1
 90
        1
176
     1
 90
        0
176
     1
 62
     7
176
     1
 62
   257
176
     1
 90
        1
176
     1
 90
        1
176
     1
 40
1.0
176
     1
 90
        8
176
     1
 62
     7
176
     1
 40
1.0
176
     1
 90
        1
176
     1
 90
        6
176
     1
 90
        2
176
     1
 62
     7
176
     1
 90
        3
176
     1
 90
        0
176
     1
 90
        0
176
     1
290
     0
176
     1
 90
       13
176
     1
 40
0.0
176
     1
 90
        0
176
     1
290
     0
176
     1
290
     1
176
     1
290
     1
176
     1
290
     0
176
     1
290
     0
176
     1
290
     0
176
     1
290
     0
176
     1
290
     0
176
     1
290
     0
176
     1
 90
       50
176
     1
 40
0.0
176
     1
 40
1.0
176
     1
 90
        0
176
     1
 62
    18
420
        0
176
     1
 90
       50
176
     1
 90
        3
176
     1
 62
     5
420
      255
176
     1
290
     0
176
     1
 90
       50
176
     1
 90
       50
176
     1
 90
       50
176
     1
290
     0
176
     1
 90
       50
176
     1
 62
   256
176
     0
 40
1.0
176
     0
 90
        2
176
     1
  1
strokes_ogs.tif
176
     1
290
     0
176
     1
 40
1.0
176
     1
 40
1.0
176
     1
  0
DICTIONARYVAR
  5
1D3
102
{ACAD_REACTORS
330
1CE
102
}
330
1CE
100
DictionaryVariables
280
     0
  1
1:1
  0
DICTIONARYVAR
  5
1D0
102
{ACAD_REACTORS
330
1CE
102
}
330
1CE
100
DictionaryVariables
280
     0
  1
STANDARD
  0
DICTIONARYVAR
  5
1CF
102
{ACAD_REACTORS
330
1CE
102
}
330
1CE
100
DictionaryVariables
280
     0
  1
STANDARD
  0
DICTIONARYVAR
  5
1D1
102
{ACAD_REACTORS
330
1CE
102
}
330
1CE
100
DictionaryVariables
280
     0
  1
Imperial24
  0
DICTIONARYVAR
  5
1D2
102
{ACAD_REACTORS
330
1CE
102
}
330
1CE
100
DictionaryVariables
280
     0
  1
Imperial24
  0
DICTIONARY
  5
1A
330
19
100
AcDbDictionary
280
     1
281
     1
  3
BUMPTILE
360
1C
  3
DIFFUSETILE
360
1B
  3
OPACITYTILE
360
1F
  3
REFLECTIONTILE
360
1E
  3
REFRACTIONTILE
360
20
  3
SPECULARTILE
360
1D
  0
DICTIONARY
  5
12
330
11
100
AcDbDictionary
280
     1
281
     1
  3
BUMPTILE
360
14
  3
DIFFUSETILE
360
13
  3
OPACITYTILE
360
17
  3
REFLECTIONTILE
360
16
  3
REFRACTIONTILE
360
18
  3
SPECULARTILE
360
15
  0
DICTIONARY
  5
22
330
21
100
AcDbDictionary
280
     1
281
     1
  3
BUMPTILE
360
24
  3
DIFFUSETILE
360
23
  3
OPACITYTILE
360
27
  3
REFLECTIONTILE
360
26
  3
REFRACTIONTILE
360
28
  3
SPECULARTILE
360
25
  0
DICTIONARY
  5
1F5
330
65
100
AcDbDictionary
280
     1
281
     1
  3
ACAD_ROUNDTRIP_2008_TABLESTYLE_CELLSTYLEMAP
360
1F6
  0
XRECORD
  5
1C
102
{ACAD_REACTORS
330
1A
102
}
330
1A
100
AcDbXrecord
280
     1
270
     1
271
     1
  0
XRECORD
  5
1B
102
{ACAD_REACTORS
330
1A
102
}
330
1A
100
AcDbXrecord
280
     1
270
     1
271
     1
  0
XRECORD
  5
1F
102
{ACAD_REACTORS
330
1A
102
}
330
1A
100
AcDbXrecord
280
     1
270
     1
271
     1
  0
XRECORD
  5
1E
102
{ACAD_REACTORS
330
1A
102
}
330
1A
100
AcDbXrecord
280
     1
270
     1
271
     1
  0
XRECORD
  5
20
102
{ACAD_REACTORS
330
1A
102
}
330
1A
100
AcDbXrecord
280
     1
270
     1
271
     1
  0
XRECORD
  5
1D
102
{ACAD_REACTORS
330
1A
102
}
330
1A
100
AcDbXrecord
280
     1
270
     1
271
     1
  0
XRECORD
  5
14
102
{ACAD_REACTORS
330
12
102
}
330
12
100
AcDbXrecord
280
     1
270
     1
271
     1
  0
XRECORD
  5
13
102
{ACAD_REACTORS
330
12
102
}
330
12
100
AcDbXrecord
280
     1
270
     1
271
     1
  0
XRECORD
  5
17
102
{ACAD_REACTORS
330
12
102
}
330
12
100
AcDbXrecord
280
     1
270
     1
271
     1
  0
XRECORD
  5
16
102
{ACAD_REACTORS
330
12
102
}
330
12
100
AcDbXrecord
280
     1
270
     1
271
     1
  0
XRECORD
  5
18
102
{ACAD_REACTORS
330
12
102
}
330
12
100
AcDbXrecord
280
     1
270
     1
271
     1
  0
XRECORD
  5
15
102
{ACAD_REACTORS
330
12
102
}
330
12
100
AcDbXrecord
280
     1
270
     1
271
     1
  0
XRECORD
  5
24
102
{ACAD_REACTORS
330
22
102
}
330
22
100
AcDbXrecord
280
     1
270
     1
271
     1
  0
XRECORD
  5
23
102
{ACAD_REACTORS
330
22
102
}
330
22
100
AcDbXrecord
280
     1
270
     1
271
     1
  0
XRECORD
  5
27
102
{ACAD_REACTORS
330
22
102
}
330
22
100
AcDbXrecord
280
     1
270
     1
271
     1
  0
XRECORD
  5
26
102
{ACAD_REACTORS
330
22
102
}
330
22
100
AcDbXrecord
280
     1
270
     1
271
     1
  0
XRECORD
  5
28
102
{ACAD_REACTORS
330
22
102
}
330
22
100
AcDbXrecord
280
     1
270
     1
271
     1
  0
XRECORD
  5
25
102
{ACAD_REACTORS
330
22
102
}
330
22
100
AcDbXrecord
280
     1
270
     1
271
     1
  0
CELLSTYLEMAP
  5
1F6
102
{ACAD_REACTORS
330
1F5
102
}
330
1F5
100
AcDbCellStyleMap
 90
        3
300
CELLSTYLE
  1
TABLEFORMAT_BEGIN
 90
        5
170
     1
 91
        0
 92
    32768
 62
   257
 93
        1
300
CONTENTFORMAT
  1
CONTENTFORMAT_BEGIN
 90
        0
 91
        0
 92
      512
 93
        0
300

 40
0.0
140
1.0
 94
        5
 62
     0
340
55
144
0.25
309
CONTENTFORMAT_END
171
     0
 94
        0
309
TABLEFORMAT_END
  1
CELLSTYLE_BEGIN
 90
        1
 91
        1
300
_TITLE
309
CELLSTYLE_END
300
CELLSTYLE
  1
TABLEFORMAT_BEGIN
 90
        5
170
     1
 91
        0
 92
        0
 62
   257
 93
        1
300
CONTENTFORMAT
  1
CONTENTFORMAT_BEGIN
 90
        0
 91
        0
 92
      512
 93
        0
300

 40
0.0
140
1.0
 94
        5
 62
     0
340
55
144
0.18
309
CONTENTFORMAT_END
171
     0
 94
        0
309
TABLEFORMAT_END
  1
CELLSTYLE_BEGIN
 90
        2
 91
        1
300
_HEADER
309
CELLSTYLE_END
300
CELLSTYLE
  1
TABLEFORMAT_BEGIN
 90
        5
170
     1
 91
        0
 92
        0
 62
   257
 93
        1
300
CONTENTFORMAT
  1
CONTENTFORMAT_BEGIN
 90
        0
 91
        0
 92
      512
 93
        0
300

 40
0.0
140
1.0
 94
        2
 62
     0
340
55
144
0.18
309
CONTENTFORMAT_END
171
     0
 94
        0
309
TABLEFORMAT_END
  1
CELLSTYLE_BEGIN
 90
        3
 91
        2
300
_DATA
309
CELLSTYLE_END
  0
ENDSEC
  0
EOF
